  0
SECTION
  2
HEADER
  9
$ACADVER
  1
AC1014
  9
$ACADMAINTVER
 70
     8
  9
$DWGCODEPAGE
  3
ANSI_1252
  9
$INSBASE
 10
0.0
 20
0.0
 30
0.0
  9
$EXTMIN
 10
-0.0029067249150981
 20
0.0012440828488085
 30
0.0
  9
$EXTMAX
 10
14.4211348255467
 20
18.91837734935484
 30
0.0
  9
$LIMMIN
 10
0.0
 20
0.0
  9
$LIMMAX
 10
12.0
 20
9.0
  9
$ORTHOMODE
 70
     0
  9
$REGENMODE
 70
     1
  9
$FILLMODE
 70
     1
  9
$QTEXTMODE
 70
     0
  9
$MIRRTEXT
 70
     0
  9
$DRAGMODE
 70
     2
  9
$LTSCALE
 40
1.5
  9
$OSMODE
 70
     0
  9
$ATTMODE
 70
     1
  9
$TEXTSIZE
 40
0.25
  9
$TRACEWID
 40
0.05
  9
$TEXTSTYLE
  7
STANDARD
  9
$CLAYER
  8
USP
  9
$CELTYPE
  6
BYLAYER
  9
$CECOLOR
 62
   256
  9
$CELTSCALE
 40
1.0
  9
$DELOBJ
 70
     1
  9
$DISPSILH
 70
     1
  9
$DIMSCALE
 40
5.0
  9
$DIMASZ
 40
0.125
  9
$DIMEXO
 40
0.0625
  9
$DIMDLI
 40
0.38
  9
$DIMRND
 40
0.0
  9
$DIMDLE
 40
0.0
  9
$DIMEXE
 40
0.09375
  9
$DIMTP
 40
0.0
  9
$DIMTM
 40
0.0
  9
$DIMTXT
 40
0.109375
  9
$DIMCEN
 40
0.0
  9
$DIMTSZ
 40
0.0
  9
$DIMTOL
 70
     0
  9
$DIMLIM
 70
     0
  9
$DIMTIH
 70
     1
  9
$DIMTOH
 70
     1
  9
$DIMSE1
 70
     0
  9
$DIMSE2
 70
     0
  9
$DIMTAD
 70
     0
  9
$DIMZIN
 70
     8
  9
$DIMBLK
  1

  9
$DIMASO
 70
     1
  9
$DIMSHO
 70
     1
  9
$DIMPOST
  1

  9
$DIMAPOST
  1

  9
$DIMALT
 70
     0
  9
$DIMALTD
 70
     2
  9
$DIMALTF
 40
25.4
  9
$DIMLFAC
 40
1.0
  9
$DIMTOFL
 70
     0
  9
$DIMTVP
 40
0.0
  9
$DIMTIX
 70
     0
  9
$DIMSOXD
 70
     0
  9
$DIMSAH
 70
     0
  9
$DIMBLK1
  1

  9
$DIMBLK2
  1

  9
$DIMSTYLE
  2
STANDARD
  9
$DIMCLRD
 70
   256
  9
$DIMCLRE
 70
   256
  9
$DIMCLRT
 70
   256
  9
$DIMTFAC
 40
1.0
  9
$DIMGAP
 40
0.09
  9
$DIMJUST
 70
     0
  9
$DIMSD1
 70
     0
  9
$DIMSD2
 70
     0
  9
$DIMTOLJ
 70
     1
  9
$DIMTZIN
 70
     0
  9
$DIMALTZ
 70
     0
  9
$DIMALTTZ
 70
     0
  9
$DIMFIT
 70
     3
  9
$DIMUPT
 70
     1
  9
$DIMUNIT
 70
     7
  9
$DIMDEC
 70
     4
  9
$DIMTDEC
 70
     4
  9
$DIMALTU
 70
     2
  9
$DIMALTTD
 70
     2
  9
$DIMTXSTY
  7
STANDARD
  9
$DIMAUNIT
 70
     0
  9
$LUNITS
 70
     5
  9
$LUPREC
 70
     6
  9
$SKETCHINC
 40
0.1
  9
$FILLETRAD
 40
0.0
  9
$AUNITS
 70
     0
  9
$AUPREC
 70
     1
  9
$MENU
  1
CUSTOM
  9
$ELEVATION
 40
0.0
  9
$PELEVATION
 40
0.0
  9
$THICKNESS
 40
0.0
  9
$LIMCHECK
 70
     0
  9
$BLIPMODE
 70
     0
  9
$CHAMFERA
 40
0.0
  9
$CHAMFERB
 40
0.0
  9
$CHAMFERC
 40
0.0
  9
$CHAMFERD
 40
0.0
  9
$SKPOLY
 70
     0
  9
$TDCREATE
 40
2451263.621564698
  9
$TDUPDATE
 40
2453025.993517245
  9
$TDINDWG
 40
1.0220468056
  9
$TDUSRTIMER
 40
1.0220468056
  9
$USRTIMER
 70
     1
  9
$ANGBASE
 50
0.0
  9
$ANGDIR
 70
     0
  9
$PDMODE
 70
     0
  9
$PDSIZE
 40
0.0
  9
$PLINEWID
 40
0.0
  9
$COORDS
 70
     2
  9
$SPLFRAME
 70
     0
  9
$SPLINETYPE
 70
     6
  9
$SPLINESEGS
 70
     8
  9
$ATTDIA
 70
     0
  9
$ATTREQ
 70
     0
  9
$HANDLING
 70
     1
  9
$HANDSEED
  5
176
  9
$SURFTAB1
 70
     6
  9
$SURFTAB2
 70
     6
  9
$SURFTYPE
 70
     6
  9
$SURFU
 70
     6
  9
$SURFV
 70
     6
  9
$UCSNAME
  2

  9
$UCSORG
 10
0.0
 20
0.0
 30
0.0
  9
$UCSXDIR
 10
1.0
 20
0.0
 30
0.0
  9
$UCSYDIR
 10
0.0
 20
1.0
 30
0.0
  9
$PUCSNAME
  2

  9
$PUCSORG
 10
0.0
 20
0.0
 30
0.0
  9
$PUCSXDIR
 10
1.0
 20
0.0
 30
0.0
  9
$PUCSYDIR
 10
0.0
 20
1.0
 30
0.0
  9
$USERI1
 70
     0
  9
$USERI2
 70
     0
  9
$USERI3
 70
     0
  9
$USERI4
 70
     0
  9
$USERI5
 70
     0
  9
$USERR1
 40
0.0
  9
$USERR2
 40
0.0
  9
$USERR3
 40
0.0
  9
$USERR4
 40
0.0
  9
$USERR5
 40
0.0
  9
$WORLDVIEW
 70
     1
  9
$SHADEDGE
 70
     3
  9
$SHADEDIF
 70
    70
  9
$TILEMODE
 70
     1
  9
$MAXACTVP
 70
    16
  9
$PINSBASE
 10
0.0
 20
0.0
 30
0.0
  9
$PLIMCHECK
 70
     0
  9
$PEXTMIN
 10
1.000000000000000E+20
 20
1.000000000000000E+20
 30
1.000000000000000E+20
  9
$PEXTMAX
 10
-1.000000000000000E+20
 20
-1.000000000000000E+20
 30
-1.000000000000000E+20
  9
$PLIMMIN
 10
0.0
 20
0.0
  9
$PLIMMAX
 10
12.0
 20
9.0
  9
$UNITMODE
 70
     0
  9
$VISRETAIN
 70
     0
  9
$PLINEGEN
 70
     0
  9
$PSLTSCALE
 70
     0
  9
$TREEDEPTH
 70
  3020
  9
$PICKSTYLE
 70
     1
  9
$CMLSTYLE
  2
STANDARD
  9
$CMLJUST
 70
     0
  9
$CMLSCALE
 40
1.0
  9
$PROXYGRAPHICS
 70
     1
  9
$MEASUREMENT
 70
     0
  0
ENDSEC
  0
SECTION
  2
CLASSES
  0
CLASS
  1
ACDBDICTIONARYWDFLT
  2
AcDbDictionaryWithDefault
  3
AutoCAD 2000
 90
        0
280
     0
281
     0
  0
CLASS
  1
ACDBPLACEHOLDER
  2
AcDbPlaceHolder
  3
AutoCAD 2000
 90
        0
280
     0
281
     0
  0
CLASS
  1
LAYOUT
  2
AcDbLayout
  3
AutoCAD 2000
 90
        0
280
     0
281
     0
  0
CLASS
  1
DICTIONARYVAR
  2
AcDbDictionaryVar
  3
"AutoCAD"
 90
        0
280
     0
281
     0
  0
CLASS
  1
SORTENTSTABLE
  2
AcDbSortentsTable
  3
"AutoCAD"
 90
        0
280
     0
281
     0
  0
CLASS
  1
LONG_TRANSACTION
  2
AcDbLongTransaction
  3
AutoCAD 2000
 90
        0
280
     0
281
     0
  0
CLASS
  1
LWPOLYLINE
  2
AcDbPolyline
  3
"AutoCAD"
 90
        0
280
     0
281
     1
  0
CLASS
  1
HATCH
  2
AcDbHatch
  3
"ACAD_SEDONA"
 90
        0
280
     0
281
     1
  0
CLASS
  1
XRECORD
  2
AcDbXrecord
  3
"<Built In>"
 90
        0
280
     0
281
     0
  0
CLASS
  1
LONG_TRANSACTION
  2
AcDbLongTransaction
  3
AutoCAD 2000
 90
        0
280
     0
281
     0
  0
CLASS
  1
LWPOLYLINE
  2
AcDbPolyline
  3
"AutoCAD"
 90
        0
280
     0
281
     1
  0
CLASS
  1
HATCH
  2
AcDbHatch
  3
"ACAD_SEDONA"
 90
        0
280
     0
281
     1
  0
CLASS
  1
XRECORD
  2
AcDbXrecord
  3
"<Built In>"
 90
        0
280
     0
281
     0
  0
CLASS
  1
LONG_TRANSACTION
  2
AcDbLongTransaction
  3
AutoCAD 2000
 90
        0
280
     0
281
     0
  0
CLASS
  1
LWPOLYLINE
  2
AcDbPolyline
  3
"AutoCAD"
 90
        0
280
     0
281
     1
  0
CLASS
  1
HATCH
  2
AcDbHatch
  3
"ACAD_SEDONA"
 90
        0
280
     0
281
     1
  0
CLASS
  1
XRECORD
  2
AcDbXrecord
  3
"<Built In>"
 90
        0
280
     0
281
     0
  0
CLASS
  1
LONG_TRANSACTION
  2
AcDbLongTransaction
  3
AutoCAD 2000
 90
        0
280
     0
281
     0
  0
CLASS
  1
LWPOLYLINE
  2
AcDbPolyline
  3
"AutoCAD"
 90
        0
280
     0
281
     1
  0
CLASS
  1
HATCH
  2
AcDbHatch
  3
"ACAD_SEDONA"
 90
        0
280
     0
281
     1
  0
CLASS
  1
XRECORD
  2
AcDbXrecord
  3
"<Built In>"
 90
        0
280
     0
281
     0
  0
CLASS
  1
LONG_TRANSACTION
  2
AcDbLongTransaction
  3
AutoCAD 2000
 90
        0
280
     0
281
     0
  0
CLASS
  1
LWPOLYLINE
  2
AcDbPolyline
  3
"AutoCAD"
 90
        0
280
     0
281
     1
  0
CLASS
  1
HATCH
  2
AcDbHatch
  3
"ACAD_SEDONA"
 90
        0
280
     0
281
     1
  0
CLASS
  1
XRECORD
  2
AcDbXrecord
  3
"<Built In>"
 90
        0
280
     0
281
     0
  0
ENDSEC
  0
SECTION
  2
TABLES
  0
TABLE
  2
VPORT
  5
167
100
AcDbSymbolTable
 70
     1
  0
VPORT
  5
168
100
AcDbSymbolTableRecord
100
AcDbViewportTableRecord
  2
*ACTIVE
 70
     0
 10
0.0
 20
0.0
 11
1.0
 21
1.0
 12
2.410993151883802
 22
12.97672514436065
 13
0.0
 23
0.0
 14
1.0
 24
1.0
 15
0.0
 25
0.0
 16
0.0
 26
0.0
 36
1.0
 17
6.945383261844295
 27
-0.9508861289704668
 37
-0.8286679297267623
 40
24.16458481164754
 41
1.379227053140096
 42
50.0
 43
0.0
 44
0.0
 50
0.0
 51
0.0
 71
     0
 72
   100
 73
     1
 74
     1
 75
     0
 76
     0
 77
     0
 78
     0
  0
ENDTAB
  0
TABLE
  2
LTYPE
  5
162
100
AcDbSymbolTable
 70
     1
  0
LTYPE
  5
163
100
AcDbSymbolTableRecord
100
AcDbLinetypeTableRecord
  2
BYBLOCK
 70
     0
  3

 72
    65
 73
     0
 40
0.0
  0
LTYPE
  5
164
100
AcDbSymbolTableRecord
100
AcDbLinetypeTableRecord
  2
BYLAYER
 70
     0
  3

 72
    65
 73
     0
 40
0.0
  0
LTYPE
  5
5
100
AcDbSymbolTableRecord
100
AcDbLinetypeTableRecord
  2
CONTINUOUS
 70
     0
  3
Solid line
 72
    65
 73
     0
 40
0.0
  0
ENDTAB
  0
TABLE
  2
LAYER
  5
160
100
AcDbSymbolTable
 70
     4
  0
LAYER
  5
8E
100
AcDbSymbolTableRecord
100
AcDbLayerTableRecord
  2
0
 70
     0
 62
     7
  6
CONTINUOUS
  0
LAYER
  5
8
102
{ACAD_XDICTIONARY
360
9
102
}
100
AcDbSymbolTableRecord
100
AcDbLayerTableRecord
  2
USP-GEO
 70
     0
 62
     7
  6
CONTINUOUS
  0
LAYER
  5
89
102
{ACAD_XDICTIONARY
360
8A
102
}
100
AcDbSymbolTableRecord
100
AcDbLayerTableRecord
  2
USP-TXT
 70
     0
 62
     7
  6
CONTINUOUS
  0
LAYER
  5
4
100
AcDbSymbolTableRecord
100
AcDbLayerTableRecord
  2
USP
 70
     0
 62
     7
  6
CONTINUOUS
  0
ENDTAB
  0
TABLE
  2
STYLE
  5
161
100
AcDbSymbolTable
 70
     1
  0
STYLE
  5
8C
100
AcDbSymbolTableRecord
100
AcDbTextStyleTableRecord
  2
STANDARD
 70
     0
 40
0.0
 41
1.0
 50
0.0
 71
     0
 42
0.25
  3
txt
  4

  0
ENDTAB
  0
TABLE
  2
VIEW
  5
165
100
AcDbSymbolTable
 70
     0
  0
ENDTAB
  0
TABLE
  2
UCS
  5
166
100
AcDbSymbolTable
 70
     0
  0
ENDTAB
  0
TABLE
  2
APPID
  5
169
100
AcDbSymbolTable
 70
     1
  0
APPID
  5
5D
100
AcDbSymbolTableRecord
100
AcDbRegAppTableRecord
  2
ACAD
 70
     0
  0
ENDTAB
  0
TABLE
  2
DIMSTYLE
  5
16A
100
AcDbSymbolTable
 70
     1
  0
DIMSTYLE
105
170
102
{ACAD_XDICTIONARY
360
171
102
}
100
AcDbSymbolTableRecord
100
AcDbDimStyleTableRecord
  2
STANDARD
 70
     0
  3

  4

  5

  6

  7

 40
1.0
 41
0.125
 42
0.0625
 43
0.38
 44
0.09375
 45
0.0
 46
0.0
 47
0.0
 48
0.0
140
0.109375
141
0.0
142
0.0
143
25.4
144
1.0
145
0.0
146
1.0
147
0.09
 71
     0
 72
     0
 73
     1
 74
     1
 75
     0
 76
     0
 77
     0
 78
     8
170
     0
171
     2
172
     0
173
     0
174
     0
175
     0
176
     0
177
     0
178
     0
270
     7
271
     4
272
     4
273
     2
274
     2
340
8C
275
     0
280
     0
281
     0
282
     0
283
     1
284
     0
285
     0
286
     0
287
     3
288
     0
  0
ENDTAB
  0
TABLE
  2
BLOCK_RECORD
  5
1
100
AcDbSymbolTable
 70
     3
  0
BLOCK_RECORD
  5
2
102
{ACAD_XDICTIONARY
360
157
102
}
100
AcDbSymbolTableRecord
100
AcDbBlockTableRecord
  2
*MODEL_SPACE
  0
BLOCK_RECORD
  5
15B
102
{ACAD_XDICTIONARY
360
15C
102
}
100
AcDbSymbolTableRecord
100
AcDbBlockTableRecord
  2
*PAPER_SPACE
  0
BLOCK_RECORD
  5
6
100
AcDbSymbolTableRecord
100
AcDbBlockTableRecord
  2
TFL25112PR_T
  0
BLOCK_RECORD
  5
91
100
AcDbSymbolTableRecord
100
AcDbBlockTableRecord
  2
TFL25112PR_F
  0
BLOCK_RECORD
  5
10C
100
AcDbSymbolTableRecord
100
AcDbBlockTableRecord
  2
TFL25112PR_S
  0
ENDTAB
  0
ENDSEC
  0
SECTION
  2
BLOCKS
  0
BLOCK
  5
159
100
AcDbEntity
  8
0
100
AcDbBlockBegin
  2
*MODEL_SPACE
 70
     0
 10
0.0
 20
0.0
 30
0.0
  3
*MODEL_SPACE
  1

  0
ENDBLK
  5
15A
100
AcDbEntity
  8
0
100
AcDbBlockEnd
  0
BLOCK
  5
15E
100
AcDbEntity
 67
     1
  8
0
100
AcDbBlockBegin
  2
*PAPER_SPACE
 70
     0
 10
0.0
 20
0.0
 30
0.0
  3
*PAPER_SPACE
  1

  0
ENDBLK
  5
15F
100
AcDbEntity
 67
     1
  8
0
100
AcDbBlockEnd
  0
BLOCK
  5
8D
100
AcDbEntity
  8
0
100
AcDbBlockBegin
  2
TFL25112PR_T
 70
     0
 10
0.0
 20
0.0
 30
0.0
  3
TFL25112PR_T
  1

  0
LWPOLYLINE
  5
7
100
AcDbEntity
  8
USP-GEO
100
AcDbPolyline
 90
        2
 70
   128
 43
0.0
 10
6.560918507759315
 20
2.206443300570407
 10
4.656895488778617
 20
2.206443300570407
  0
LWPOLYLINE
  5
B
100
AcDbEntity
  8
USP-GEO
100
AcDbPolyline
 90
        2
 70
   128
 43
0.0
 10
1.904023018980697
 20
2.206443300570407
 10
0.0
 20
2.206443300570407
  0
CIRCLE
  5
C
100
AcDbEntity
  8
USP-GEO
100
AcDbCircle
 10
4.954421300913637
 20
3.397209940260429
 30
0.0
 40
0.09
  0
CIRCLE
  5
D
100
AcDbEntity
  8
USP-GEO
100
AcDbCircle
 10
6.354421300913643
 20
3.197209940260441
 30
0.0
 40
0.09
  0
LWPOLYLINE
  5
E
100
AcDbEntity
  8
USP-GEO
100
AcDbPolyline
 90
        2
 70
   128
 43
0.0
 10
6.560918507759315
 20
3.71571835074709
 10
4.656895488778617
 20
3.71571835074709
  0
LWPOLYLINE
  5
F
100
AcDbEntity
  8
USP-GEO
100
AcDbPolyline
 90
        2
 70
   128
 43
0.0
 10
4.656895488778617
 20
3.71571835074709
 10
4.656895488778617
 20
2.244128070861959
  0
CIRCLE
  5
10
100
AcDbEntity
  8
USP-GEO
100
AcDbCircle
 10
1.608288101749011
 20
3.39720994026045
 30
0.0
 40
0.09
  0
CIRCLE
  5
11
100
AcDbEntity
  8
USP-GEO
100
AcDbCircle
 10
0.2082881017490061
 20
3.197209940260462
 30
0.0
 40
0.09
  0
LWPOLYLINE
  5
12
100
AcDbEntity
  8
USP-GEO
100
AcDbPolyline
 90
        2
 70
   128
 43
0.0
 10
0.0
 20
3.71571835074709
 10
1.904023018980697
 20
3.71571835074709
  0
LWPOLYLINE
  5
13
100
AcDbEntity
  8
USP-GEO
100
AcDbPolyline
 90
        2
 70
   128
 43
0.0
 10
0.0
 20
3.71571835074709
 10
0.0
 20
2.244128070861959
  0
LWPOLYLINE
  5
14
100
AcDbEntity
  8
USP-GEO
100
AcDbPolyline
 90
        2
 70
   128
 43
0.0
 10
1.979392559563803
 20
2.18760091542463
 10
1.979392559563803
 20
2.149916145133078
  0
LWPOLYLINE
  5
15
100
AcDbEntity
  8
USP-GEO
100
AcDbPolyline
 90
        2
 70
   128
 43
0.0
 10
4.524998792758183
 20
0.2835778964439335
 10
4.581525948195511
 20
0.2835778964439335
  0
LWPOLYLINE
  5
16
100
AcDbEntity
  8
USP-GEO
100
AcDbPolyline
 90
        2
 70
   128
 43
0.0
 10
4.524998792758183
 20
0.9053766062545509
 10
4.581525948195511
 20
0.9053766062545509
  0
LWPOLYLINE
  5
17
100
AcDbEntity
  8
USP-GEO
100
AcDbPolyline
 90
        2
 70
   128
 43
0.0
 10
4.543841177903959
 20
2.149916145133078
 10
4.581525948195511
 20
2.149916145133078
  0
LWPOLYLINE
  5
18
100
AcDbEntity
  8
USP-GEO
100
AcDbPolyline
 90
        2
 70
   128
 43
0.0
 10
2.017077329855355
 20
2.149916145133078
 10
1.979392559563803
 20
2.149916145133078
  0
LWPOLYLINE
  5
19
100
AcDbEntity
  8
USP-GEO
100
AcDbPolyline
 90
        2
 70
   128
 43
0.0
 10
2.035919715001131
 20
0.9053766062545509
 10
1.979392559563803
 20
0.9053766062545509
  0
LWPOLYLINE
  5
1A
100
AcDbEntity
  8
USP-GEO
100
AcDbPolyline
 90
        2
 70
   128
 43
0.0
 10
2.035919715001131
 20
0.2835778964439335
 10
1.979392559563803
 20
0.2835778964439335
  0
LWPOLYLINE
  5
1B
100
AcDbEntity
  8
USP-GEO
100
AcDbPolyline
 90
        2
 70
   128
 43
0.0
 10
6.560918507759315
 20
3.71571835074709
 10
6.560918507759315
 20
2.244128070861959
  0
LWPOLYLINE
  5
1C
100
AcDbEntity
  8
USP-GEO
100
AcDbPolyline
 90
        2
 70
   128
 43
0.0
 10
6.560918507759315
 20
2.244128070861959
 10
6.560918507759315
 20
2.149916145133078
  0
LWPOLYLINE
  5
1D
100
AcDbEntity
  8
USP-GEO
100
AcDbPolyline
 90
        2
 70
   128
 43
0.0
 10
6.560918507759315
 20
2.149916145133078
 10
4.656895488778617
 20
2.149916145133078
  0
LWPOLYLINE
  5
1E
100
AcDbEntity
  8
USP-GEO
100
AcDbPolyline
 90
        2
 70
   128
 43
0.0
 10
4.656895488778617
 20
2.149916145133078
 10
4.656895488778617
 20
2.244128070861959
  0
LWPOLYLINE
  5
1F
100
AcDbEntity
  8
USP-GEO
100
AcDbPolyline
 90
        2
 70
   128
 43
0.0
 10
4.581525948195511
 20
2.149916145133078
 10
4.656895488778617
 20
2.149916145133078
  0
LWPOLYLINE
  5
20
100
AcDbEntity
  8
USP-GEO
100
AcDbPolyline
 90
        2
 70
   128
 43
0.0
 10
4.581525948195511
 20
2.18760091542463
 10
4.581525948195511
 20
2.149916145133078
  0
LWPOLYLINE
  5
21
100
AcDbEntity
  8
USP-GEO
100
AcDbPolyline
 90
        2
 70
   128
 43
0.0
 10
4.619210718487065
 20
2.206443300570407
 10
4.581525948195511
 20
2.18760091542463
  0
ARC
  5
22
100
AcDbEntity
  8
USP-GEO
100
AcDbCircle
 10
4.6213547013312
 20
2.107209940260451
 30
0.0
 40
0.09
100
AcDbArc
 50
116.3555684127969
 51
151.1473601650529
  0
LWPOLYLINE
  5
23
100
AcDbEntity
  8
USP-GEO
100
AcDbPolyline
 90
        2
 70
   128
 43
0.0
 10
4.543841177903959
 20
2.149916145133078
 10
4.524998792758183
 20
2.112231374841526
  0
LWPOLYLINE
  5
24
100
AcDbEntity
  8
USP-GEO
100
AcDbPolyline
 90
        2
 70
   128
 43
0.0
 10
4.524998792758183
 20
2.112231374841526
 10
4.525940912015472
 20
2.112231374841526
  0
LWPOLYLINE
  5
25
100
AcDbEntity
  8
USP-GEO
100
AcDbPolyline
 90
        2
 70
   128
 43
0.0
 10
4.619210718487065
 20
2.206443300570407
 10
4.656895488778617
 20
2.206443300570407
  0
LWPOLYLINE
  5
26
100
AcDbEntity
  8
USP-GEO
100
AcDbPolyline
 90
        2
 70
   128
 43
0.0
 10
4.581525948195511
 20
2.112231374841526
 10
4.5824680674528
 20
2.112231374841526
  0
LWPOLYLINE
  5
27
100
AcDbEntity
  8
USP-GEO
100
AcDbPolyline
 90
        3
 70
   128
 43
0.0
 10
4.619210718487065
 20
2.149916145133078
 10
4.600368333341289
 20
2.149916145133078
 10
4.581525948195511
 20
2.112231374841526
  0
LWPOLYLINE
  5
28
100
AcDbEntity
  8
USP-GEO
100
AcDbPolyline
 90
        2
 70
   128
 43
0.0
 10
1.904023018980697
 20
2.206443300570407
 10
1.941707789272249
 20
2.206443300570407
  0
LWPOLYLINE
  5
29
100
AcDbEntity
  8
USP-GEO
100
AcDbPolyline
 90
        3
 70
   128
 43
0.0
 10
1.979392559563803
 20
2.112231374841526
 10
1.960550174418025
 20
2.149916145133078
 10
1.941707789272249
 20
2.149916145133078
  0
LWPOLYLINE
  5
2A
100
AcDbEntity
  8
USP-GEO
100
AcDbPolyline
 90
        2
 70
   128
 43
0.0
 10
1.979392559563803
 20
2.112231374841526
 10
1.980334678821091
 20
2.112231374841526
  0
LWPOLYLINE
  5
2B
100
AcDbEntity
  8
USP-GEO
100
AcDbPolyline
 90
        2
 70
   128
 43
0.0
 10
2.035919715001131
 20
2.112231374841526
 10
2.017077329855355
 20
2.149916145133078
  0
ARC
  5
2C
100
AcDbEntity
  8
USP-GEO
100
AcDbCircle
 10
1.941354701331207
 20
2.107209940260451
 30
0.0
 40
0.09
100
AcDbArc
 50
29.42221893634082
 51
64.67832240582622
  0
LWPOLYLINE
  5
2D
100
AcDbEntity
  8
USP-GEO
100
AcDbPolyline
 90
        2
 70
   128
 43
0.0
 10
1.979392559563803
 20
2.18760091542463
 10
1.941707789272249
 20
2.206443300570407
  0
LWPOLYLINE
  5
2E
100
AcDbEntity
  8
USP-GEO
100
AcDbPolyline
 90
        2
 70
   128
 43
0.0
 10
2.035919715001131
 20
2.112231374841526
 10
2.036861834258419
 20
2.112231374841526
  0
LWPOLYLINE
  5
2F
100
AcDbEntity
  8
USP-GEO
100
AcDbPolyline
 90
        2
 70
   128
 43
0.0
 10
1.904023018980697
 20
2.149916145133078
 10
1.979392559563803
 20
2.149916145133078
  0
LWPOLYLINE
  5
30
100
AcDbEntity
  8
USP-GEO
100
AcDbPolyline
 90
        2
 70
   128
 43
0.0
 10
1.904023018980697
 20
3.71571835074709
 10
1.904023018980697
 20
2.244128070861959
  0
LWPOLYLINE
  5
31
100
AcDbEntity
  8
USP-GEO
100
AcDbPolyline
 90
        2
 70
   128
 43
0.0
 10
1.904023018980697
 20
2.244128070861959
 10
1.904023018980697
 20
2.149916145133078
  0
LWPOLYLINE
  5
32
100
AcDbEntity
  8
USP-GEO
100
AcDbPolyline
 90
        2
 70
   128
 43
0.0
 10
1.904023018980697
 20
2.149916145133078
 10
0.0
 20
2.149916145133078
  0
LWPOLYLINE
  5
33
100
AcDbEntity
  8
USP-GEO
100
AcDbPolyline
 90
        2
 70
   128
 43
0.0
 10
0.0
 20
2.149916145133078
 10
0.0
 20
2.244128070861959
  0
LWPOLYLINE
  5
34
100
AcDbEntity
  8
USP-GEO
100
AcDbPolyline
 90
        2
 70
   128
 43
0.0
 10
4.581525948195511
 20
0.1318966960204335
 10
4.581525948195511
 20
0.0
  0
LWPOLYLINE
  5
35
100
AcDbEntity
  8
USP-GEO
100
AcDbPolyline
 90
        2
 70
   128
 43
0.0
 10
4.581525948195511
 20
0.1507390811662095
 10
4.581525948195511
 20
0.1318966960204335
  0
LWPOLYLINE
  5
36
100
AcDbEntity
  8
USP-GEO
100
AcDbPolyline
 90
        2
 70
   128
 43
0.0
 10
4.581525948195511
 20
0.1507390811662095
 10
4.581525948195511
 20
0.2835778964439335
  0
LWPOLYLINE
  5
37
100
AcDbEntity
  8
USP-GEO
100
AcDbPolyline
 90
        2
 70
   128
 43
0.0
 10
4.581525948195511
 20
0.2835778964439335
 10
4.581525948195511
 20
0.8865342211087767
  0
LWPOLYLINE
  5
38
100
AcDbEntity
  8
USP-GEO
100
AcDbPolyline
 90
        2
 70
   128
 43
0.0
 10
4.581525948195511
 20
0.8865342211087767
 10
4.581525948195511
 20
0.9053766062545509
  0
LWPOLYLINE
  5
39
100
AcDbEntity
  8
USP-GEO
100
AcDbPolyline
 90
        2
 70
   128
 43
0.0
 10
4.581525948195511
 20
1.01843091712921
 10
4.581525948195511
 20
0.9053766062545509
  0
LWPOLYLINE
  5
3A
100
AcDbEntity
  8
USP-GEO
100
AcDbPolyline
 90
        2
 70
   128
 43
0.0
 10
4.581525948195511
 20
1.01843091712921
 10
4.581525948195511
 20
1.923807523383763
  0
LWPOLYLINE
  5
3B
100
AcDbEntity
  8
USP-GEO
100
AcDbPolyline
 90
        2
 70
   128
 43
0.0
 10
4.581525948195511
 20
2.112231374841526
 10
4.581525948195511
 20
1.923807523383763
  0
LWPOLYLINE
  5
3C
100
AcDbEntity
  8
USP-GEO
100
AcDbPolyline
 90
        2
 70
   128
 43
0.0
 10
2.035919715001131
 20
0.0
 10
1.979392559563803
 20
0.0
  0
LWPOLYLINE
  5
3D
100
AcDbEntity
  8
USP-GEO
100
AcDbPolyline
 90
        2
 70
   128
 43
0.0
 10
4.524998792758183
 20
0.0
 10
4.581525948195511
 20
0.0
  0
LWPOLYLINE
  5
3E
100
AcDbEntity
  8
USP-GEO
100
AcDbPolyline
 90
        2
 70
   128
 43
0.0
 10
1.979392559563803
 20
1.923807523383763
 10
1.979392559563803
 20
2.112231374841526
  0
LWPOLYLINE
  5
3F
100
AcDbEntity
  8
USP-GEO
100
AcDbPolyline
 90
        2
 70
   128
 43
0.0
 10
1.979392559563803
 20
1.01843091712921
 10
1.979392559563803
 20
1.923807523383763
  0
LWPOLYLINE
  5
40
100
AcDbEntity
  8
USP-GEO
100
AcDbPolyline
 90
        2
 70
   128
 43
0.0
 10
1.979392559563803
 20
0.9053766062545509
 10
1.979392559563803
 20
1.01843091712921
  0
LWPOLYLINE
  5
41
100
AcDbEntity
  8
USP-GEO
100
AcDbPolyline
 90
        2
 70
   128
 43
0.0
 10
1.979392559563803
 20
0.9053766062545509
 10
1.979392559563803
 20
0.8865342211087767
  0
LWPOLYLINE
  5
42
100
AcDbEntity
  8
USP-GEO
100
AcDbPolyline
 90
        2
 70
   128
 43
0.0
 10
1.979392559563803
 20
0.2835778964439335
 10
1.979392559563803
 20
0.8865342211087767
  0
LWPOLYLINE
  5
43
100
AcDbEntity
  8
USP-GEO
100
AcDbPolyline
 90
        2
 70
   128
 43
0.0
 10
1.979392559563803
 20
0.2835778964439335
 10
1.979392559563803
 20
0.1507390811662095
  0
LWPOLYLINE
  5
44
100
AcDbEntity
  8
USP-GEO
100
AcDbPolyline
 90
        2
 70
   128
 43
0.0
 10
1.979392559563803
 20
0.1507390811662095
 10
1.979392559563803
 20
0.1318966960204335
  0
LWPOLYLINE
  5
45
100
AcDbEntity
  8
USP-GEO
100
AcDbPolyline
 90
        2
 70
   128
 43
0.0
 10
1.979392559563803
 20
0.0
 10
1.979392559563803
 20
0.1318966960204335
  0
LWPOLYLINE
  5
46
100
AcDbEntity
  8
USP-GEO
100
AcDbPolyline
 90
        2
 70
   128
 43
0.0
 10
3.789203652815618
 20
0.3777898221728151
 10
3.657306956795184
 20
0.2449510068950911
  0
LWPOLYLINE
  5
47
100
AcDbEntity
  8
USP-GEO
100
AcDbPolyline
 90
        2
 70
   128
 43
0.0
 10
3.657306956795184
 20
0.5096865181932504
 10
3.789203652815618
 20
0.3777898221728151
  0
LWPOLYLINE
  5
48
100
AcDbEntity
  8
USP-GEO
100
AcDbPolyline
 90
        2
 70
   128
 43
0.0
 10
3.525410260774749
 20
0.3777898221728151
 10
3.657306956795184
 20
0.5096865181932504
  0
LWPOLYLINE
  5
49
100
AcDbEntity
  8
USP-GEO
100
AcDbPolyline
 90
        2
 70
   128
 43
0.0
 10
3.657306956795184
 20
0.2449510068950911
 10
3.525410260774749
 20
0.3777898221728151
  0
LWPOLYLINE
  5
4A
100
AcDbEntity
  8
USP-GEO
100
AcDbPolyline
 90
        2
 70
   128
 43
0.0
 10
2.771714854943696
 20
0.3777898221728151
 10
2.903611550964131
 20
0.5096865181932504
  0
LWPOLYLINE
  5
4B
100
AcDbEntity
  8
USP-GEO
100
AcDbPolyline
 90
        2
 70
   128
 43
0.0
 10
2.903611550964131
 20
0.2449510068950911
 10
2.771714854943696
 20
0.3777898221728151
  0
LWPOLYLINE
  5
4C
100
AcDbEntity
  8
USP-GEO
100
AcDbPolyline
 90
        2
 70
   128
 43
0.0
 10
3.035508246984565
 20
0.3777898221728151
 10
2.903611550964131
 20
0.2449510068950911
  0
LWPOLYLINE
  5
4D
100
AcDbEntity
  8
USP-GEO
100
AcDbPolyline
 90
        2
 70
   128
 43
0.0
 10
2.903611550964131
 20
0.5096865181932504
 10
3.035508246984565
 20
0.3777898221728151
  0
LWPOLYLINE
  5
4E
100
AcDbEntity
  8
USP-GEO
100
AcDbPolyline
 90
        2
 70
   128
 43
0.0
 10
4.487314022466629
 20
1.999177063966866
 10
2.073604485292684
 20
1.999177063966866
  0
LWPOLYLINE
  5
4F
100
AcDbEntity
  8
USP-GEO
100
AcDbPolyline
 90
        2
 70
   128
 43
0.0
 10
2.073604485292684
 20
0.0
 10
4.487314022466629
 20
0.0
  0
LWPOLYLINE
  5
50
100
AcDbEntity
  8
USP-GEO
100
AcDbPolyline
 90
        2
 70
   128
 43
0.0
 10
4.524998792758183
 20
0.0
 10
4.487314022466629
 20
0.0
  0
LWPOLYLINE
  5
51
100
AcDbEntity
  8
USP-GEO
100
AcDbPolyline
 90
        2
 70
   128
 43
0.0
 10
4.487314022466629
 20
1.999177063966866
 10
4.524998792758183
 20
1.999177063966866
  0
LWPOLYLINE
  5
52
100
AcDbEntity
  8
USP-GEO
100
AcDbPolyline
 90
        2
 70
   128
 43
0.0
 10
2.035919715001131
 20
0.1318966960204335
 10
2.035919715001131
 20
0.0
  0
LWPOLYLINE
  5
53
100
AcDbEntity
  8
USP-GEO
100
AcDbPolyline
 90
        2
 70
   128
 43
0.0
 10
2.035919715001131
 20
0.1507390811662095
 10
2.035919715001131
 20
0.1318966960204335
  0
LWPOLYLINE
  5
54
100
AcDbEntity
  8
USP-GEO
100
AcDbPolyline
 90
        2
 70
   128
 43
0.0
 10
2.035919715001131
 20
0.2835778964439335
 10
2.035919715001131
 20
0.1507390811662095
  0
LWPOLYLINE
  5
55
100
AcDbEntity
  8
USP-GEO
100
AcDbPolyline
 90
        2
 70
   128
 43
0.0
 10
2.035919715001131
 20
0.8865342211087767
 10
2.035919715001131
 20
0.2835778964439335
  0
LWPOLYLINE
  5
56
100
AcDbEntity
  8
USP-GEO
100
AcDbPolyline
 90
        2
 70
   128
 43
0.0
 10
2.035919715001131
 20
0.9053766062545509
 10
2.035919715001131
 20
0.8865342211087767
  0
LWPOLYLINE
  5
57
100
AcDbEntity
  8
USP-GEO
100
AcDbPolyline
 90
        2
 70
   128
 43
0.0
 10
2.035919715001131
 20
1.01843091712921
 10
2.035919715001131
 20
0.9053766062545509
  0
LWPOLYLINE
  5
58
100
AcDbEntity
  8
USP-GEO
100
AcDbPolyline
 90
        2
 70
   128
 43
0.0
 10
2.035919715001131
 20
1.923807523383763
 10
2.035919715001131
 20
1.01843091712921
  0
LWPOLYLINE
  5
59
100
AcDbEntity
  8
USP-GEO
100
AcDbPolyline
 90
        2
 70
   128
 43
0.0
 10
2.035919715001131
 20
2.112231374841526
 10
2.035919715001131
 20
1.923807523383763
  0
LWPOLYLINE
  5
5A
100
AcDbEntity
  8
USP-GEO
100
AcDbPolyline
 90
        2
 70
   128
 43
0.0
 10
2.073604485292684
 20
0.0
 10
2.035919715001131
 20
0.0
  0
LWPOLYLINE
  5
5B
100
AcDbEntity
  8
USP-GEO
100
AcDbPolyline
 90
        2
 70
   128
 43
0.0
 10
2.035919715001131
 20
1.999177063966866
 10
2.073604485292684
 20
1.999177063966866
  0
ELLIPSE
  5
5C
100
AcDbEntity
  8
USP-GEO
  6
CONTINUOUS
100
AcDbEllipse
 10
1.863402327129478
 20
0.3122454042883689
 30
0.0
 11
0.0
 21
-0.0779999999999994
 31
0.0
210
0.0
220
0.0
230
1.0
 40
0.7071067811865475
 41
4.160137309520635
 42
10.43536998647835
1001
ACAD
1000
RTLwPs
1070
   128
  0
ELLIPSE
  5
5E
100
AcDbEntity
  8
USP-GEO
  6
CONTINUOUS
100
AcDbEllipse
 10
1.863402327129478
 20
0.3122454042883689
 30
0.0
 11
0.0
 21
-0.0779999999999994
 31
0.0
210
0.0
220
0.0
230
1.0
 40
0.7071067811865475
 41
3.784937316272513
 42
10.05498248406393
1001
ACAD
1000
RTLwPs
1070
   128
  0
ELLIPSE
  5
5F
100
AcDbEntity
  8
USP-GEO
  6
CONTINUOUS
100
AcDbEllipse
 10
1.863402327129478
 20
0.3122454042883689
 30
0.0
 11
0.0
 21
-0.0779999999999994
 31
0.0
210
0.0
220
0.0
230
1.0
 40
0.7071067811865475
 41
3.402106414513696
 42
5.960583457739025
1001
ACAD
1000
RTLwPs
1070
   128
  0
ELLIPSE
  5
60
100
AcDbEntity
  8
USP-GEO
  6
CONTINUOUS
100
AcDbEllipse
 10
1.825053949999571
 20
0.3122454042883689
 30
0.0
 11
0.0
 21
-0.0779999999999994
 31
0.0
210
0.0
220
0.0
230
1.0
 40
0.7071067811865475
 41
4.592497195420304
 42
10.87353105856319
1001
ACAD
1000
RTLwPs
1070
   128
  0
ELLIPSE
  5
61
100
AcDbEntity
  8
USP-GEO
  6
CONTINUOUS
100
AcDbEllipse
 10
1.825053949999571
 20
0.3122454042883689
 30
0.0
 11
0.0
 21
-0.0779999999999994
 31
0.0
210
0.0
220
0.0
230
1.0
 40
0.7071067811865475
 41
3.376817871732187
 42
5.991238097447906
1001
ACAD
1000
RTLwPs
1070
   128
  0
ELLIPSE
  5
62
100
AcDbEntity
  8
USP-GEO
  6
CONTINUOUS
100
AcDbEllipse
 10
1.825053949999571
 20
0.3122454042883689
 30
0.0
 11
0.0
 21
-0.0779999999999994
 31
0.0
210
0.0
220
0.0
230
1.0
 40
0.7071067811865475
 41
5.973179804193743
 42
6.378341258529446
1001
ACAD
1000
RTLwPs
1070
   128
  0
ELLIPSE
  5
63
100
AcDbEntity
  8
USP-GEO
  6
CONTINUOUS
100
AcDbEllipse
 10
1.825053949999571
 20
0.3122454042883689
 30
0.0
 11
0.0
 21
-0.0779999999999994
 31
0.0
210
0.0
220
0.0
230
1.0
 40
0.7071067811865475
 41
3.391694625068721
 42
9.051285823153992
1001
ACAD
1000
RTLwPs
1070
   128
  0
ELLIPSE
  5
64
100
AcDbEntity
  8
USP-GEO
  6
CONTINUOUS
100
AcDbEllipse
 10
1.825053949999571
 20
0.3122454042883689
 30
0.0
 11
0.0
 21
-0.0779999999999994
 31
0.0
210
0.0
220
0.0
230
1.0
 40
0.7071067811865475
 41
0.0755014628985992
 42
0.4567625160892407
1001
ACAD
1000
RTLwPs
1070
   128
  0
ELLIPSE
  5
65
100
AcDbEntity
  8
USP-GEO
  6
CONTINUOUS
100
AcDbEllipse
 10
1.825053949999571
 20
0.3122454042883689
 30
0.0
 11
0.0
 21
-0.0779999999999994
 31
0.0
210
0.0
220
0.0
230
1.0
 40
0.7071067811865475
 41
2.781860213154379
 42
8.685866885992691
1001
ACAD
1000
RTLwPs
1070
   128
  0
ELLIPSE
  5
66
100
AcDbEntity
  8
USP-GEO
  6
CONTINUOUS
100
AcDbEllipse
 10
1.825053949999571
 20
0.3122454042883689
 30
0.0
 11
0.0
 21
-0.0779999999999994
 31
0.0
210
0.0
220
0.0
230
1.0
 40
0.7071067811865475
 41
0.8987552514795304
 42
6.723875597235251
1001
ACAD
1000
RTLwPs
1070
   128
  0
ELLIPSE
  5
67
100
AcDbEntity
  8
USP-GEO
  6
CONTINUOUS
100
AcDbEllipse
 10
1.825053949999571
 20
0.3122454042883689
 30
0.0
 11
0.0
 21
-0.0779999999999994
 31
0.0
210
0.0
220
0.0
230
1.0
 40
0.7071067811865475
 41
0.8877350227526211
 42
2.413902048609518
1001
ACAD
1000
RTLwPs
1070
   128
  0
ELLIPSE
  5
68
100
AcDbEntity
  8
USP-GEO
  6
CONTINUOUS
100
AcDbEllipse
 10
1.825053949999571
 20
0.3122454042883689
 30
0.0
 11
0.0
 21
-0.0779999999999994
 31
0.0
210
0.0
220
0.0
230
1.0
 40
0.7071067811865475
 41
1.676447023038318
 42
7.958014263602688
1001
ACAD
1000
RTLwPs
1070
   128
  0
ELLIPSE
  5
69
100
AcDbEntity
  8
USP-GEO
  6
CONTINUOUS
100
AcDbEllipse
 10
4.699307075532943
 20
0.4997454042883689
 30
0.0
 11
0.0
 21
-0.0779999999999994
 31
0.0
210
0.0
220
0.0
230
1.0
 40
0.7071067811865475
 41
2.911731508424056
 42
8.799915298498502
1001
ACAD
1000
RTLwPs
1070
   128
  0
ELLIPSE
  5
6A
100
AcDbEntity
  8
USP-GEO
  6
CONTINUOUS
100
AcDbEllipse
 10
4.699307075532943
 20
0.4997454042883689
 30
0.0
 11
0.0
 21
-0.0779999999999994
 31
0.0
210
0.0
220
0.0
230
1.0
 40
0.7071067811865475
 41
2.530041251470152
 42
8.43044323442033
1001
ACAD
1000
RTLwPs
1070
   128
  0
ELLIPSE
  5
6B
100
AcDbEntity
  8
USP-GEO
  6
CONTINUOUS
100
AcDbEllipse
 10
4.699307075532943
 20
0.4997454042883689
 30
0.0
 11
0.0
 21
-0.0779999999999994
 31
0.0
210
0.0
220
0.0
230
1.0
 40
0.7071067811865475
 41
0.2961321170171196
 42
1.449881194428541
1001
ACAD
1000
RTLwPs
1070
   128
  0
ELLIPSE
  5
6C
100
AcDbEntity
  8
USP-GEO
  6
CONTINUOUS
100
AcDbEllipse
 10
4.699307075532943
 20
0.4997454042883689
 30
0.0
 11
0.0
 21
-0.0779999999999994
 31
0.0
210
0.0
220
0.0
230
1.0
 40
0.7071067811865475
 41
2.139051747340695
 42
7.735205926516176
1001
ACAD
1000
RTLwPs
1070
   128
  0
ELLIPSE
  5
6D
100
AcDbEntity
  8
USP-GEO
  6
CONTINUOUS
100
AcDbEllipse
 10
4.73765545266285
 20
0.4997454042883689
 30
0.0
 11
0.0
 21
-0.0779999999999994
 31
0.0
210
0.0
220
0.0
230
1.0
 40
0.7071067811865475
 41
3.872440336958188
 42
5.375957998002836
1001
ACAD
1000
RTLwPs
1070
   128
  0
ELLIPSE
  5
6E
100
AcDbEntity
  8
USP-GEO
  6
CONTINUOUS
100
AcDbEllipse
 10
4.73765545266285
 20
0.4997454042883689
 30
0.0
 11
0.0
 21
-0.0779999999999994
 31
0.0
210
0.0
220
0.0
230
1.0
 40
0.7071067811865475
 41
5.365256880650808
 42
5.816805077262126
1001
ACAD
1000
RTLwPs
1070
   128
  0
ELLIPSE
  5
6F
100
AcDbEntity
  8
USP-GEO
  6
CONTINUOUS
100
AcDbEllipse
 10
4.73765545266285
 20
0.4997454042883689
 30
0.0
 11
0.0
 21
-0.0779999999999994
 31
0.0
210
0.0
220
0.0
230
1.0
 40
0.7071067811865475
 41
3.510054703431552
 42
3.883444066960775
1001
ACAD
1000
RTLwPs
1070
   128
  0
ELLIPSE
  5
70
100
AcDbEntity
  8
USP-GEO
  6
CONTINUOUS
100
AcDbEllipse
 10
4.73765545266285
 20
0.4997454042883689
 30
0.0
 11
0.0
 21
-0.0779999999999994
 31
0.0
210
0.0
220
0.0
230
1.0
 40
0.7071067811865475
 41
5.80069200100939
 42
6.187331353880355
1001
ACAD
1000
RTLwPs
1070
   128
  0
ELLIPSE
  5
71
100
AcDbEntity
  8
USP-GEO
  6
CONTINUOUS
100
AcDbEllipse
 10
4.73765545266285
 20
0.4997454042883689
 30
0.0
 11
0.0
 21
-0.0779999999999994
 31
0.0
210
0.0
220
0.0
230
1.0
 40
0.7071067811865475
 41
3.523574553100452
 42
9.190544036828722
1001
ACAD
1000
RTLwPs
1070
   128
  0
ELLIPSE
  5
72
100
AcDbEntity
  8
USP-GEO
  6
CONTINUOUS
100
AcDbEllipse
 10
4.73765545266285
 20
0.4997454042883689
 30
0.0
 11
0.0
 21
-0.0779999999999994
 31
0.0
210
0.0
220
0.0
230
1.0
 40
0.7071067811865475
 41
6.167196078391104
 42
6.584815420524286
1001
ACAD
1000
RTLwPs
1070
   128
  0
ELLIPSE
  5
73
100
AcDbEntity
  8
USP-GEO
  6
CONTINUOUS
100
AcDbEllipse
 10
4.73765545266285
 20
0.4997454042883689
 30
0.0
 11
0.0
 21
-0.0779999999999994
 31
0.0
210
0.0
220
0.0
230
1.0
 40
0.7071067811865475
 41
2.922186328016386
 42
8.809265180979146
1001
ACAD
1000
RTLwPs
1070
   128
  0
ELLIPSE
  5
74
100
AcDbEntity
  8
USP-GEO
  6
CONTINUOUS
100
AcDbEllipse
 10
4.73765545266285
 20
0.4997454042883689
 30
0.0
 11
0.0
 21
-0.0779999999999994
 31
0.0
210
0.0
220
0.0
230
1.0
 40
0.7071067811865475
 41
0.2829580051980887
 42
2.539569253728289
1001
ACAD
1000
RTLwPs
1070
   128
  0
ELLIPSE
  5
75
100
AcDbEntity
  8
USP-GEO
  6
CONTINUOUS
100
AcDbEllipse
 10
4.73765545266285
 20
0.4997454042883689
 30
0.0
 11
0.0
 21
-0.0779999999999994
 31
0.0
210
0.0
220
0.0
230
1.0
 40
0.7071067811865475
 41
1.707403568052492
 42
7.988147432767596
1001
ACAD
1000
RTLwPs
1070
   128
  0
LWPOLYLINE
  5
76
100
AcDbEntity
  8
USP-GEO
100
AcDbPolyline
 90
        2
 70
   128
 43
0.0
 10
2.073604485292684
 20
0.9995885319834325
 10
2.186658796167342
 20
1.131485228003866
  0
LWPOLYLINE
  5
77
100
AcDbEntity
  8
USP-GEO
100
AcDbPolyline
 90
        2
 70
   128
 43
0.0
 10
2.186658796167342
 20
1.131485228003866
 10
2.073604485292684
 20
1.264324043281591
  0
LWPOLYLINE
  5
78
100
AcDbEntity
  8
USP-GEO
100
AcDbPolyline
 90
        2
 70
   128
 43
0.0
 10
2.035919715001131
 20
0.9995885319834325
 10
2.073604485292684
 20
0.9995885319834325
  0
LWPOLYLINE
  5
79
100
AcDbEntity
  8
USP-GEO
100
AcDbPolyline
 90
        2
 70
   128
 43
0.0
 10
2.073604485292684
 20
1.264324043281591
 10
2.035919715001131
 20
1.264324043281591
  0
LWPOLYLINE
  5
7A
100
AcDbEntity
  8
USP-GEO
100
AcDbPolyline
 90
        2
 70
   128
 43
0.0
 10
4.524998792758183
 20
1.923807523383763
 10
4.524998792758183
 20
2.112231374841526
  0
LWPOLYLINE
  5
7B
100
AcDbEntity
  8
USP-GEO
100
AcDbPolyline
 90
        2
 70
   128
 43
0.0
 10
4.524998792758183
 20
1.01843091712921
 10
4.524998792758183
 20
1.923807523383763
  0
LWPOLYLINE
  5
7C
100
AcDbEntity
  8
USP-GEO
100
AcDbPolyline
 90
        2
 70
   128
 43
0.0
 10
4.524998792758183
 20
0.9053766062545509
 10
4.524998792758183
 20
1.01843091712921
  0
LWPOLYLINE
  5
7D
100
AcDbEntity
  8
USP-GEO
100
AcDbPolyline
 90
        2
 70
   128
 43
0.0
 10
4.524998792758183
 20
0.8865342211087767
 10
4.524998792758183
 20
0.9053766062545509
  0
LWPOLYLINE
  5
7E
100
AcDbEntity
  8
USP-GEO
100
AcDbPolyline
 90
        2
 70
   128
 43
0.0
 10
4.524998792758183
 20
0.2835778964439335
 10
4.524998792758183
 20
0.8865342211087767
  0
LWPOLYLINE
  5
7F
100
AcDbEntity
  8
USP-GEO
100
AcDbPolyline
 90
        2
 70
   128
 43
0.0
 10
4.524998792758183
 20
0.1507390811662095
 10
4.524998792758183
 20
0.2835778964439335
  0
LWPOLYLINE
  5
80
100
AcDbEntity
  8
USP-GEO
100
AcDbPolyline
 90
        2
 70
   128
 43
0.0
 10
4.524998792758183
 20
0.1318966960204335
 10
4.524998792758183
 20
0.1507390811662095
  0
LWPOLYLINE
  5
81
100
AcDbEntity
  8
USP-GEO
100
AcDbPolyline
 90
        2
 70
   128
 43
0.0
 10
4.524998792758183
 20
0.0
 10
4.524998792758183
 20
0.1318966960204335
  0
LWPOLYLINE
  5
82
100
AcDbEntity
  8
USP-GEO
100
AcDbPolyline
 90
        2
 70
   128
 43
0.0
 10
4.487314022466629
 20
0.9995885319834325
 10
4.374259711591972
 20
1.131485228003866
  0
LWPOLYLINE
  5
83
100
AcDbEntity
  8
USP-GEO
100
AcDbPolyline
 90
        2
 70
   128
 43
0.0
 10
4.524998792758183
 20
0.9995885319834325
 10
4.487314022466629
 20
0.9995885319834325
  0
LWPOLYLINE
  5
84
100
AcDbEntity
  8
USP-GEO
100
AcDbPolyline
 90
        2
 70
   128
 43
0.0
 10
4.374259711591972
 20
1.131485228003866
 10
4.487314022466629
 20
1.264324043281591
  0
LWPOLYLINE
  5
85
100
AcDbEntity
  8
USP-GEO
100
AcDbPolyline
 90
        2
 70
   128
 43
0.0
 10
4.487314022466629
 20
1.264324043281591
 10
4.524998792758183
 20
1.264324043281591
  0
ARC
  5
86
100
AcDbEntity
  8
USP-GEO
100
AcDbCircle
 10
4.531354701331211
 20
0.4997454042883689
 30
0.0
 40
0.3020000000000001
100
AcDbArc
 50
279.7336607530872
 51
80.84799427711109
  0
ARC
  5
87
100
AcDbEntity
  8
USP-GEO
100
AcDbCircle
 10
2.031354701331211
 20
0.3122454042883689
 30
0.0
 40
0.302
100
AcDbArc
 50
99.50054340581209
 51
259.9569620350413
  0
TEXT
  5
88
100
AcDbEntity
  8
USP-TXT
100
AcDbText
 10
0.9887925872129908
 20
-0.9815314310241234
 30
0.0
 40
0.25
  1
TFL25112 - TOP VIEW
 72
     1
 11
3.280459253879657
 21
-0.9815314310241234
 31
0.0
100
AcDbText
  0
ENDBLK
  5
8F
100
AcDbEntity
  8
0
100
AcDbBlockEnd
  0
BLOCK
  5
109
100
AcDbEntity
  8
0
100
AcDbBlockBegin
  2
TFL25112PR_F
 70
     0
 10
0.0
 20
0.0
 30
0.0
  3
TFL25112PR_F
  1

  0
LWPOLYLINE
  5
92
100
AcDbEntity
  8
USP-GEO
100
AcDbPolyline
 90
        2
 70
   128
 43
0.0
 10
6.562114786756568
 20
11.31673651855325
 10
4.65809176777587
 20
11.31673651855325
  0
LWPOLYLINE
  5
93
100
AcDbEntity
  8
USP-GEO
100
AcDbPolyline
 90
        2
 70
   128
 43
0.0
 10
1.90521929797795
 20
11.31673651855325
 10
0.0011962789972533
 20
11.31673651855325
  0
LWPOLYLINE
  5
94
100
AcDbEntity
  8
USP-GEO
100
AcDbPolyline
 90
        2
 70
   128
 43
0.0
 10
4.526195071755436
 20
2.055704219404194
 10
4.582722227192764
 20
2.055704219404194
  0
LWPOLYLINE
  5
95
100
AcDbEntity
  8
USP-GEO
100
AcDbPolyline
 90
        2
 70
   128
 43
0.0
 10
4.526195071755436
 20
2.168758530278854
 10
4.582722227192764
 20
2.168758530278854
  0
LWPOLYLINE
  5
96
100
AcDbEntity
  8
USP-GEO
100
AcDbPolyline
 90
        2
 70
   128
 43
0.0
 10
4.545037456901212
 20
10.93894669638044
 10
4.582722227192764
 20
10.93894669638044
  0
LWPOLYLINE
  5
97
100
AcDbEntity
  8
USP-GEO
100
AcDbPolyline
 90
        2
 70
   128
 43
0.0
 10
2.018273608852608
 20
10.93894669638044
 10
1.980588838561056
 20
10.93894669638044
  0
LWPOLYLINE
  5
98
100
AcDbEntity
  8
USP-GEO
100
AcDbPolyline
 90
        2
 70
   128
 43
0.0
 10
2.037115993998384
 20
2.168758530278854
 10
1.980588838561056
 20
2.168758530278854
  0
LWPOLYLINE
  5
99
100
AcDbEntity
  8
USP-GEO
100
AcDbPolyline
 90
        2
 70
   128
 43
0.0
 10
2.037115993998384
 20
2.055704219404194
 10
1.980588838561056
 20
2.055704219404194
  0
CIRCLE
  5
9A
100
AcDbEntity
  8
USP-GEO
100
AcDbCircle
 10
5.030617579910908
 20
10.30467066726936
 30
0.0
 40
0.09
  0
LWPOLYLINE
  5
9B
100
AcDbEntity
  8
USP-GEO
100
AcDbPolyline
 90
        2
 70
   128
 43
0.0
 10
4.903042774670963
 20
4.621094957001641
 10
4.789988463796305
 20
4.734149267876299
  0
LWPOLYLINE
  5
9C
100
AcDbEntity
  8
USP-GEO
100
AcDbPolyline
 90
        2
 70
   128
 43
0.0
 10
4.997254700399844
 20
4.734149267876299
 10
4.903042774670963
 20
4.621094957001641
  0
LWPOLYLINE
  5
9D
100
AcDbEntity
  8
USP-GEO
100
AcDbPolyline
 90
        2
 70
   128
 43
0.0
 10
4.903042774670963
 20
4.82836119360518
 10
4.997254700399844
 20
4.734149267876299
  0
LWPOLYLINE
  5
9E
100
AcDbEntity
  8
USP-GEO
100
AcDbPolyline
 90
        2
 70
   128
 43
0.0
 10
4.789988463796305
 20
4.734149267876299
 10
4.903042774670963
 20
4.82836119360518
  0
LWPOLYLINE
  5
9F
100
AcDbEntity
  8
USP-GEO
100
AcDbPolyline
 90
        2
 70
   128
 43
0.0
 10
4.620406997484318
 20
10.93894669638044
 10
4.582722227192764
 20
10.93894669638044
  0
LWPOLYLINE
  5
A0
100
AcDbEntity
  8
USP-GEO
100
AcDbPolyline
 90
        2
 70
   128
 43
0.0
 10
4.65809176777587
 20
11.03315862210932
 10
4.65809176777587
 20
11.2790517482617
  0
ARC
  5
A1
100
AcDbEntity
  8
USP-GEO
100
AcDbCircle
 10
6.549733641407469
 20
11.0355546057728
 30
0.0
 40
0.1058839385034389
100
AcDbArc
 50
266.1736956166646
 51
277.303143136281
  0
ARC
  5
A2
100
AcDbEntity
  8
USP-GEO
100
AcDbCircle
 10
6.549733641407469
 20
10.67967066726936
 30
0.0
 40
0.25
100
AcDbArc
 50
91.42753329762738
 51
139.7360116857266
  0
LWPOLYLINE
  5
A3
100
AcDbEntity
  8
USP-GEO
100
AcDbPolyline
 90
        2
 70
   128
 43
0.0
 10
5.469256448301541
 20
9.82630385352235
 10
6.354848550153027
 20
10.84473477065156
  0
ARC
  5
A4
100
AcDbEntity
  8
USP-GEO
100
AcDbCircle
 10
5.834550980328655
 20
9.496893522343212
 30
0.0
 40
0.5
100
AcDbArc
 50
137.9569213125751
 51
178.9546003065296
  0
LWPOLYLINE
  5
A5
100
AcDbEntity
  8
USP-GEO
100
AcDbPolyline
 90
        2
 70
   128
 43
0.0
 10
5.336417633023817
 20
9.505983306044152
 10
5.336417633023817
 20
5.451102022673088
  0
ARC
  5
A6
100
AcDbEntity
  8
USP-GEO
100
AcDbCircle
 10
4.584550980328655
 20
5.457832515967949
 30
0.0
 40
0.75
100
AcDbArc
 50
349.2908823952489
 51
359.4871184160124
  0
LWPOLYLINE
  5
A7
100
AcDbEntity
  8
USP-GEO
100
AcDbPolyline
 90
        2
 70
   128
 43
0.0
 10
4.714618923213199
 20
2.168758530278854
 10
5.317575247878041
 20
5.319205326652653
  0
LWPOLYLINE
  5
A8
100
AcDbEntity
  8
USP-GEO
100
AcDbPolyline
 90
        2
 70
   128
 43
0.0
 10
6.562114786756568
 20
10.93894669638044
 10
6.562114786756568
 20
11.2790517482617
  0
LWPOLYLINE
  5
A9
100
AcDbEntity
  8
USP-GEO
100
AcDbPolyline
 90
        2
 70
   128
 43
0.0
 10
4.65809176777587
 20
11.3544212888448
 10
6.562114786756568
 20
11.3544212888448
  0
LWPOLYLINE
  5
AA
100
AcDbEntity
  8
USP-GEO
100
AcDbPolyline
 90
        2
 70
   128
 43
0.0
 10
6.562114786756568
 20
11.3544212888448
 10
6.562114786756568
 20
11.2790517482617
  0
LWPOLYLINE
  5
AB
100
AcDbEntity
  8
USP-GEO
100
AcDbPolyline
 90
        2
 70
   128
 43
0.0
 10
4.65809176777587
 20
11.2790517482617
 10
4.65809176777587
 20
11.3544212888448
  0
ARC
  5
AC
100
AcDbEntity
  8
USP-GEO
100
AcDbCircle
 10
4.549733641407469
 20
11.0355546057728
 30
0.0
 40
0.1058839385034389
100
AcDbArc
 50
288.8534345152558
 51
358.7332986499015
  0
ARC
  5
AD
100
AcDbEntity
  8
USP-GEO
100
AcDbCircle
 10
4.584550980328684
 20
2.195295667269347
 30
0.0
 40
0.125
100
AcDbArc
 50
286.538605062386
 51
348.4684839036705
  0
LWPOLYLINE
  5
AE
100
AcDbEntity
  8
USP-GEO
100
AcDbPolyline
 90
        2
 70
   128
 43
0.0
 10
4.545037456901212
 20
10.93894669638044
 10
4.526195071755436
 20
10.93894669638044
  0
LWPOLYLINE
  5
AF
100
AcDbEntity
  8
USP-GEO
100
AcDbPolyline
 90
        2
 70
   128
 43
0.0
 10
4.526195071755436
 20
10.93894669638044
 10
4.527137191012725
 20
10.93894669638044
  0
LWPOLYLINE
  5
B0
100
AcDbEntity
  8
USP-GEO
100
AcDbPolyline
 90
        2
 70
   128
 43
0.0
 10
4.582722227192764
 20
10.93894669638044
 10
4.583664346450053
 20
10.93894669638044
  0
LWPOLYLINE
  5
B1
100
AcDbEntity
  8
USP-GEO
100
AcDbPolyline
 90
        2
 70
   128
 43
0.0
 10
4.582722227192764
 20
10.93894669638044
 10
4.620406997484318
 20
10.93894669638044
  0
LWPOLYLINE
  5
B2
100
AcDbEntity
  8
USP-GEO
100
AcDbPolyline
 90
        2
 70
   128
 43
0.0
 10
4.620406997484318
 20
2.074546604549972
 10
4.582722227192764
 20
2.055704219404194
  0
LWPOLYLINE
  5
B3
100
AcDbEntity
  8
USP-GEO
100
AcDbPolyline
 90
        2
 70
   128
 43
0.0
 10
1.942904068269502
 20
10.93894669638044
 10
1.980588838561056
 20
10.93894669638044
  0
LWPOLYLINE
  5
B4
100
AcDbEntity
  8
USP-GEO
100
AcDbPolyline
 90
        2
 70
   128
 43
0.0
 10
1.980588838561056
 20
10.93894669638044
 10
1.981530957818345
 20
10.93894669638044
  0
LWPOLYLINE
  5
B5
100
AcDbEntity
  8
USP-GEO
100
AcDbPolyline
 90
        2
 70
   128
 43
0.0
 10
1.980588838561056
 20
2.055704219404194
 10
1.942904068269502
 20
2.074546604549972
  0
LWPOLYLINE
  5
B6
100
AcDbEntity
  8
USP-GEO
100
AcDbPolyline
 90
        2
 70
   128
 43
0.0
 10
2.037115993998384
 20
10.93894669638044
 10
2.018273608852608
 20
10.93894669638044
  0
LWPOLYLINE
  5
B7
100
AcDbEntity
  8
USP-GEO
100
AcDbPolyline
 90
        2
 70
   128
 43
0.0
 10
2.037115993998384
 20
10.93894669638044
 10
2.038058113255673
 20
10.93894669638044
  0
ARC
  5
B8
100
AcDbEntity
  8
USP-GEO
100
AcDbCircle
 10
2.015368319249687
 20
11.03555460577271
 30
0.0
 40
0.1058839385034389
100
AcDbArc
 50
181.2461128076506
 51
250.2007911399025
  0
LWPOLYLINE
  5
B9
100
AcDbEntity
  8
USP-GEO
100
AcDbPolyline
 90
        2
 70
   128
 43
0.0
 10
1.980588838561056
 20
10.93894669638044
 10
1.942904068269502
 20
10.93894669638044
  0
ARC
  5
BA
100
AcDbEntity
  8
USP-GEO
100
AcDbCircle
 10
1.980550980328471
 20
2.195295667269276
 30
0.0
 40
0.125
100
AcDbArc
 50
191.3790089773383
 51
252.6836656090579
  0
LWPOLYLINE
  5
BB
100
AcDbEntity
  8
USP-GEO
100
AcDbPolyline
 90
        2
 70
   128
 43
0.0
 10
1.848692142540621
 20
2.168758530278854
 10
1.245735817875779
 20
5.319205326652653
  0
ARC
  5
BC
100
AcDbEntity
  8
USP-GEO
100
AcDbCircle
 10
1.9805509803285
 20
5.457832515967906
 30
0.0
 40
0.75
100
AcDbArc
 50
180.5116629029974
 51
190.6836187946951
  0
LWPOLYLINE
  5
BD
100
AcDbEntity
  8
USP-GEO
100
AcDbPolyline
 90
        2
 70
   128
 43
0.0
 10
1.226893432730003
 20
9.505983306044152
 10
1.226893432730003
 20
5.451102022673088
  0
ARC
  5
BE
100
AcDbEntity
  8
USP-GEO
100
AcDbCircle
 10
0.7305509803285004
 20
9.496893522343127
 30
0.0
 40
0.5
100
AcDbArc
 50
1.049170846323435
 51
42.10937380809221
  0
LWPOLYLINE
  5
BF
100
AcDbEntity
  8
USP-GEO
100
AcDbPolyline
 90
        2
 70
   128
 43
0.0
 10
1.094996736709568
 20
9.82630385352235
 10
0.2084625156007933
 20
10.84473477065156
  0
ARC
  5
C0
100
AcDbEntity
  8
USP-GEO
100
AcDbCircle
 10
0.015368319249687
 20
10.67967066726927
 30
0.0
 40
0.25
100
AcDbArc
 50
40.52505372855154
 51
88.9680414493198
  0
ARC
  5
C1
100
AcDbEntity
  8
USP-GEO
100
AcDbCircle
 10
0.015368319249687
 20
11.03555460577271
 30
0.0
 40
0.1058839385034389
100
AcDbArc
 50
261.6544362134147
 51
272.7677121335159
  0
LWPOLYLINE
  5
C2
100
AcDbEntity
  8
USP-GEO
100
AcDbPolyline
 90
        2
 70
   128
 43
0.0
 10
0.0011962789972533
 20
10.93894669638044
 10
0.0011962789972533
 20
11.2790517482617
  0
LWPOLYLINE
  5
C3
100
AcDbEntity
  8
USP-GEO
100
AcDbPolyline
 90
        2
 70
   128
 43
0.0
 10
1.660268291082857
 20
4.82836119360518
 10
1.773322601957515
 20
4.734149267876299
  0
LWPOLYLINE
  5
C4
100
AcDbEntity
  8
USP-GEO
100
AcDbPolyline
 90
        2
 70
   128
 43
0.0
 10
1.566056365353976
 20
4.734149267876299
 10
1.660268291082857
 20
4.82836119360518
  0
LWPOLYLINE
  5
C5
100
AcDbEntity
  8
USP-GEO
100
AcDbPolyline
 90
        2
 70
   128
 43
0.0
 10
1.660268291082857
 20
4.621094957001641
 10
1.566056365353976
 20
4.734149267876299
  0
LWPOLYLINE
  5
C6
100
AcDbEntity
  8
USP-GEO
100
AcDbPolyline
 90
        2
 70
   128
 43
0.0
 10
1.773322601957515
 20
4.734149267876299
 10
1.660268291082857
 20
4.621094957001641
  0
CIRCLE
  5
C7
100
AcDbEntity
  8
USP-GEO
100
AcDbCircle
 10
1.534484380746248
 20
10.30467066726927
 30
0.0
 40
0.09
  0
LWPOLYLINE
  5
C8
100
AcDbEntity
  8
USP-GEO
100
AcDbPolyline
 90
        2
 70
   128
 43
0.0
 10
1.90521929797795
 20
11.03315862210932
 10
1.90521929797795
 20
11.2790517482617
  0
LWPOLYLINE
  5
C9
100
AcDbEntity
  8
USP-GEO
100
AcDbPolyline
 90
        2
 70
   128
 43
0.0
 10
0.0011962789972533
 20
11.3544212888448
 10
1.90521929797795
 20
11.3544212888448
  0
LWPOLYLINE
  5
CA
100
AcDbEntity
  8
USP-GEO
100
AcDbPolyline
 90
        2
 70
   128
 43
0.0
 10
1.90521929797795
 20
11.3544212888448
 10
1.90521929797795
 20
11.2790517482617
  0
LWPOLYLINE
  5
CB
100
AcDbEntity
  8
USP-GEO
100
AcDbPolyline
 90
        2
 70
   128
 43
0.0
 10
0.0011962789972533
 20
11.2790517482617
 10
0.0011962789972533
 20
11.3544212888448
  0
LWPOLYLINE
  5
CC
100
AcDbEntity
  8
USP-GEO
100
AcDbPolyline
 90
        2
 70
   128
 43
0.0
 10
4.582722227192764
 20
2.055704219404194
 10
4.582722227192764
 20
1.942649908529537
  0
LWPOLYLINE
  5
CD
100
AcDbEntity
  8
USP-GEO
100
AcDbPolyline
 90
        2
 70
   128
 43
0.0
 10
4.582722227192764
 20
2.055704219404194
 10
4.582722227192764
 20
2.168758530278854
  0
LWPOLYLINE
  5
CE
100
AcDbEntity
  8
USP-GEO
100
AcDbPolyline
 90
        2
 70
   128
 43
0.0
 10
4.582722227192764
 20
2.168758530278854
 10
4.582722227192764
 20
5.319205326652653
  0
LWPOLYLINE
  5
CF
100
AcDbEntity
  8
USP-GEO
100
AcDbPolyline
 90
        2
 70
   128
 43
0.0
 10
4.582722227192764
 20
5.319205326652653
 10
4.582722227192764
 20
5.451102022673088
  0
LWPOLYLINE
  5
D0
100
AcDbEntity
  8
USP-GEO
100
AcDbPolyline
 90
        2
 70
   128
 43
0.0
 10
4.582722227192764
 20
9.505983306044152
 10
4.582722227192764
 20
5.451102022673088
  0
LWPOLYLINE
  5
D1
100
AcDbEntity
  8
USP-GEO
100
AcDbPolyline
 90
        2
 70
   128
 43
0.0
 10
4.582722227192764
 20
9.82630385352235
 10
4.582722227192764
 20
9.505983306044152
  0
LWPOLYLINE
  5
D2
100
AcDbEntity
  8
USP-GEO
100
AcDbPolyline
 90
        2
 70
   128
 43
0.0
 10
4.582722227192764
 20
9.82630385352235
 10
4.582722227192764
 20
10.84473477065156
  0
LWPOLYLINE
  5
D3
100
AcDbEntity
  8
USP-GEO
100
AcDbPolyline
 90
        2
 70
   128
 43
0.0
 10
4.582722227192764
 20
10.93894669638044
 10
4.582722227192764
 20
10.84473477065156
  0
LWPOLYLINE
  5
D4
100
AcDbEntity
  8
USP-GEO
100
AcDbPolyline
 90
        2
 70
   128
 43
0.0
 10
4.582722227192764
 20
0.0942119257288816
 10
4.582722227192764
 20
1.942649908529537
  0
ARC
  5
D5
100
AcDbEntity
  8
USP-GEO
100
AcDbCircle
 10
4.494550980328467
 20
0.0926706672692728
 30
0.0
 40
0.09
100
AcDbArc
 50
266.2704870955733
 51
1.001444521081764
  0
LWPOLYLINE
  5
D6
100
AcDbEntity
  8
USP-GEO
100
AcDbPolyline
 90
        2
 70
   128
 43
0.0
 10
2.074800764289938
 20
0.0
 10
4.488510301463882
 20
0.0
  0
LWPOLYLINE
  5
D7
100
AcDbEntity
  8
USP-GEO
100
AcDbPolyline
 90
        2
 70
   128
 43
0.0
 10
1.980588838561056
 20
10.84473477065156
 10
1.980588838561056
 20
10.93894669638044
  0
LWPOLYLINE
  5
D8
100
AcDbEntity
  8
USP-GEO
100
AcDbPolyline
 90
        2
 70
   128
 43
0.0
 10
1.980588838561056
 20
9.82630385352235
 10
1.980588838561056
 20
10.84473477065156
  0
LWPOLYLINE
  5
D9
100
AcDbEntity
  8
USP-GEO
100
AcDbPolyline
 90
        2
 70
   128
 43
0.0
 10
1.980588838561056
 20
9.505983306044152
 10
1.980588838561056
 20
9.82630385352235
  0
LWPOLYLINE
  5
DA
100
AcDbEntity
  8
USP-GEO
100
AcDbPolyline
 90
        2
 70
   128
 43
0.0
 10
1.980588838561056
 20
9.505983306044152
 10
1.980588838561056
 20
5.451102022673088
  0
LWPOLYLINE
  5
DB
100
AcDbEntity
  8
USP-GEO
100
AcDbPolyline
 90
        2
 70
   128
 43
0.0
 10
1.980588838561056
 20
5.451102022673088
 10
1.980588838561056
 20
5.319205326652653
  0
LWPOLYLINE
  5
DC
100
AcDbEntity
  8
USP-GEO
100
AcDbPolyline
 90
        2
 70
   128
 43
0.0
 10
1.980588838561056
 20
2.168758530278854
 10
1.980588838561056
 20
5.319205326652653
  0
LWPOLYLINE
  5
DD
100
AcDbEntity
  8
USP-GEO
100
AcDbPolyline
 90
        2
 70
   128
 43
0.0
 10
1.980588838561056
 20
2.168758530278854
 10
1.980588838561056
 20
2.055704219404194
  0
LWPOLYLINE
  5
DE
100
AcDbEntity
  8
USP-GEO
100
AcDbPolyline
 90
        2
 70
   128
 43
0.0
 10
1.980588838561056
 20
1.942649908529537
 10
1.980588838561056
 20
2.055704219404194
  0
LWPOLYLINE
  5
DF
100
AcDbEntity
  8
USP-GEO
100
AcDbPolyline
 90
        2
 70
   128
 43
0.0
 10
1.980588838561056
 20
1.942649908529537
 10
1.980588838561056
 20
0.0942119257288816
  0
ARC
  5
E0
100
AcDbEntity
  8
USP-GEO
100
AcDbCircle
 10
2.070550980328475
 20
0.0926706672692728
 30
0.0
 40
0.09
100
AcDbArc
 50
179.0184875018459
 51
272.6256874307758
  0
LWPOLYLINE
  5
E1
100
AcDbEntity
  8
USP-GEO
100
AcDbPolyline
 90
        2
 70
   128
 43
0.0
 10
2.074800764289938
 20
0.0565271554373297
 10
4.488510301463882
 20
0.0565271554373297
  0
ARC
  5
E2
100
AcDbEntity
  8
USP-GEO
100
AcDbCircle
 10
4.494550980328751
 20
0.0926706672692728
 30
0.0
 40
0.038
100
AcDbArc
 50
260.511829
 51
2.788447069971323
  0
LWPOLYLINE
  5
E3
100
AcDbEntity
  8
USP-GEO
100
AcDbPolyline
 90
        2
 70
   128
 43
0.0
 10
2.037115993998384
 20
1.942649908529537
 10
2.037115993998384
 20
0.0942119257288816
  0
LWPOLYLINE
  5
E4
100
AcDbEntity
  8
USP-GEO
100
AcDbPolyline
 90
        2
 70
   128
 43
0.0
 10
2.037115993998384
 20
2.055704219404194
 10
2.037115993998384
 20
1.942649908529537
  0
LWPOLYLINE
  5
E5
100
AcDbEntity
  8
USP-GEO
100
AcDbPolyline
 90
        2
 70
   128
 43
0.0
 10
2.037115993998384
 20
2.168758530278854
 10
2.037115993998384
 20
2.055704219404194
  0
LWPOLYLINE
  5
E6
100
AcDbEntity
  8
USP-GEO
100
AcDbPolyline
 90
        2
 70
   128
 43
0.0
 10
2.037115993998384
 20
5.319205326652653
 10
2.037115993998384
 20
2.168758530278854
  0
LWPOLYLINE
  5
E7
100
AcDbEntity
  8
USP-GEO
100
AcDbPolyline
 90
        2
 70
   128
 43
0.0
 10
2.037115993998384
 20
5.451102022673088
 10
2.037115993998384
 20
5.319205326652653
  0
LWPOLYLINE
  5
E8
100
AcDbEntity
  8
USP-GEO
100
AcDbPolyline
 90
        2
 70
   128
 43
0.0
 10
2.037115993998384
 20
9.505983306044152
 10
2.037115993998384
 20
5.451102022673088
  0
LWPOLYLINE
  5
E9
100
AcDbEntity
  8
USP-GEO
100
AcDbPolyline
 90
        2
 70
   128
 43
0.0
 10
2.037115993998384
 20
9.82630385352235
 10
2.037115993998384
 20
9.505983306044152
  0
LWPOLYLINE
  5
EA
100
AcDbEntity
  8
USP-GEO
100
AcDbPolyline
 90
        2
 70
   128
 43
0.0
 10
2.037115993998384
 20
10.84473477065156
 10
2.037115993998384
 20
9.82630385352235
  0
LWPOLYLINE
  5
EB
100
AcDbEntity
  8
USP-GEO
100
AcDbPolyline
 90
        2
 70
   128
 43
0.0
 10
2.037115993998384
 20
10.93894669638044
 10
2.037115993998384
 20
10.84473477065156
  0
ARC
  5
EC
100
AcDbEntity
  8
USP-GEO
100
AcDbCircle
 10
2.070550980328461
 20
0.0926706672692728
 30
0.0
 40
0.038
100
AcDbArc
 50
177.3606947556964
 51
276.7060937024169
  0
LWPOLYLINE
  5
ED
100
AcDbEntity
  8
USP-GEO
100
AcDbPolyline
 90
        2
 70
   128
 43
0.0
 10
1.886376912832174
 20
1.490432665030905
 10
1.773322601957515
 20
1.377378354156249
  0
LWPOLYLINE
  5
EE
100
AcDbEntity
  8
USP-GEO
100
AcDbPolyline
 90
        2
 70
   128
 43
0.0
 10
4.676934152921646
 20
1.490432665030905
 10
4.789988463796305
 20
1.377378354156249
  0
LWPOLYLINE
  5
EF
100
AcDbEntity
  8
USP-GEO
100
AcDbPolyline
 90
        2
 70
   128
 43
0.0
 10
2.074800764289938
 20
0.8676918359629972
 10
2.187855075164595
 20
0.7923222953798934
  0
LWPOLYLINE
  5
F0
100
AcDbEntity
  8
USP-GEO
100
AcDbPolyline
 90
        2
 70
   128
 43
0.0
 10
2.150170304873042
 20
0.7546375250883415
 10
2.05595837914416
 20
0.8111646805256711
  0
LWPOLYLINE
  5
F1
100
AcDbEntity
  8
USP-GEO
100
AcDbPolyline
 90
        2
 70
   128
 43
0.0
 10
2.150170304873042
 20
0.7546375250883415
 10
2.187855075164595
 20
0.7923222953798934
  0
LWPOLYLINE
  5
F2
100
AcDbEntity
  8
USP-GEO
100
AcDbPolyline
 90
        2
 70
   128
 43
0.0
 10
2.037115993998384
 20
0.886534221108775
 10
2.074800764289938
 20
0.8676918359629972
  0
LWPOLYLINE
  5
F3
100
AcDbEntity
  8
USP-GEO
100
AcDbPolyline
 90
        2
 70
   128
 43
0.0
 10
2.05595837914416
 20
0.8111646805256711
 10
2.074800764289938
 20
0.8676918359629972
  0
LWPOLYLINE
  5
F4
100
AcDbEntity
  8
USP-GEO
100
AcDbPolyline
 90
        2
 70
   128
 43
0.0
 10
2.05595837914416
 20
0.8111646805256711
 10
2.037115993998384
 20
0.8300070656714453
  0
LWPOLYLINE
  5
F5
100
AcDbEntity
  8
USP-GEO
100
AcDbPolyline
 90
        2
 70
   128
 43
0.0
 10
4.526195071755436
 20
10.84473477065156
 10
4.526195071755436
 20
10.93894669638044
  0
LWPOLYLINE
  5
F6
100
AcDbEntity
  8
USP-GEO
100
AcDbPolyline
 90
        2
 70
   128
 43
0.0
 10
4.526195071755436
 20
9.82630385352235
 10
4.526195071755436
 20
10.84473477065156
  0
LWPOLYLINE
  5
F7
100
AcDbEntity
  8
USP-GEO
100
AcDbPolyline
 90
        2
 70
   128
 43
0.0
 10
4.526195071755436
 20
9.505983306044152
 10
4.526195071755436
 20
9.82630385352235
  0
LWPOLYLINE
  5
F8
100
AcDbEntity
  8
USP-GEO
100
AcDbPolyline
 90
        2
 70
   128
 43
0.0
 10
4.526195071755436
 20
5.451102022673088
 10
4.526195071755436
 20
9.505983306044152
  0
LWPOLYLINE
  5
F9
100
AcDbEntity
  8
USP-GEO
100
AcDbPolyline
 90
        2
 70
   128
 43
0.0
 10
4.526195071755436
 20
5.319205326652653
 10
4.526195071755436
 20
5.451102022673088
  0
LWPOLYLINE
  5
FA
100
AcDbEntity
  8
USP-GEO
100
AcDbPolyline
 90
        2
 70
   128
 43
0.0
 10
4.526195071755436
 20
2.168758530278854
 10
4.526195071755436
 20
5.319205326652653
  0
LWPOLYLINE
  5
FB
100
AcDbEntity
  8
USP-GEO
100
AcDbPolyline
 90
        2
 70
   128
 43
0.0
 10
4.526195071755436
 20
2.055704219404194
 10
4.526195071755436
 20
2.168758530278854
  0
LWPOLYLINE
  5
FC
100
AcDbEntity
  8
USP-GEO
100
AcDbPolyline
 90
        2
 70
   128
 43
0.0
 10
4.526195071755436
 20
1.942649908529537
 10
4.526195071755436
 20
2.055704219404194
  0
LWPOLYLINE
  5
FD
100
AcDbEntity
  8
USP-GEO
100
AcDbPolyline
 90
        2
 70
   128
 43
0.0
 10
4.526195071755436
 20
0.0942119257288816
 10
4.526195071755436
 20
1.942649908529537
  0
LWPOLYLINE
  5
FE
100
AcDbEntity
  8
USP-GEO
100
AcDbPolyline
 90
        2
 70
   128
 43
0.0
 10
4.488510301463882
 20
0.8676918359629972
 10
4.375455990589225
 20
0.7923222953798934
  0
LWPOLYLINE
  5
FF
100
AcDbEntity
  8
USP-GEO
100
AcDbPolyline
 90
        2
 70
   128
 43
0.0
 10
4.394298375735001
 20
0.7546375250883415
 10
4.50735268660966
 20
0.8111646805256711
  0
LWPOLYLINE
  5
100
100
AcDbEntity
  8
USP-GEO
100
AcDbPolyline
 90
        2
 70
   128
 43
0.0
 10
4.50735268660966
 20
0.8111646805256711
 10
4.526195071755436
 20
0.8300070656714453
  0
LWPOLYLINE
  5
101
100
AcDbEntity
  8
USP-GEO
100
AcDbPolyline
 90
        2
 70
   128
 43
0.0
 10
4.50735268660966
 20
0.8111646805256711
 10
4.488510301463882
 20
0.8676918359629972
  0
LWPOLYLINE
  5
102
100
AcDbEntity
  8
USP-GEO
100
AcDbPolyline
 90
        2
 70
   128
 43
0.0
 10
4.526195071755436
 20
0.886534221108775
 10
4.488510301463882
 20
0.8676918359629972
  0
LWPOLYLINE
  5
103
100
AcDbEntity
  8
USP-GEO
100
AcDbPolyline
 90
        2
 70
   128
 43
0.0
 10
4.394298375735001
 20
0.7546375250883415
 10
4.375455990589225
 20
0.7923222953798934
  0
ARC
  5
104
100
AcDbEntity
  8
USP-GEO
100
AcDbCircle
 10
4.532550980328464
 20
1.225920667269276
 30
0.0
 40
0.3020000000000001
100
AcDbArc
 50
61.37219784838021
 51
79.9591707060153
  0
ARC
  5
105
100
AcDbEntity
  8
USP-GEO
100
AcDbCircle
 10
4.532550980328464
 20
1.225920667269276
 30
0.0
 40
0.3020000000000001
100
AcDbArc
 50
279.4415584494454
 51
30.4694921272396
  0
ARC
  5
106
100
AcDbEntity
  8
USP-GEO
100
AcDbCircle
 10
2.032550980328464
 20
1.22592066726939
 30
0.0
 40
0.302
100
AcDbArc
 50
100.3915649662723
 51
118.925825904351
  0
ARC
  5
107
100
AcDbEntity
  8
USP-GEO
100
AcDbCircle
 10
2.032550980328464
 20
1.22592066726939
 30
0.0
 40
0.302
100
AcDbArc
 50
149.7038138765268
 51
260.2278083920984
  0
TEXT
  5
108
100
AcDbEntity
  8
USP-TXT
100
AcDbText
 10
0.7399888662102457
 20
-1.207175467990873
 30
0.0
 40
0.25
  1
TFL25112 - FRONT VIEW
 72
     1
 11
3.28165553287691
 21
-1.207175467990873
 31
0.0
100
AcDbText
  0
ENDBLK
  5
10A
100
AcDbEntity
  8
0
100
AcDbBlockEnd
  0
BLOCK
  5
155
100
AcDbEntity
  8
0
100
AcDbBlockBegin
  2
TFL25112PR_S
 70
     0
 10
0.0
 20
0.0
 30
0.0
  3
TFL25112PR_S
  1

  0
LWPOLYLINE
  5
10D
100
AcDbEntity
  8
USP-GEO
100
AcDbPolyline
 90
        2
 70
   128
 43
0.0
 10
1.998234944709576
 20
0.0565271554373297
 10
0.0
 20
0.0565271554373297
  0
LWPOLYLINE
  5
10E
100
AcDbEntity
  8
USP-GEO
100
AcDbPolyline
 90
        2
 70
   128
 43
0.0
 10
2.148974025875787
 20
10.93894669638044
 10
2.149916145133076
 20
10.93894669638044
  0
LWPOLYLINE
  5
10F
100
AcDbEntity
  8
USP-GEO
100
AcDbPolyline
 90
        2
 70
   128
 43
0.0
 10
2.148974025875787
 20
10.93894669638044
 10
2.148974025875787
 20
10.84473477065156
  0
LWPOLYLINE
  5
110
100
AcDbEntity
  8
USP-GEO
100
AcDbPolyline
 90
        2
 70
   128
 43
0.0
 10
2.148974025875787
 20
9.82630385352235
 10
2.148974025875787
 20
10.84473477065156
  0
LWPOLYLINE
  5
111
100
AcDbEntity
  8
USP-GEO
100
AcDbPolyline
 90
        2
 70
   128
 43
0.0
 10
2.148974025875787
 20
9.82630385352235
 10
2.148974025875787
 20
9.505983306044152
  0
LWPOLYLINE
  5
112
100
AcDbEntity
  8
USP-GEO
100
AcDbPolyline
 90
        2
 70
   128
 43
0.0
 10
2.148974025875787
 20
9.505983306044152
 10
2.148974025875787
 20
5.451102022673088
  0
LWPOLYLINE
  5
113
100
AcDbEntity
  8
USP-GEO
100
AcDbPolyline
 90
        2
 70
   128
 43
0.0
 10
2.148974025875787
 20
5.319205326652653
 10
2.148974025875787
 20
5.451102022673088
  0
LWPOLYLINE
  5
114
100
AcDbEntity
  8
USP-GEO
100
AcDbPolyline
 90
        2
 70
   128
 43
0.0
 10
2.148974025875787
 20
2.168758530278854
 10
2.148974025875787
 20
5.319205326652653
  0
LWPOLYLINE
  5
115
100
AcDbEntity
  8
USP-GEO
100
AcDbPolyline
 90
        2
 70
   128
 43
0.0
 10
3.694991727086733
 20
11.3544212888448
 10
2.224343566458895
 20
11.3544212888448
  0
LWPOLYLINE
  5
116
100
AcDbEntity
  8
USP-GEO
100
AcDbPolyline
 90
        2
 70
   128
 43
0.0
 10
3.694991727086733
 20
11.31673651855325
 10
3.694991727086733
 20
11.3544212888448
  0
LWPOLYLINE
  5
117
100
AcDbEntity
  8
USP-GEO
100
AcDbPolyline
 90
        2
 70
   128
 43
0.0
 10
3.694991727086733
 20
11.31673651855325
 10
2.224343566458895
 20
11.31673651855325
  0
LWPOLYLINE
  5
118
100
AcDbEntity
  8
USP-GEO
100
AcDbPolyline
 90
        2
 70
   128
 43
0.0
 10
2.186658796167339
 20
10.93894669638044
 10
2.148974025875787
 20
10.93894669638044
  0
LWPOLYLINE
  5
119
100
AcDbEntity
  8
USP-GEO
100
AcDbPolyline
 90
        2
 70
   128
 43
0.0
 10
2.148974025875787
 20
10.93894669638044
 10
2.148974025875787
 20
11.2790517482617
  0
ARC
  5
11A
100
AcDbEntity
  8
USP-GEO
100
AcDbCircle
 10
2.232247493225171
 20
11.26667066726936
 30
0.0
 40
0.09
100
AcDbArc
 50
95.14689086587749
 51
171.543227071014
  0
LWPOLYLINE
  5
11B
100
AcDbEntity
  8
USP-GEO
100
AcDbPolyline
 90
        2
 70
   128
 43
0.0
 10
2.148974025875787
 20
2.074546604549972
 10
2.148974025875787
 20
2.168758530278854
  0
LWPOLYLINE
  5
11C
100
AcDbEntity
  8
USP-GEO
100
AcDbPolyline
 90
        2
 70
   128
 43
0.0
 10
2.186658796167339
 20
2.168758530278854
 10
2.148974025875787
 20
2.168758530278854
  0
LWPOLYLINE
  5
11D
100
AcDbEntity
  8
USP-GEO
100
AcDbPolyline
 90
        2
 70
   128
 43
0.0
 10
2.186658796167339
 20
2.055704219404194
 10
2.111289255584235
 20
2.055704219404194
  0
LWPOLYLINE
  5
11E
100
AcDbEntity
  8
USP-GEO
100
AcDbPolyline
 90
        2
 70
   128
 43
0.0
 10
2.186658796167339
 20
2.055704219404194
 10
2.186658796167339
 20
2.074546604549972
  0
LWPOLYLINE
  5
11F
100
AcDbEntity
  8
USP-GEO
100
AcDbPolyline
 90
        2
 70
   128
 43
0.0
 10
2.186658796167339
 20
2.168758530278854
 10
2.186658796167339
 20
2.074546604549972
  0
LWPOLYLINE
  5
120
100
AcDbEntity
  8
USP-GEO
100
AcDbPolyline
 90
        2
 70
   128
 43
0.0
 10
2.186658796167339
 20
5.319205326652653
 10
2.186658796167339
 20
2.168758530278854
  0
LWPOLYLINE
  5
121
100
AcDbEntity
  8
USP-GEO
100
AcDbPolyline
 90
        2
 70
   128
 43
0.0
 10
2.186658796167339
 20
5.451102022673088
 10
2.186658796167339
 20
5.319205326652653
  0
LWPOLYLINE
  5
122
100
AcDbEntity
  8
USP-GEO
100
AcDbPolyline
 90
        2
 70
   128
 43
0.0
 10
2.186658796167339
 20
9.505983306044152
 10
2.186658796167339
 20
5.451102022673088
  0
LWPOLYLINE
  5
123
100
AcDbEntity
  8
USP-GEO
100
AcDbPolyline
 90
        2
 70
   128
 43
0.0
 10
2.186658796167339
 20
9.82630385352235
 10
2.186658796167339
 20
9.505983306044152
  0
LWPOLYLINE
  5
124
100
AcDbEntity
  8
USP-GEO
100
AcDbPolyline
 90
        2
 70
   128
 43
0.0
 10
2.186658796167339
 20
10.84473477065156
 10
2.186658796167339
 20
9.82630385352235
  0
LWPOLYLINE
  5
125
100
AcDbEntity
  8
USP-GEO
100
AcDbPolyline
 90
        2
 70
   128
 43
0.0
 10
2.186658796167339
 20
10.93894669638044
 10
2.186658796167339
 20
10.84473477065156
  0
LWPOLYLINE
  5
126
100
AcDbEntity
  8
USP-GEO
100
AcDbPolyline
 90
        2
 70
   128
 43
0.0
 10
2.186658796167339
 20
10.93894669638044
 10
2.187600915424628
 20
10.93894669638044
  0
LWPOLYLINE
  5
127
100
AcDbEntity
  8
USP-GEO
100
AcDbPolyline
 90
        2
 70
   128
 43
0.0
 10
2.186658796167339
 20
11.2790517482617
 10
2.186658796167339
 20
10.93894669638044
  0
ARC
  5
128
100
AcDbEntity
  8
USP-GEO
100
AcDbCircle
 10
2.232247493225186
 20
11.26667066726935
 30
0.0
 40
0.038
100
AcDbArc
 50
98.97127818581589
 51
164.8059620318582
  0
LWPOLYLINE
  5
129
100
AcDbEntity
  8
USP-GEO
100
AcDbPolyline
 90
        2
 70
   128
 43
0.0
 10
2.111289255584235
 20
10.93894669638044
 10
2.112231374841524
 20
10.93894669638044
  0
LWPOLYLINE
  5
12A
100
AcDbEntity
  8
USP-GEO
100
AcDbPolyline
 90
        2
 70
   128
 43
0.0
 10
2.111289255584235
 20
10.93894669638044
 10
2.148974025875787
 20
10.93894669638044
  0
LWPOLYLINE
  5
12B
100
AcDbEntity
  8
USP-GEO
100
AcDbPolyline
 90
        2
 70
   128
 43
0.0
 10
2.148974025875787
 20
2.074546604549972
 10
2.111289255584235
 20
2.055704219404194
  0
LWPOLYLINE
  5
12C
100
AcDbEntity
  8
USP-GEO
100
AcDbPolyline
 90
        2
 70
   128
 43
0.0
 10
1.243597419621234
 20
0.8300070656714453
 10
1.111700723600801
 20
0.6981103696510118
  0
LWPOLYLINE
  5
12D
100
AcDbEntity
  8
USP-GEO
100
AcDbPolyline
 90
        2
 70
   128
 43
0.0
 10
1.243597419621234
 20
0.886534221108775
 10
1.243597419621234
 20
0.8300070656714453
  0
LWPOLYLINE
  5
12E
100
AcDbEntity
  8
USP-GEO
100
AcDbPolyline
 90
        2
 70
   128
 43
0.0
 10
0.9798040275803678
 20
0.886534221108775
 10
1.243597419621234
 20
0.886534221108775
  0
LWPOLYLINE
  5
12F
100
AcDbEntity
  8
USP-GEO
100
AcDbPolyline
 90
        2
 70
   128
 43
0.0
 10
0.9798040275803678
 20
0.8300070656714453
 10
0.9798040275803678
 20
0.886534221108775
  0
CIRCLE
  5
130
100
AcDbEntity
  8
USP-GEO
100
AcDbCircle
 10
1.39224749322518
 20
9.304670667269304
 30
0.0
 40
0.15625
  0
LWPOLYLINE
  5
131
100
AcDbEntity
  8
USP-GEO
100
AcDbPolyline
 90
        2
 70
   128
 43
0.0
 10
1.715599167522931
 20
3.621506425018207
 10
1.602544856648275
 20
3.508452114143549
  0
LWPOLYLINE
  5
132
100
AcDbEntity
  8
USP-GEO
100
AcDbPolyline
 90
        2
 70
   128
 43
0.0
 10
1.602544856648275
 20
3.715718350747089
 10
1.715599167522931
 20
3.621506425018207
  0
LWPOLYLINE
  5
133
100
AcDbEntity
  8
USP-GEO
100
AcDbPolyline
 90
        2
 70
   128
 43
0.0
 10
1.489490545773616
 20
3.621506425018207
 10
1.602544856648275
 20
3.715718350747089
  0
LWPOLYLINE
  5
134
100
AcDbEntity
  8
USP-GEO
100
AcDbPolyline
 90
        2
 70
   128
 43
0.0
 10
1.602544856648275
 20
3.508452114143549
 10
1.489490545773616
 20
3.621506425018207
  0
ARC
  5
135
100
AcDbEntity
  8
USP-GEO
100
AcDbCircle
 10
0.1195640928074049
 20
1.94529566726929
 30
0.0
 40
0.125
100
AcDbArc
 50
93.37430128301363
 51
181.2676554491287
  0
LWPOLYLINE
  5
136
100
AcDbEntity
  8
USP-GEO
100
AcDbPolyline
 90
        2
 70
   128
 43
0.0
 10
0.1507390811662077
 20
2.055704219404194
 10
0.1130543108746558
 20
2.055704219404194
  0
ARC
  5
137
100
AcDbEntity
  8
USP-GEO
100
AcDbCircle
 10
0.1422474932251809
 20
2.19529566726929
 30
0.0
 40
0.125
100
AcDbArc
 50
273.4811111258607
 51
347.6838706312878
  0
LWPOLYLINE
  5
138
100
AcDbEntity
  8
USP-GEO
100
AcDbPolyline
 90
        2
 70
   128
 43
0.0
 10
0.263793392040867
 20
2.168758530278854
 10
0.8855921018514862
 20
5.319205326652653
  0
ARC
  5
139
100
AcDbEntity
  8
USP-GEO
100
AcDbCircle
 10
0.1422474932251525
 20
5.457832515967892
 30
0.0
 40
0.75
100
AcDbArc
 50
349.4361947622148
 51
359.4812388254489
  0
LWPOLYLINE
  5
13A
100
AcDbEntity
  8
USP-GEO
100
AcDbPolyline
 90
        2
 70
   128
 43
0.0
 10
0.8855921018514862
 20
9.505983306044152
 10
0.8855921018514862
 20
5.451102022673088
  0
ARC
  5
13B
100
AcDbEntity
  8
USP-GEO
100
AcDbCircle
 10
1.39224749322518
 20
9.496893522343155
 30
0.0
 40
0.5
100
AcDbArc
 50
138.6847499981389
 51
178.9721803321451
  0
LWPOLYLINE
  5
13C
100
AcDbEntity
  8
USP-GEO
100
AcDbPolyline
 90
        2
 70
   128
 43
0.0
 10
1.017488797871919
 20
9.82630385352235
 10
1.922865404126472
 20
10.84473477065156
  0
ARC
  5
13D
100
AcDbEntity
  8
USP-GEO
100
AcDbCircle
 10
2.107430154303965
 20
10.6796706672693
 30
0.0
 40
0.25
100
AcDbArc
 50
89.14726443891117
 51
138.1923804473232
  0
LWPOLYLINE
  5
13E
100
AcDbEntity
  8
USP-GEO
100
AcDbPolyline
 90
        2
 70
   128
 43
0.0
 10
2.111289255584235
 20
2.055704219404194
 10
2.112231374841524
 20
2.055704219404194
  0
ARC
  5
13F
100
AcDbEntity
  8
USP-GEO
100
AcDbCircle
 10
2.119564092807404
 20
1.94529566726929
 30
0.0
 40
0.125
100
AcDbArc
 50
94.2861581210681
 51
181.2492199145556
  0
LWPOLYLINE
  5
140
100
AcDbEntity
  8
USP-GEO
100
AcDbPolyline
 90
        2
 70
   128
 43
0.0
 10
1.998234944709576
 20
0.0942119257288816
 10
1.998234944709576
 20
1.942649908529537
  0
LWPOLYLINE
  5
141
100
AcDbEntity
  8
USP-GEO
100
AcDbPolyline
 90
        2
 70
   128
 43
0.0
 10
1.998234944709576
 20
0.0942119257288816
 10
1.998234944709576
 20
0.0
  0
LWPOLYLINE
  5
142
100
AcDbEntity
  8
USP-GEO
100
AcDbPolyline
 90
        2
 70
   128
 43
0.0
 10
1.998234944709576
 20
0.0
 10
0.0
 20
0.0
  0
LWPOLYLINE
  5
143
100
AcDbEntity
  8
USP-GEO
100
AcDbPolyline
 90
        2
 70
   128
 43
0.0
 10
0.0
 20
0.0942119257288816
 10
0.0
 20
1.942649908529537
  0
LWPOLYLINE
  5
144
100
AcDbEntity
  8
USP-GEO
100
AcDbPolyline
 90
        2
 70
   128
 43
0.0
 10
0.0
 20
0.0
 10
0.0
 20
0.0942119257288816
  0
ARC
  5
145
100
AcDbEntity
  8
USP-GEO
100
AcDbCircle
 10
0.3092829572530995
 20
1.22592066726939
 30
0.0
 40
0.25
100
AcDbArc
 50
37.21060770658018
 51
55.50182158263496
  0
ELLIPSE
  5
146
100
AcDbEntity
  8
USP-GEO
  6
CONTINUOUS
100
AcDbEllipse
 10
0.4967829572530995
 20
1.393873041471016
 30
0.0
 11
-0.0779999999999994
 21
0.0000000000000019
 31
0.0
210
0.0
220
0.0
230
1.0
 40
0.7071067811865476
 41
3.549052460873823
 42
5.841688787348222
1001
ACAD
1000
RTLwPs
1070
   128
  0
CIRCLE
  5
147
100
AcDbEntity
  8
USP-GEO
100
AcDbCircle
 10
0.4967829572530995
 20
1.225920667269276
 30
0.0
 40
0.2974894956128693
  0
ELLIPSE
  5
148
100
AcDbEntity
  8
USP-GEO
  6
CONTINUOUS
100
AcDbEllipse
 10
0.4967829572530995
 20
1.432221418600915
 30
0.0
 11
-0.0779999999999994
 21
0.0000000000000013
 31
0.0
210
0.0
220
0.0
230
1.0
 40
0.7071067811865476
 41
5.848162739124746
 42
6.967033562863885
1001
ACAD
1000
RTLwPs
1070
   128
  0
ELLIPSE
  5
149
100
AcDbEntity
  8
USP-GEO
  6
CONTINUOUS
100
AcDbEllipse
 10
0.4967829572530995
 20
1.432221418600915
 30
0.0
 11
-0.0779999999999994
 21
0.0000000000000013
 31
0.0
210
0.0
220
0.0
230
1.0
 40
0.7071067811865476
 41
0.6765286586270543
 42
1.261537042456845
1001
ACAD
1000
RTLwPs
1070
   128
  0
ELLIPSE
  5
14A
100
AcDbEntity
  8
USP-GEO
  6
CONTINUOUS
100
AcDbEllipse
 10
0.4967829572530995
 20
1.432221418600915
 30
0.0
 11
-0.0779999999999994
 21
0.0000000000000013
 31
0.0
210
0.0
220
0.0
230
1.0
 40
0.7071067811865476
 41
5.131158076996037
 42
5.85385612801712
1001
ACAD
1000
RTLwPs
1070
   128
  0
ELLIPSE
  5
14B
100
AcDbEntity
  8
USP-GEO
  6
CONTINUOUS
100
AcDbEllipse
 10
0.4967829572530995
 20
1.432221418600915
 30
0.0
 11
-0.0779999999999994
 21
0.0000000000000013
 31
0.0
210
0.0
220
0.0
230
1.0
 40
0.7071067811865476
 41
1.250554345450052
 42
1.959302072357021
1001
ACAD
1000
RTLwPs
1070
   128
  0
ELLIPSE
  5
14C
100
AcDbEntity
  8
USP-GEO
  6
CONTINUOUS
100
AcDbEllipse
 10
0.4967829572530995
 20
1.432221418600915
 30
0.0
 11
-0.0779999999999994
 21
0.0000000000000013
 31
0.0
210
0.0
220
0.0
230
1.0
 40
0.7071067811865476
 41
4.1941762373898
 42
5.145192377825334
1001
ACAD
1000
RTLwPs
1070
   128
  0
ELLIPSE
  5
14D
100
AcDbEntity
  8
USP-GEO
  6
CONTINUOUS
100
AcDbEllipse
 10
0.4967829572530995
 20
1.432221418600915
 30
0.0
 11
-0.0779999999999994
 21
0.0000000000000013
 31
0.0
210
0.0
220
0.0
230
1.0
 40
0.7071067811865476
 41
1.948853975878981
 42
2.50234562808816
1001
ACAD
1000
RTLwPs
1070
   128
  0
ELLIPSE
  5
14E
100
AcDbEntity
  8
USP-GEO
  6
CONTINUOUS
100
AcDbEllipse
 10
0.4967829572530995
 20
1.432221418600915
 30
0.0
 11
-0.0779999999999994
 21
0.0000000000000013
 31
0.0
210
0.0
220
0.0
230
1.0
 40
0.7071067811865476
 41
3.542487959450093
 42
4.20703897250379
1001
ACAD
1000
RTLwPs
1070
   128
  0
ELLIPSE
  5
14F
100
AcDbEntity
  8
USP-GEO
  6
CONTINUOUS
100
AcDbEllipse
 10
0.4967829572530995
 20
1.432221418600915
 30
0.0
 11
-0.0779999999999994
 21
0.0000000000000013
 31
0.0
210
0.0
220
0.0
230
1.0
 40
0.7071067811865476
 41
2.508873881883714
 42
3.537602472416448
1001
ACAD
1000
RTLwPs
1070
   128
  0
LWPOLYLINE
  5
150
100
AcDbEntity
  8
USP-GEO
100
AcDbPolyline
 90
        2
 70
   128
 43
0.0
 10
1.111700723600801
 20
0.6981103696510118
 10
0.9798040275803678
 20
0.8300070656714453
  0
LWPOLYLINE
  5
151
100
AcDbEntity
  8
USP-GEO
100
AcDbPolyline
 90
        2
 70
   128
 43
0.0
 10
1.111700723600801
 20
0.7546375250883415
 10
1.036331183017697
 20
0.7923222953798934
  0
LWPOLYLINE
  5
152
100
AcDbEntity
  8
USP-GEO
100
AcDbPolyline
 90
        2
 70
   128
 43
0.0
 10
0.9798040275803678
 20
0.848849450817223
 10
1.243597419621234
 20
0.848849450817223
  0
LWPOLYLINE
  5
153
100
AcDbEntity
  8
USP-GEO
100
AcDbPolyline
 90
        2
 70
   128
 43
0.0
 10
1.205912649329683
 20
0.7923222953798934
 10
1.111700723600801
 20
0.7546375250883415
  0
TEXT
  5
154
100
AcDbEntity
  8
USP-TXT
100
AcDbText
 10
-0.5275041364566322
 20
-1.207175467990873
 30
0.0
 40
0.25
  1
TFL25112 - SIDE VIEW
 72
     1
 11
1.847495863543366
 21
-1.207175467990873
 31
0.0
100
AcDbText
  0
ENDBLK
  5
156
100
AcDbEntity
  8
0
100
AcDbBlockEnd
  0
ENDSEC
  0
SECTION
  2
ENTITIES
  0
INSERT
  5
3
100
AcDbEntity
  8
USP
100
AcDbBlockReference
  2
TFL25112PR_T
 10
-0.0016862366626826
 20
15.20265899860775
 30
0.0
  0
INSERT
  5
90
100
AcDbEntity
  8
USP
100
AcDbBlockReference
  2
TFL25112PR_F
 10
-0.0028825156599359
 20
1.208419550839682
 30
0.0
  0
INSERT
  5
10B
100
AcDbEntity
  8
USP
100
AcDbBlockReference
  2
TFL25112PR_S
 10
10.19863896200333
 20
1.208419550839682
 30
0.0
  0
ENDSEC
  0
SECTION
  2
OBJECTS
  0
DICTIONARY
  5
16E
100
AcDbDictionary
  3
ACAD_GROUP
350
16C
  3
ACAD_MLINESTYLE
350
16D
  0
DICTIONARY
  5
9
100
AcDbDictionary
280
     1
  3
ACAD_XREC_ROUNDTRIP
360
A
  0
DICTIONARY
  5
8A
100
AcDbDictionary
280
     1
  3
ACAD_XREC_ROUNDTRIP
360
8B
  0
DICTIONARY
  5
171
100
AcDbDictionary
280
     1
  3
ACAD_XREC_ROUNDTRIP
360
172
  0
DICTIONARY
  5
157
100
AcDbDictionary
280
     1
  3
ACAD_LAYOUTSELFREF
360
158
  0
DICTIONARY
  5
15C
100
AcDbDictionary
280
     1
  3
ACAD_LAYOUTSELFREF
360
15D
  0
DICTIONARY
  5
16C
102
{ACAD_REACTORS
330
16E
102
}
100
AcDbDictionary
  0
DICTIONARY
  5
16D
102
{ACAD_REACTORS
330
16E
102
}
100
AcDbDictionary
  3
STANDARD
350
16F
  0
XRECORD
  5
A
102
{ACAD_REACTORS
330
9
102
}
100
AcDbXrecord
102
EXTNAMES
  1
USP-GEO
  2
USP-Geo
  0
XRECORD
  5
8B
102
{ACAD_REACTORS
330
8A
102
}
100
AcDbXrecord
102
EXTNAMES
  1
USP-TXT
  2
USP-Txt
  0
XRECORD
  5
172
102
{ACAD_REACTORS
330
171
102
}
100
AcDbXrecord
102
ACADR14ROUNDTRIP
1000
DSTYLE
1002
{
1070
   276
 70
     2
1070
   277
 70
     5
1002
}
  0
XRECORD
  5
158
102
{ACAD_REACTORS
330
157
102
}
100
AcDbXrecord
340
2
  0
XRECORD
  5
15D
102
{ACAD_REACTORS
330
15C
102
}
100
AcDbXrecord
340
0
  0
MLINESTYLE
  5
16F
102
{ACAD_REACTORS
330
16D
102
}
100
AcDbMlineStyle
  2
STANDARD
 70
     0
  3

 62
     0
 51
90.0
 52
90.0
 71
     2
 49
0.5
 62
   256
  6
BYLAYER
 49
-0.5
 62
   256
  6
BYLAYER
  0
ENDSEC
  0
EOF
