  0
SECTION
  2
HEADER
  9
$ACADVER
  1
AC1014
  9
$ACADMAINTVER
 70
     9
  9
$DWGCODEPAGE
  3
ANSI_1252
  9
$INSBASE
 10
0.0
 20
0.0
 30
0.0
  9
$EXTMIN
 10
0.0014129395690645
 20
0.0014238896479384
 30
0.0
  9
$EXTMAX
 10
15.00246320912263
 20
19.87901189813931
 30
0.0
  9
$LIMMIN
 10
0.0
 20
0.0
  9
$LIMMAX
 10
12.0
 20
9.0
  9
$ORTHOMODE
 70
     0
  9
$REGENMODE
 70
     1
  9
$FILLMODE
 70
     1
  9
$QTEXTMODE
 70
     0
  9
$MIRRTEXT
 70
     0
  9
$DRAGMODE
 70
     2
  9
$LTSCALE
 40
1.5
  9
$OSMODE
 70
    37
  9
$ATTMODE
 70
     1
  9
$TEXTSIZE
 40
0.3125
  9
$TRACEWID
 40
0.05
  9
$TEXTSTYLE
  7
STANDARD
  9
$CLAYER
  8
0
  9
$CELTYPE
  6
BYLAYER
  9
$CECOLOR
 62
   256
  9
$CELTSCALE
 40
1.0
  9
$DELOBJ
 70
     1
  9
$DISPSILH
 70
     1
  9
$DIMSCALE
 40
6.0
  9
$DIMASZ
 40
0.125
  9
$DIMEXO
 40
0.0625
  9
$DIMDLI
 40
0.37890625
  9
$DIMRND
 40
0.0
  9
$DIMDLE
 40
0.0
  9
$DIMEXE
 40
0.09375
  9
$DIMTP
 40
0.0
  9
$DIMTM
 40
0.0
  9
$DIMTXT
 40
0.109375
  9
$DIMCEN
 40
0.0
  9
$DIMTSZ
 40
0.0
  9
$DIMTOL
 70
     0
  9
$DIMLIM
 70
     0
  9
$DIMTIH
 70
     1
  9
$DIMTOH
 70
     1
  9
$DIMSE1
 70
     0
  9
$DIMSE2
 70
     0
  9
$DIMTAD
 70
     0
  9
$DIMZIN
 70
     8
  9
$DIMBLK
  1

  9
$DIMASO
 70
     1
  9
$DIMSHO
 70
     1
  9
$DIMPOST
  1

  9
$DIMAPOST
  1

  9
$DIMALT
 70
     0
  9
$DIMALTD
 70
     2
  9
$DIMALTF
 40
25.4
  9
$DIMLFAC
 40
1.0
  9
$DIMTOFL
 70
     0
  9
$DIMTVP
 40
0.0
  9
$DIMTIX
 70
     0
  9
$DIMSOXD
 70
     0
  9
$DIMSAH
 70
     0
  9
$DIMBLK1
  1

  9
$DIMBLK2
  1

  9
$DIMSTYLE
  2
STANDARD
  9
$DIMCLRD
 70
     0
  9
$DIMCLRE
 70
     0
  9
$DIMCLRT
 70
   256
  9
$DIMTFAC
 40
1.0
  9
$DIMGAP
 40
0.08984375
  9
$DIMJUST
 70
     0
  9
$DIMSD1
 70
     0
  9
$DIMSD2
 70
     0
  9
$DIMTOLJ
 70
     1
  9
$DIMTZIN
 70
     0
  9
$DIMALTZ
 70
     0
  9
$DIMALTTZ
 70
     0
  9
$DIMFIT
 70
     3
  9
$DIMUPT
 70
     1
  9
$DIMUNIT
 70
     7
  9
$DIMDEC
 70
     4
  9
$DIMTDEC
 70
     4
  9
$DIMALTU
 70
     2
  9
$DIMALTTD
 70
     2
  9
$DIMTXSTY
  7
STANDARD
  9
$DIMAUNIT
 70
     0
  9
$LUNITS
 70
     5
  9
$LUPREC
 70
     6
  9
$SKETCHINC
 40
0.1
  9
$FILLETRAD
 40
0.0
  9
$AUNITS
 70
     0
  9
$AUPREC
 70
     1
  9
$MENU
  1
CUSTOM
  9
$ELEVATION
 40
0.0
  9
$PELEVATION
 40
0.0
  9
$THICKNESS
 40
0.0
  9
$LIMCHECK
 70
     0
  9
$BLIPMODE
 70
     0
  9
$CHAMFERA
 40
0.0
  9
$CHAMFERB
 40
0.0
  9
$CHAMFERC
 40
0.0
  9
$CHAMFERD
 40
0.0
  9
$SKPOLY
 70
     0
  9
$TDCREATE
 40
2451263.663231366
  9
$TDUPDATE
 40
2452759.744607198
  9
$TDINDWG
 40
0.1236536111
  9
$TDUSRTIMER
 40
0.1236536111
  9
$USRTIMER
 70
     1
  9
$ANGBASE
 50
0.0
  9
$ANGDIR
 70
     0
  9
$PDMODE
 70
     0
  9
$PDSIZE
 40
0.0
  9
$PLINEWID
 40
0.0
  9
$COORDS
 70
     1
  9
$SPLFRAME
 70
     0
  9
$SPLINETYPE
 70
     6
  9
$SPLINESEGS
 70
     8
  9
$ATTDIA
 70
     0
  9
$ATTREQ
 70
     1
  9
$HANDLING
 70
     1
  9
$HANDSEED
  5
E0
  9
$SURFTAB1
 70
     6
  9
$SURFTAB2
 70
     6
  9
$SURFTYPE
 70
     6
  9
$SURFU
 70
     6
  9
$SURFV
 70
     6
  9
$UCSNAME
  2

  9
$UCSORG
 10
0.0
 20
0.0
 30
0.0
  9
$UCSXDIR
 10
1.0
 20
0.0
 30
0.0
  9
$UCSYDIR
 10
0.0
 20
1.0
 30
0.0
  9
$PUCSNAME
  2

  9
$PUCSORG
 10
0.0
 20
0.0
 30
0.0
  9
$PUCSXDIR
 10
1.0
 20
0.0
 30
0.0
  9
$PUCSYDIR
 10
0.0
 20
1.0
 30
0.0
  9
$USERI1
 70
     0
  9
$USERI2
 70
     0
  9
$USERI3
 70
     0
  9
$USERI4
 70
     0
  9
$USERI5
 70
     0
  9
$USERR1
 40
0.0
  9
$USERR2
 40
0.0
  9
$USERR3
 40
0.0
  9
$USERR4
 40
0.0
  9
$USERR5
 40
0.0
  9
$WORLDVIEW
 70
     1
  9
$SHADEDGE
 70
     3
  9
$SHADEDIF
 70
    70
  9
$TILEMODE
 70
     1
  9
$MAXACTVP
 70
    16
  9
$PINSBASE
 10
0.0
 20
0.0
 30
0.0
  9
$PLIMCHECK
 70
     0
  9
$PEXTMIN
 10
1.052083323321005
 20
0.7937500251559762
 30
0.0
  9
$PEXTMAX
 10
9.468749909889039
 20
7.143750226403783
 30
0.0
  9
$PLIMMIN
 10
-0.2145830289585384
 20
-0.2812499887361301
  9
$PLIMMAX
 10
10.78541673074557
 20
8.218749770967978
  9
$UNITMODE
 70
     0
  9
$VISRETAIN
 70
     0
  9
$PLINEGEN
 70
     0
  9
$PSLTSCALE
 70
     0
  9
$TREEDEPTH
 70
  3020
  9
$PICKSTYLE
 70
     1
  9
$CMLSTYLE
  2
STANDARD
  9
$CMLJUST
 70
     0
  9
$CMLSCALE
 40
1.0
  9
$PROXYGRAPHICS
 70
     1
  9
$MEASUREMENT
 70
     0
  0
ENDSEC
  0
SECTION
  2
CLASSES
  0
CLASS
  1
ACDBDICTIONARYWDFLT
  2
AcDbDictionaryWithDefault
  3
AutoCAD 2000
 90
        0
280
     0
281
     0
  0
CLASS
  1
ACDBPLACEHOLDER
  2
AcDbPlaceHolder
  3
AutoCAD 2000
 90
        0
280
     0
281
     0
  0
CLASS
  1
LAYOUT
  2
AcDbLayout
  3
AutoCAD 2000
 90
        0
280
     0
281
     0
  0
CLASS
  1
DICTIONARYVAR
  2
AcDbDictionaryVar
  3
"AutoCAD"
 90
        0
280
     0
281
     0
  0
CLASS
  1
LONG_TRANSACTION
  2
AcDbLongTransaction
  3
AutoCAD 2000
 90
        0
280
     0
281
     0
  0
CLASS
  1
LWPOLYLINE
  2
AcDbPolyline
  3
"AutoCAD"
 90
        0
280
     0
281
     1
  0
CLASS
  1
HATCH
  2
AcDbHatch
  3
"ACAD_SEDONA"
 90
        0
280
     0
281
     1
  0
CLASS
  1
XRECORD
  2
AcDbXrecord
  3
"<Built In>"
 90
        0
280
     0
281
     0
  0
CLASS
  1
LONG_TRANSACTION
  2
AcDbLongTransaction
  3
AutoCAD 2000
 90
        0
280
     0
281
     0
  0
CLASS
  1
LWPOLYLINE
  2
AcDbPolyline
  3
"AutoCAD"
 90
        0
280
     0
281
     1
  0
CLASS
  1
HATCH
  2
AcDbHatch
  3
"ACAD_SEDONA"
 90
        0
280
     0
281
     1
  0
CLASS
  1
XRECORD
  2
AcDbXrecord
  3
"<Built In>"
 90
        0
280
     0
281
     0
  0
ENDSEC
  0
SECTION
  2
TABLES
  0
TABLE
  2
VPORT
  5
C2
100
AcDbSymbolTable
 70
     1
  0
VPORT
  5
DC
100
AcDbSymbolTableRecord
100
AcDbViewportTableRecord
  2
*ACTIVE
 70
     0
 10
0.0
 20
0.0
 11
1.0
 21
1.0
 12
-15.59399782481659
 22
20.45549247594043
 13
0.0
 23
0.0
 14
1.0
 24
1.0
 15
0.0
 25
0.0
 16
0.0
 26
0.0
 36
1.0
 17
23.09603071721725
 27
-10.27010416511325
 37
-10.44050274849355
 40
20.51477054403622
 41
1.457627118644067
 42
50.0
 43
10.55307667737539
 44
10.55307667737539
 50
0.0
 51
0.0
 71
     0
 72
   100
 73
     1
 74
     1
 75
     0
 76
     0
 77
     0
 78
     0
  0
ENDTAB
  0
TABLE
  2
LTYPE
  5
BD
100
AcDbSymbolTable
 70
     2
  0
LTYPE
  5
BE
100
AcDbSymbolTableRecord
100
AcDbLinetypeTableRecord
  2
BYBLOCK
 70
     0
  3

 72
    65
 73
     0
 40
0.0
  0
LTYPE
  5
BF
100
AcDbSymbolTableRecord
100
AcDbLinetypeTableRecord
  2
BYLAYER
 70
     0
  3

 72
    65
 73
     0
 40
0.0
  0
LTYPE
  5
5
100
AcDbSymbolTableRecord
100
AcDbLinetypeTableRecord
  2
CONTINUOUS
 70
     0
  3
Solid line
 72
    65
 73
     0
 40
0.0
  0
LTYPE
  5
8A
100
AcDbSymbolTableRecord
100
AcDbLinetypeTableRecord
  2
HIDDEN
 70
     0
  3
Hidden __ __ __ __ __ __ __ __ __ __ __ __ __ _
 72
    65
 73
     2
 40
0.375
 49
0.25
 74
     0
 49
-0.125
 74
     0
  0
ENDTAB
  0
TABLE
  2
LAYER
  5
BB
100
AcDbSymbolTable
 70
     4
  0
LAYER
  5
4F
100
AcDbSymbolTableRecord
100
AcDbLayerTableRecord
  2
0
 70
     0
 62
     7
  6
CONTINUOUS
  0
LAYER
  5
8
100
AcDbSymbolTableRecord
100
AcDbLayerTableRecord
  2
USP-GEO
 70
     0
 62
     7
  6
CONTINUOUS
  0
LAYER
  5
89
100
AcDbSymbolTableRecord
100
AcDbLayerTableRecord
  2
USP-HID
 70
     0
 62
     7
  6
HIDDEN
  0
LAYER
  5
4
100
AcDbSymbolTableRecord
100
AcDbLayerTableRecord
  2
USP
 70
     0
 62
     7
  6
CONTINUOUS
  0
ENDTAB
  0
TABLE
  2
STYLE
  5
BC
100
AcDbSymbolTable
 70
     1
  0
STYLE
  5
F
100
AcDbSymbolTableRecord
100
AcDbTextStyleTableRecord
  2
STANDARD
 70
     0
 40
0.0
 41
1.0
 50
0.0
 71
     0
 42
0.3125
  3
txt
  4

  0
ENDTAB
  0
TABLE
  2
VIEW
  5
C0
100
AcDbSymbolTable
 70
     0
  0
ENDTAB
  0
TABLE
  2
UCS
  5
C1
100
AcDbSymbolTable
 70
     0
  0
ENDTAB
  0
TABLE
  2
APPID
  5
C4
100
AcDbSymbolTable
 70
     1
  0
APPID
  5
B6
100
AcDbSymbolTableRecord
100
AcDbRegAppTableRecord
  2
ACAD
 70
     0
  0
ENDTAB
  0
TABLE
  2
DIMSTYLE
  5
C5
100
AcDbSymbolTable
 70
     1
  0
DIMSTYLE
105
CD
100
AcDbSymbolTableRecord
100
AcDbDimStyleTableRecord
  2
STANDARD
 70
     0
  3

  4

  5

  6

  7

 40
1.0
 41
0.18
 42
0.0625
 43
0.38
 44
0.18
 45
0.0
 46
0.0
 47
0.0
 48
0.0
140
0.18
141
0.09
142
0.0
143
25.4
144
1.0
145
0.0
146
1.0
147
0.09
 71
     0
 72
     0
 73
     1
 74
     1
 75
     0
 76
     0
 77
     0
 78
     0
170
     0
171
     2
172
     0
173
     0
174
     0
175
     0
176
     0
177
     0
178
     0
270
     2
271
     4
272
     4
273
     2
274
     2
340
F
275
     0
280
     0
281
     0
282
     0
283
     1
284
     0
285
     0
286
     0
287
     3
288
     0
  0
ENDTAB
  0
TABLE
  2
BLOCK_RECORD
  5
1
100
AcDbSymbolTable
 70
     3
  0
BLOCK_RECORD
  5
2
102
{ACAD_XDICTIONARY
360
AD
102
}
100
AcDbSymbolTableRecord
100
AcDbBlockTableRecord
  2
*MODEL_SPACE
  0
BLOCK_RECORD
  5
B1
102
{ACAD_XDICTIONARY
360
B7
102
}
100
AcDbSymbolTableRecord
100
AcDbBlockTableRecord
  2
*PAPER_SPACE
  0
BLOCK_RECORD
  5
6
100
AcDbSymbolTableRecord
100
AcDbBlockTableRecord
  2
HD212-2_F
  0
BLOCK_RECORD
  5
52
100
AcDbSymbolTableRecord
100
AcDbBlockTableRecord
  2
HD212-2_T
  0
BLOCK_RECORD
  5
82
100
AcDbSymbolTableRecord
100
AcDbBlockTableRecord
  2
HD212-2_S
  0
ENDTAB
  0
ENDSEC
  0
SECTION
  2
BLOCKS
  0
BLOCK
  5
AF
100
AcDbEntity
  8
0
100
AcDbBlockBegin
  2
*MODEL_SPACE
 70
     0
 10
0.0
 20
0.0
 30
0.0
  3
*MODEL_SPACE
  1

  0
ENDBLK
  5
B0
100
AcDbEntity
  8
0
100
AcDbBlockEnd
  0
BLOCK
  5
B9
100
AcDbEntity
 67
     1
  8
0
100
AcDbBlockBegin
  2
*PAPER_SPACE
 70
     0
 10
0.0
 20
0.0
 30
0.0
  3
*PAPER_SPACE
  1

  0
ENDBLK
  5
BA
100
AcDbEntity
 67
     1
  8
0
100
AcDbBlockEnd
  0
BLOCK
  5
4E
100
AcDbEntity
  8
0
100
AcDbBlockBegin
  2
HD212-2_F
 70
     0
 10
0.0
 20
0.0
 30
0.0
  3
HD212-2_F
  1

  0
LINE
  5
7
100
AcDbEntity
  8
USP-GEO
100
AcDbLine
 10
1.124999999999976
 20
11.07469999999999
 30
0.0
 11
1.124999999999965
 21
3.93469194900526
 31
0.0
  0
LINE
  5
9
100
AcDbEntity
  8
USP-GEO
100
AcDbLine
 10
4.399399999999966
 20
3.934691949005257
 30
0.0
 11
4.399399999999976
 21
11.07469999999994
 31
0.0
  0
LINE
  5
A
100
AcDbEntity
  8
USP-GEO
100
AcDbLine
 10
1.199699999999966
 20
3.934691949005259
 30
0.0
 11
1.199699999999977
 21
11.07469999999999
 31
0.0
  0
LINE
  5
B
100
AcDbEntity
  8
USP-GEO
100
AcDbLine
 10
4.324699999999965
 20
3.93469194900526
 30
0.0
 11
4.324699999999976
 21
11.07469999999993
 31
0.0
  0
LINE
  5
C
100
AcDbEntity
  8
USP-GEO
100
AcDbLine
 10
5.524399999999994
 20
11.07469999999997
 30
0.0
 11
5.524399999999957
 21
3.895963277456754
 31
0.0
  0
LINE
  5
D
100
AcDbEntity
  8
USP-GEO
100
AcDbLine
 10
0.0
 20
3.89596327745681
 30
0.0
 11
-0.000000000000016
 21
11.07470000000003
 31
0.0
  0
TEXT
  5
E
100
AcDbEntity
  8
USP
100
AcDbText
 10
-0.5080103667561438
 20
-1.71678883765213
 30
0.0
 40
0.33203125
  1
HD212-2 - FRONT VIEW
 72
     1
 11
2.756963591577189
 21
-1.71678883765213
 31
0.0
100
AcDbText
  0
LINE
  5
10
100
AcDbEntity
  8
USP-GEO
100
AcDbLine
 10
4.13719999999998
 20
0.0746999999999958
 30
0.0
 11
1.387199999999954
 21
0.0746999999999996
 31
0.0
  0
LINE
  5
11
100
AcDbEntity
  8
USP-GEO
100
AcDbLine
 10
1.387199999999954
 20
-0.0000000000000009
 30
0.0
 11
4.137199999999981
 21
-0.0000000000000049
 31
0.0
  0
ARC
  5
12
100
AcDbEntity
  8
USP-GEO
100
AcDbCircle
 10
-1.187473256841258
 20
0.5191984085207332
 30
0.0
 40
2.5
100
AcDbArc
 50
22.33325800947764
 51
42.48156664607299
  0
LINE
  5
13
100
AcDbEntity
  8
USP-GEO
100
AcDbLine
 10
1.12499999999996
 20
2.207580842988789
 30
0.0
 11
1.124999999999954
 21
0.5191984085206454
 31
0.0
  0
LINE
  5
14
100
AcDbEntity
  8
USP-GEO
100
AcDbLine
 10
1.19969999999996
 20
2.207580842988788
 30
0.0
 11
1.199699999999954
 21
0.5191984085206436
 31
0.0
  0
LINE
  5
15
100
AcDbEntity
  8
USP-GEO
100
AcDbLine
 10
1.199699999999953
 20
0.3872000000000295
 30
0.0
 11
1.199699999999953
 21
0.5191984085206438
 31
0.0
  0
LINE
  5
16
100
AcDbEntity
  8
USP-GEO
100
AcDbLine
 10
1.124999999999953
 20
0.5191984085206455
 30
0.0
 11
1.124999999999953
 21
0.3872000000000296
 31
0.0
  0
LINE
  5
17
100
AcDbEntity
  8
USP-GEO
100
AcDbLine
 10
1.387199999999954
 20
0.0747000000000001
 30
0.0
 11
1.199699999999954
 21
0.0747000000000004
 31
0.0
  0
LINE
  5
18
100
AcDbEntity
  8
USP-GEO
100
AcDbLine
 10
1.387199999999954
 20
-0.0000000000000004
 30
0.0
 11
1.124999999999953
 21
0.0
 31
0.0
  0
LINE
  5
19
100
AcDbEntity
  8
USP-GEO
100
AcDbLine
 10
1.124999999999953
 20
0.3872000000000582
 30
0.0
 11
1.124999999999952
 21
0.0000000000000001
 31
0.0
  0
LINE
  5
1A
100
AcDbEntity
  8
USP-GEO
100
AcDbLine
 10
1.199699999999954
 20
0.3872000000000566
 30
0.0
 11
1.199699999999954
 21
0.0746999999999996
 31
0.0
  0
LINE
  5
1B
100
AcDbEntity
  8
USP-GEO
100
AcDbLine
 10
1.199699999999953
 20
0.3872000000000295
 30
0.0
 11
1.124999999999952
 21
0.3872000000000296
 31
0.0
  0
LINE
  5
1C
100
AcDbEntity
  8
USP-GEO
100
AcDbLine
 10
1.387199999999954
 20
0.0747000000000011
 30
0.0
 11
1.387199999999954
 21
0.0000000000000004
 31
0.0
  0
LINE
  5
1D
100
AcDbEntity
  8
USP-GEO
100
AcDbLine
 10
1.199699999999952
 20
0.5191984085206438
 30
0.0
 11
1.124999999999952
 21
0.5191984085206438
 31
0.0
  0
ARC
  5
1E
100
AcDbEntity
  8
USP-GEO
100
AcDbCircle
 10
2.499999999999943
 20
3.895963277456806
 30
0.0
 40
2.5
100
AcDbArc
 50
179.9999999999998
 51
222.4815666460717
  0
CIRCLE
  5
1F
100
AcDbEntity
  8
USP-GEO
100
AcDbCircle
 10
0.7499999999999134
 20
2.589534965323787
 30
0.0
 40
0.086
  0
CIRCLE
  5
20
100
AcDbEntity
  8
USP-GEO
100
AcDbCircle
 10
0.5624999999999141
 20
3.1997
 30
0.0
 40
0.086
  0
CIRCLE
  5
21
100
AcDbEntity
  8
USP-GEO
100
AcDbCircle
 10
0.3749999999999147
 20
3.824700000000031
 30
0.0
 40
0.086
  0
CIRCLE
  5
22
100
AcDbEntity
  8
USP-GEO
100
AcDbCircle
 10
0.7499999999999167
 20
4.824700000000029
 30
0.0
 40
0.086
  0
LINE
  5
23
100
AcDbEntity
  8
USP-GEO
100
AcDbLine
 10
1.124999999999965
 20
3.934691949005259
 30
0.0
 11
1.124999999999958
 21
2.207580842988786
 31
0.0
  0
LINE
  5
24
100
AcDbEntity
  8
USP-GEO
100
AcDbLine
 10
1.19969999999996
 20
2.207580842988786
 30
0.0
 11
1.199699999999966
 21
3.934691949005259
 31
0.0
  0
LINE
  5
25
100
AcDbEntity
  8
USP-GEO
100
AcDbLine
 10
1.19969999999996
 20
2.207580842988789
 30
0.0
 11
1.124999999999959
 21
2.207580842988789
 31
0.0
  0
ARC
  5
26
100
AcDbEntity
  8
USP-GEO
100
AcDbCircle
 10
1.124999999999973
 20
4.311260080790498
 30
0.0
 40
0.095
100
AcDbArc
 50
90.00000000000049
 51
270.0000000000254
  0
LINE
  5
27
100
AcDbEntity
  8
USP-GEO
100
AcDbLine
 10
1.199699999999966
 20
3.934691949005259
 30
0.0
 11
1.124999999999965
 21
3.934691949005259
 31
0.0
  0
CIRCLE
  5
28
100
AcDbEntity
  8
USP-GEO
100
AcDbCircle
 10
0.5624999999999181
 20
5.82470000000003
 30
0.0
 40
0.086
  0
CIRCLE
  5
29
100
AcDbEntity
  8
USP-GEO
100
AcDbCircle
 10
0.3749999999999181
 20
6.824700000000029
 30
0.0
 40
0.086
  0
CIRCLE
  5
2A
100
AcDbEntity
  8
USP-GEO
100
AcDbCircle
 10
0.7499999999999217
 20
7.824700000000029
 30
0.0
 40
0.086
  0
LINE
  5
2B
100
AcDbEntity
  8
USP-GEO
100
AcDbLine
 10
4.399399999999955
 20
0.519198408520642
 30
0.0
 11
4.399399999999961
 21
2.207580842988785
 31
0.0
  0
LINE
  5
2C
100
AcDbEntity
  8
USP-GEO
100
AcDbLine
 10
4.324699999999952
 20
0.5191984085206441
 30
0.0
 11
4.324699999999959
 21
2.207580842988788
 31
0.0
  0
ARC
  5
2D
100
AcDbEntity
  8
USP-GEO
100
AcDbCircle
 10
6.711873256841211
 20
0.5191984085207321
 30
0.0
 40
2.5
100
AcDbArc
 50
137.5184333539281
 51
157.66674199049
  0
LINE
  5
2E
100
AcDbEntity
  8
USP-GEO
100
AcDbLine
 10
4.399399999999952
 20
0.3872000000000268
 30
0.0
 11
4.399399999999952
 21
0.5191984085206422
 31
0.0
  0
LINE
  5
2F
100
AcDbEntity
  8
USP-GEO
100
AcDbLine
 10
4.324699999999952
 20
0.3872000000000286
 30
0.0
 11
4.324699999999952
 21
0.5191984085206439
 31
0.0
  0
LINE
  5
30
100
AcDbEntity
  8
USP-GEO
100
AcDbLine
 10
4.324699999999953
 20
0.3872000000000286
 30
0.0
 11
4.399399999999954
 21
0.3872000000000284
 31
0.0
  0
LINE
  5
31
100
AcDbEntity
  8
USP-GEO
100
AcDbLine
 10
4.137199999999983
 20
-0.0000000000000043
 30
0.0
 11
4.399399999999952
 21
-0.0000000000000046
 31
0.0
  0
LINE
  5
32
100
AcDbEntity
  8
USP-GEO
100
AcDbLine
 10
4.324699999999952
 20
0.0746999999999957
 30
0.0
 11
4.324699999999953
 21
0.3872000000000569
 31
0.0
  0
LINE
  5
33
100
AcDbEntity
  8
USP-GEO
100
AcDbLine
 10
4.137199999999983
 20
0.0746999999999964
 30
0.0
 11
4.324699999999953
 21
0.0746999999999961
 31
0.0
  0
LINE
  5
34
100
AcDbEntity
  8
USP-GEO
100
AcDbLine
 10
4.13719999999998
 20
0.0746999999999979
 30
0.0
 11
4.13719999999998
 21
-0.0000000000000028
 31
0.0
  0
LINE
  5
35
100
AcDbEntity
  8
USP-GEO
100
AcDbLine
 10
4.399399999999952
 20
-0.0000000000000045
 30
0.0
 11
4.399399999999953
 21
0.387200000000055
 31
0.0
  0
LINE
  5
36
100
AcDbEntity
  8
USP-GEO
100
AcDbLine
 10
4.324699999999952
 20
0.5191984085206439
 30
0.0
 11
4.399399999999952
 21
0.5191984085206438
 31
0.0
  0
LINE
  5
37
100
AcDbEntity
  8
USP-GEO
100
AcDbLine
 10
4.399399999999958
 20
2.207580842988781
 30
0.0
 11
4.399399999999965
 21
3.934691949005257
 31
0.0
  0
LINE
  5
38
100
AcDbEntity
  8
USP-GEO
100
AcDbLine
 10
4.324699999999967
 20
3.93469194900526
 30
0.0
 11
4.32469999999996
 21
2.207580842988784
 31
0.0
  0
LINE
  5
39
100
AcDbEntity
  8
USP-GEO
100
AcDbLine
 10
4.324699999999959
 20
2.207580842988786
 30
0.0
 11
4.39939999999996
 21
2.207580842988786
 31
0.0
  0
LINE
  5
3A
100
AcDbEntity
  8
USP-GEO
100
AcDbLine
 10
4.324699999999965
 20
3.93469194900526
 30
0.0
 11
4.399399999999966
 21
3.93469194900526
 31
0.0
  0
ARC
  5
3B
100
AcDbEntity
  8
USP-GEO
100
AcDbCircle
 10
4.399399999999987
 20
4.142330897144288
 30
0.0
 40
0.095
100
AcDbArc
 50
269.9999999999903
 51
90.00000000000053
  0
ARC
  5
3C
100
AcDbEntity
  8
USP-GEO
100
AcDbCircle
 10
3.024400000000014
 20
3.895963277456816
 30
0.0
 40
2.5
100
AcDbArc
 50
317.5184333539269
 51
359.9999999999985
  0
CIRCLE
  5
3D
100
AcDbEntity
  8
USP-GEO
100
AcDbCircle
 10
4.77440000000004
 20
2.4953532080697
 30
0.0
 40
0.086
  0
CIRCLE
  5
3E
100
AcDbEntity
  8
USP-GEO
100
AcDbCircle
 10
4.961900000000043
 20
3.053195044271429
 30
0.0
 40
0.086
  0
CIRCLE
  5
3F
100
AcDbEntity
  8
USP-GEO
100
AcDbCircle
 10
5.149400000000042
 20
3.824699999999975
 30
0.0
 40
0.086
  0
CIRCLE
  5
40
100
AcDbEntity
  8
USP-GEO
100
AcDbCircle
 10
4.774400000000045
 20
4.699699999999975
 30
0.0
 40
0.086
  0
CIRCLE
  5
41
100
AcDbEntity
  8
USP-GEO
100
AcDbCircle
 10
5.149400000000047
 20
6.699699999999976
 30
0.0
 40
0.086
  0
CIRCLE
  5
42
100
AcDbEntity
  8
USP-GEO
100
AcDbCircle
 10
4.961900000000047
 20
5.699699999999976
 30
0.0
 40
0.086
  0
CIRCLE
  5
43
100
AcDbEntity
  8
USP-GEO
100
AcDbCircle
 10
4.774400000000049
 20
7.699699999999977
 30
0.0
 40
0.086
  0
LINE
  5
44
100
AcDbEntity
  8
USP-GEO
100
AcDbLine
 10
-0.000000000000014
 20
11.07470000000003
 30
0.0
 11
1.124999999999987
 21
11.07470000000001
 31
0.0
  0
CIRCLE
  5
45
100
AcDbEntity
  8
USP-GEO
100
AcDbCircle
 10
0.3749999999999234
 20
9.824700000000031
 30
0.0
 40
0.086
  0
CIRCLE
  5
46
100
AcDbEntity
  8
USP-GEO
100
AcDbCircle
 10
0.5624999999999221
 20
8.82470000000003
 30
0.0
 40
0.086
  0
CIRCLE
  5
47
100
AcDbEntity
  8
USP-GEO
100
AcDbCircle
 10
0.7499999999999261
 20
10.82470000000003
 30
0.0
 40
0.086
  0
LINE
  5
48
100
AcDbEntity
  8
USP-GEO
100
AcDbLine
 10
1.199699999999981
 20
11.07469999999999
 30
0.0
 11
1.12499999999998
 21
11.07469999999999
 31
0.0
  0
LINE
  5
49
100
AcDbEntity
  8
USP-GEO
100
AcDbLine
 10
4.399399999999989
 20
11.07469999999996
 30
0.0
 11
5.524399999999981
 21
11.07469999999997
 31
0.0
  0
LINE
  5
4A
100
AcDbEntity
  8
USP-GEO
100
AcDbLine
 10
4.324699999999979
 20
11.07469999999993
 30
0.0
 11
4.399399999999978
 21
11.07469999999993
 31
0.0
  0
CIRCLE
  5
4B
100
AcDbEntity
  8
USP-GEO
100
AcDbCircle
 10
4.961900000000051
 20
8.699699999999978
 30
0.0
 40
0.086
  0
CIRCLE
  5
4C
100
AcDbEntity
  8
USP-GEO
100
AcDbCircle
 10
5.149400000000053
 20
9.699699999999976
 30
0.0
 40
0.086
  0
CIRCLE
  5
4D
100
AcDbEntity
  8
USP-GEO
100
AcDbCircle
 10
4.774400000000055
 20
10.69969999999997
 30
0.0
 40
0.086
  0
ENDBLK
  5
50
100
AcDbEntity
  8
0
100
AcDbBlockEnd
  0
BLOCK
  5
7F
100
AcDbEntity
  8
0
100
AcDbBlockBegin
  2
HD212-2_T
 70
     0
 10
0.0
 20
0.0
 30
0.0
  3
HD212-2_T
  1

  0
TEXT
  5
53
100
AcDbEntity
  8
USP
100
AcDbText
 10
-0.1759791167561291
 20
-2.046108566994508
 30
0.0
 40
0.33203125
  1
HD212-2 - TOP VIEW
 72
     1
 11
2.756963591577203
 21
-2.046108566994508
 31
0.0
100
AcDbText
  0
LINE
  5
54
100
AcDbEntity
  8
USP-GEO
100
AcDbLine
 10
2.262199999999945
 20
0.1727207793864647
 30
0.0
 11
2.134920779386331
 21
0.3000000000000522
 31
0.0
  0
LINE
  5
55
100
AcDbEntity
  8
USP-GEO
100
AcDbLine
 10
2.13492077938633
 20
0.3000000000000504
 30
0.0
 11
2.262199999999947
 21
0.4272792206136078
 31
0.0
  0
LINE
  5
56
100
AcDbEntity
  8
USP-GEO
100
AcDbLine
 10
1.387199999999959
 20
2.499973256841174
 30
0.0
 11
4.137200000000045
 21
2.499973256841245
 31
0.0
  0
LINE
  5
57
100
AcDbEntity
  8
USP-GEO
100
AcDbLine
 10
4.137200000000001
 20
0.0000000000000711
 30
0.0
 11
1.387199999999974
 21
0.0
 31
0.0
  0
LINE
  5
58
100
AcDbEntity
  8
USP-GEO
100
AcDbLine
 10
1.125000000000003
 20
2.687500000000044
 30
0.0
 11
1.124999999999995
 21
1.312226743158875
 31
0.0
  0
LINE
  5
59
100
AcDbEntity
  8
USP-GEO
100
AcDbLine
 10
1.199700000000004
 20
2.76220000000004
 30
0.0
 11
1.199699999999996
 21
1.312226743158875
 31
0.0
  0
LINE
  5
5A
100
AcDbEntity
  8
USP-GEO
100
AcDbLine
 10
1.124999999999979
 20
0.6562633715794544
 30
0.0
 11
1.124999999999974
 21
0.0000000000000409
 31
0.0
  0
LINE
  5
5B
100
AcDbEntity
  8
USP-GEO
100
AcDbLine
 10
1.199699999999979
 20
0.6562633715794544
 30
0.0
 11
1.199699999999974
 21
0.0000000000000409
 31
0.0
  0
LINE
  5
5C
100
AcDbEntity
  8
USP-GEO
100
AcDbLine
 10
1.387199999999974
 20
0.0625
 30
0.0
 11
1.199699999999974
 21
0.0624999999999947
 31
0.0
  0
LINE
  5
5D
100
AcDbEntity
  8
USP-GEO
100
AcDbLine
 10
1.199699999999973
 20
-0.0000000000000178
 30
0.0
 11
1.124999999999973
 21
-0.0000000000000178
 31
0.0
  0
LINE
  5
5E
100
AcDbEntity
  8
USP-GEO
100
AcDbLine
 10
1.387199999999974
 20
0.0624999999999982
 30
0.0
 11
1.387199999999945
 21
-0.0000000000000018
 31
0.0
  0
LINE
  5
5F
100
AcDbEntity
  8
USP-GEO
100
AcDbLine
 10
1.124999999999982
 20
1.312226743158865
 30
0.0
 11
1.124999999999977
 21
0.6562633715794615
 31
0.0
  0
LINE
  5
60
100
AcDbEntity
  8
USP-GEO
100
AcDbLine
 10
1.199699999999979
 20
0.6562633715794579
 30
0.0
 11
1.199699999999984
 21
1.312226743158865
 31
0.0
  0
LINE
  5
61
100
AcDbEntity
  8
USP-GEO
100
AcDbLine
 10
1.199699999999979
 20
0.6562633715794544
 30
0.0
 11
1.124999999999978
 21
0.6562633715794544
 31
0.0
  0
LINE
  5
62
100
AcDbEntity
  8
USP-GEO
100
AcDbLine
 10
1.199699999999995
 20
1.312226743158875
 30
0.0
 11
1.124999999999994
 21
1.312226743158875
 31
0.0
  0
LINE
  5
63
100
AcDbEntity
  8
USP-GEO
100
AcDbLine
 10
1.199700000000004
 20
2.76220000000004
 30
0.0
 11
-0.0000000000000002
 21
2.762200000000047
 31
0.0
  0
LINE
  5
64
100
AcDbEntity
  8
USP-GEO
100
AcDbLine
 10
-0.0000000000000002
 20
2.687500000000047
 30
0.0
 11
1.125000000000001
 21
2.68750000000004
 31
0.0
  0
LINE
  5
65
100
AcDbEntity
  8
USP-GEO
100
AcDbLine
 10
-0.0000000000000002
 20
2.762200000000047
 30
0.0
 11
-0.0000000000000007
 21
2.687500000000047
 31
0.0
  0
LINE
  5
66
100
AcDbEntity
  8
USP-GEO
100
AcDbLine
 10
1.387199999999959
 20
2.43747325684126
 30
0.0
 11
1.199699999999985
 21
2.437473256841267
 31
0.0
  0
LINE
  5
67
100
AcDbEntity
  8
USP-GEO
100
AcDbLine
 10
1.387199999999987
 20
2.43747325684126
 30
0.0
 11
1.387199999999959
 21
2.499973256841245
 31
0.0
  0
LINE
  5
68
100
AcDbEntity
  8
USP-GEO
100
AcDbLine
 10
4.324700000000004
 20
2.762200000000023
 30
0.0
 11
5.524399999999994
 21
2.762200000000015
 31
0.0
  0
LINE
  5
69
100
AcDbEntity
  8
USP-GEO
100
AcDbLine
 10
4.399400000000003
 20
2.687500000000023
 30
0.0
 11
5.524399999999995
 21
2.687500000000015
 31
0.0
  0
LINE
  5
6A
100
AcDbEntity
  8
USP-GEO
100
AcDbLine
 10
4.399399999999993
 20
1.312226743158857
 30
0.0
 11
4.399400000000001
 21
2.687500000000023
 31
0.0
  0
LINE
  5
6B
100
AcDbEntity
  8
USP-GEO
100
AcDbLine
 10
4.324700000000004
 20
2.762200000000023
 30
0.0
 11
4.324699999999996
 21
1.312226743158857
 31
0.0
  0
LINE
  5
6C
100
AcDbEntity
  8
USP-GEO
100
AcDbLine
 10
2.389479220613505
 20
0.3000000000000469
 30
0.0
 11
2.262199999999946
 21
0.1727207793864611
 31
0.0
  0
LINE
  5
6D
100
AcDbEntity
  8
USP-GEO
100
AcDbLine
 10
2.262199999999945
 20
0.4272792206136096
 30
0.0
 11
2.389479220613506
 21
0.3000000000000469
 31
0.0
  0
LINE
  5
6E
100
AcDbEntity
  8
USP-GEO
100
AcDbLine
 10
3.262199999999945
 20
0.1727207793864558
 30
0.0
 11
3.134920779386328
 21
0.3000000000000451
 31
0.0
  0
LINE
  5
6F
100
AcDbEntity
  8
USP-GEO
100
AcDbLine
 10
3.13492077938633
 20
0.3000000000000451
 30
0.0
 11
3.262199999999947
 21
0.4272792206136025
 31
0.0
  0
LINE
  5
70
100
AcDbEntity
  8
USP-GEO
100
AcDbLine
 10
3.389479220613506
 20
0.3000000000000451
 30
0.0
 11
3.262199999999945
 21
0.1727207793864558
 31
0.0
  0
LINE
  5
71
100
AcDbEntity
  8
USP-GEO
100
AcDbLine
 10
3.262199999999948
 20
0.4272792206136025
 30
0.0
 11
3.389479220613504
 21
0.3000000000000433
 31
0.0
  0
CIRCLE
  5
72
100
AcDbEntity
  8
USP-GEO
100
AcDbCircle
 10
2.762199999999979
 20
0.9999866284206202
 30
0.0
 40
0.1535
  0
LINE
  5
73
100
AcDbEntity
  8
USP-GEO
100
AcDbLine
 10
4.399399999999975
 20
0.0000000000000195
 30
0.0
 11
4.399399999999981
 21
0.6562633715794331
 31
0.0
  0
LINE
  5
74
100
AcDbEntity
  8
USP-GEO
100
AcDbLine
 10
4.324699999999972
 20
0.0000000000000231
 30
0.0
 11
4.324699999999977
 21
0.6562633715794366
 31
0.0
  0
LINE
  5
75
100
AcDbEntity
  8
USP-GEO
100
AcDbLine
 10
4.324699999999973
 20
-0.0000000000000355
 30
0.0
 11
4.399399999999973
 21
-0.0000000000000355
 31
0.0
  0
LINE
  5
76
100
AcDbEntity
  8
USP-GEO
100
AcDbLine
 10
4.137200000000003
 20
0.0624999999999858
 30
0.0
 11
4.324699999999974
 21
0.0624999999999787
 31
0.0
  0
LINE
  5
77
100
AcDbEntity
  8
USP-GEO
100
AcDbLine
 10
4.137199999999973
 20
0.0624999999999858
 30
0.0
 11
4.1372
 21
-0.0000000000000018
 31
0.0
  0
LINE
  5
78
100
AcDbEntity
  8
USP-GEO
100
AcDbLine
 10
4.324699999999994
 20
1.312226743158857
 30
0.0
 11
4.399399999999992
 21
1.312226743158857
 31
0.0
  0
LINE
  5
79
100
AcDbEntity
  8
USP-GEO
100
AcDbLine
 10
4.324699999999977
 20
0.6562633715794366
 30
0.0
 11
4.399399999999979
 21
0.6562633715794366
 31
0.0
  0
LINE
  5
7A
100
AcDbEntity
  8
USP-GEO
100
AcDbLine
 10
4.324699999999984
 20
1.312226743158847
 30
0.0
 11
4.324699999999979
 21
0.6562633715794402
 31
0.0
  0
LINE
  5
7B
100
AcDbEntity
  8
USP-GEO
100
AcDbLine
 10
4.399399999999977
 20
0.6562633715794402
 30
0.0
 11
4.399399999999983
 21
1.312226743158847
 31
0.0
  0
LINE
  5
7C
100
AcDbEntity
  8
USP-GEO
100
AcDbLine
 10
4.137199999999988
 20
2.437473256841242
 30
0.0
 11
4.324699999999987
 21
2.437473256841245
 31
0.0
  0
LINE
  5
7D
100
AcDbEntity
  8
USP-GEO
100
AcDbLine
 10
4.137199999999988
 20
2.437473256841242
 30
0.0
 11
4.137200000000017
 21
2.499973256841245
 31
0.0
  0
LINE
  5
7E
100
AcDbEntity
  8
USP-GEO
100
AcDbLine
 10
5.524399999999994
 20
2.762200000000015
 30
0.0
 11
5.524399999999994
 21
2.687500000000015
 31
0.0
  0
ENDBLK
  5
80
100
AcDbEntity
  8
0
100
AcDbBlockEnd
  0
BLOCK
  5
AB
100
AcDbEntity
  8
0
100
AcDbBlockBegin
  2
HD212-2_S
 70
     0
 10
0.0
 20
0.0
 30
0.0
  3
HD212-2_S
  1

  0
LINE
  5
83
100
AcDbEntity
  8
USP-GEO
100
AcDbLine
 10
1.31222674315884
 20
3.93469194900526
 30
0.0
 11
1.312226743158854
 21
11.07469999999994
 31
0.0
  0
LINE
  5
84
100
AcDbEntity
  8
USP-GEO
100
AcDbLine
 10
2.762200000000012
 20
3.895963277456758
 30
0.0
 11
2.762200000000015
 21
11.07469999999997
 31
0.0
  0
LINE
  5
85
100
AcDbEntity
  8
USP-GEO
100
AcDbLine
 10
2.687500000000015
 20
11.07469999999997
 30
0.0
 11
2.687500000000012
 21
3.895963277456758
 31
0.0
  0
TEXT
  5
86
100
AcDbEntity
  8
USP
100
AcDbText
 10
-1.901786024455518
 20
-1.716788837652124
 30
0.0
 40
0.33203125
  1
HD212-2 - SIDE VIEW
 72
     1
 11
1.141833767211148
 21
-1.716788837652124
 31
0.0
100
AcDbText
  0
ARC
  5
87
100
AcDbEntity
  8
USP-GEO
100
AcDbCircle
 10
-1.187473256841176
 20
3.895963277456811
 30
0.0
 40
2.5
100
AcDbArc
 50
317.518433353928
 51
0.8876312758849048
  0
LINE
  5
88
100
AcDbEntity
  8
USP-HID
100
AcDbLine
 10
2.437473256841249
 20
0.0746999999999997
 30
0.0
 11
0.0624999999999805
 21
0.074700000000001
 31
0.0
  0
LINE
  5
8B
100
AcDbEntity
  8
USP-GEO
100
AcDbLine
 10
2.43747325684124
 20
0.0000000000000017
 30
0.0
 11
0.0624999999999769
 21
-0.0000000000000005
 31
0.0
  0
ARC
  5
8C
100
AcDbEntity
  8
USP-GEO
100
AcDbCircle
 10
2.500000000000023
 20
0.5191984085207309
 30
0.0
 40
2.5
100
AcDbArc
 50
137.518433353927
 51
180.0000000000019
  0
LINE
  5
8D
100
AcDbEntity
  8
USP-GEO
100
AcDbLine
 10
-0.0000000000000497
 20
0.3872000000000309
 30
0.0
 11
-0.0000000000000355
 21
0.5191984085206464
 31
0.0
  0
LINE
  5
8E
100
AcDbEntity
  8
USP-GEO
100
AcDbLine
 10
0.0624999999999769
 20
-0.0000000000000005
 30
0.0
 11
0.0624999999999663
 21
0.3872000000000591
 31
0.0
  0
LINE
  5
8F
100
AcDbEntity
  8
USP-GEO
100
AcDbLine
 10
0.0
 20
0.074700000000002
 30
0.0
 11
0.0
 21
0.0000000000000013
 31
0.0
  0
LINE
  5
90
100
AcDbEntity
  8
USP-GEO
100
AcDbLine
 10
0.0624999999999876
 20
0.0747000000000006
 30
0.0
 11
0.0
 21
0.0747000000000007
 31
0.0
  0
LINE
  5
91
100
AcDbEntity
  8
USP-GEO
100
AcDbLine
 10
0.0
 20
0.0
 30
0.0
 11
0.0624999999999876
 21
0.0
 31
0.0
  0
LINE
  5
92
100
AcDbEntity
  8
USP-GEO
100
AcDbLine
 10
0.0624999999999663
 20
0.3872000000000591
 30
0.0
 11
-0.000000000000048
 21
0.3872000000000307
 31
0.0
  0
LINE
  5
93
100
AcDbEntity
  8
USP-GEO
100
AcDbLine
 10
2.762200000000015
 20
1.46918126962604
 30
0.0
 11
2.762200000000015
 21
2.207580842988761
 31
0.0
  0
LINE
  5
94
100
AcDbEntity
  8
USP-GEO
100
AcDbLine
 10
2.687500000000015
 20
2.207580842988761
 30
0.0
 11
2.687500000000015
 21
1.469181269626041
 31
0.0
  0
ARC
  5
95
100
AcDbEntity
  8
USP-GEO
100
AcDbCircle
 10
4.999973256841249
 20
0.5191984085207304
 30
0.0
 40
2.5
100
AcDbArc
 50
157.6667419904893
 51
179.9999999999999
  0
LINE
  5
96
100
AcDbEntity
  8
USP-GEO
100
AcDbLine
 10
2.499973256841252
 20
0.5191984085207329
 30
0.0
 11
2.499973256841252
 21
0.3872000000000019
 31
0.0
  0
LINE
  5
97
100
AcDbEntity
  8
USP-GEO
100
AcDbLine
 10
2.437473256841251
 20
0.3872000000000592
 30
0.0
 11
2.43747325684124
 21
0.0000000000000017
 31
0.0
  0
LINE
  5
98
100
AcDbEntity
  8
USP-GEO
100
AcDbLine
 10
2.437473256841245
 20
0.0746999999999987
 30
0.0
 11
2.499973256841247
 21
0.0746999999999986
 31
0.0
  0
LINE
  5
99
100
AcDbEntity
  8
USP-GEO
100
AcDbLine
 10
2.437473256841245
 20
-0.000000000000002
 30
0.0
 11
2.499973256841247
 21
-0.0000000000000021
 31
0.0
  0
LINE
  5
9A
100
AcDbEntity
  8
USP-GEO
100
AcDbLine
 10
2.499973256841247
 20
0.074699999999998
 30
0.0
 11
2.499973256841247
 21
-0.0000000000000029
 31
0.0
  0
LINE
  5
9B
100
AcDbEntity
  8
USP-GEO
100
AcDbLine
 10
2.499973256841252
 20
0.3872000000000307
 30
0.0
 11
2.437473256841251
 21
0.3872000000000592
 31
0.0
  0
LINE
  5
9C
100
AcDbEntity
  8
USP-GEO
100
AcDbLine
 10
2.762200000000017
 20
1.469181269626039
 30
0.0
 11
2.687500000000017
 21
1.469181269626039
 31
0.0
  0
ARC
  5
9D
100
AcDbEntity
  8
USP-GEO
100
AcDbCircle
 10
2.687500000000044
 20
4.311260080790498
 30
0.0
 40
0.095
100
AcDbArc
 50
242.7604912655939
 51
269.9999999999924
  0
ARC
  5
9E
100
AcDbEntity
  8
USP-GEO
100
AcDbCircle
 10
2.687500000000023
 20
4.142330897144285
 30
0.0
 40
0.095
100
AcDbArc
 50
90.00000000000103
 51
269.999999999997
  0
CIRCLE
  5
9F
100
AcDbEntity
  8
USP-GEO
100
AcDbCircle
 10
1.687226743158825
 20
2.262199999999944
 30
0.0
 40
0.082
  0
CIRCLE
  5
A0
100
AcDbEntity
  8
USP-GEO
100
AcDbCircle
 10
1.687226743158827
 20
4.058537232443535
 30
0.0
 40
0.082
  0
CIRCLE
  5
A1
100
AcDbEntity
  8
USP-GEO
100
AcDbCircle
 10
1.687226743158829
 20
4.857901308014584
 30
0.0
 40
0.082
  0
LINE
  5
A2
100
AcDbEntity
  8
USP-GEO
100
AcDbLine
 10
2.762200000000015
 20
3.895963277456758
 30
0.0
 11
2.762200000000017
 21
2.207580842988758
 31
0.0
  0
LINE
  5
A3
100
AcDbEntity
  8
USP-GEO
100
AcDbLine
 10
2.687500000000014
 20
3.895963277456758
 30
0.0
 11
2.687500000000015
 21
2.207580842988757
 31
0.0
  0
LINE
  5
A4
100
AcDbEntity
  8
USP-GEO
100
AcDbLine
 10
2.762200000000015
 20
2.207580842988755
 30
0.0
 11
2.687500000000015
 21
2.207580842988755
 31
0.0
  0
LINE
  5
A5
100
AcDbEntity
  8
USP-GEO
100
AcDbLine
 10
2.762200000000012
 20
3.895963277456758
 30
0.0
 11
2.687500000000012
 21
3.895963277456758
 31
0.0
  0
CIRCLE
  5
A6
100
AcDbEntity
  8
USP-GEO
100
AcDbCircle
 10
2.250000000000012
 20
6.579269385878513
 30
0.0
 40
0.1535
  0
CIRCLE
  5
A7
100
AcDbEntity
  8
USP-GEO
100
AcDbCircle
 10
1.687226743158829
 20
7.678421005441602
 30
0.0
 40
0.082
  0
LINE
  5
A8
100
AcDbEntity
  8
USP-GEO
100
AcDbLine
 10
1.312226743158854
 20
11.07469999999994
 30
0.0
 11
2.687500000000021
 21
11.07469999999996
 31
0.0
  0
CIRCLE
  5
A9
100
AcDbEntity
  8
USP-GEO
100
AcDbCircle
 10
1.687226743158829
 20
8.55034861598113
 30
0.0
 40
0.082
  0
LINE
  5
AA
100
AcDbEntity
  8
USP-GEO
100
AcDbLine
 10
2.762200000000012
 20
11.07469999999997
 30
0.0
 11
2.687500000000012
 21
11.07469999999997
 31
0.0
  0
ENDBLK
  5
AC
100
AcDbEntity
  8
0
100
AcDbBlockEnd
  0
ENDSEC
  0
SECTION
  2
ENTITIES
  0
INSERT
  5
3
100
AcDbEntity
  8
USP
100
AcDbBlockReference
  2
HD212-2_F
 10
0.5094233063252083
 20
1.718212727300068
 30
0.0
  0
INSERT
  5
51
100
AcDbEntity
  8
USP
100
AcDbBlockReference
  2
HD212-2_T
 10
0.5094233063251941
 20
17.11681189813926
 30
0.0
  0
INSERT
  5
81
100
AcDbEntity
  8
USP
100
AcDbBlockReference
  2
HD212-2_S
 10
10.81700965024481
 20
1.718212727300064
 30
0.0
  0
VIEWPORT
  5
B2
102
{ACAD_XDICTIONARY
360
B3
102
}
100
AcDbEntity
 67
     1
  8
0
100
AcDbViewport
 10
5.285416850893516
 20
3.968749891115924
 30
0.0
 40
13.50573247017707
 41
8.992999745766947
 68
    -1
 69
     1
1001
ACAD
1000
MVIEW
1002
{
1070
    16
1010
0.0
1020
0.0
1030
0.0
1010
0.0
1020
0.0
1030
1.0
1040
0.0
1040
8.992999745766947
1040
5.285416850893516
1040
3.968749891115924
1040
50.0
1040
0.0
1040
0.0
1070
     0
1070
   100
1070
     1
1070
     1
1070
     0
1070
     0
1070
     0
1070
     0
1040
0.0
1040
0.0
1040
0.0
1040
0.5
1040
0.5
1040
0.5
1040
0.5
1070
     0
1002
{
1002
}
1002
}
  0
ENDSEC
  0
SECTION
  2
OBJECTS
  0
DICTIONARY
  5
C9
102
{ACAD_XDICTIONARY
360
CA
102
}
100
AcDbDictionary
  3
ACAD_GROUP
350
C7
  3
ACAD_MLINESTYLE
350
C8
  0
DICTIONARY
  5
AD
100
AcDbDictionary
280
     1
  3
ACAD_LAYOUTSELFREF
360
AE
  0
DICTIONARY
  5
B7
100
AcDbDictionary
280
     1
  3
ACAD_LAYOUTSELFREF
360
B8
  0
DICTIONARY
  5
B3
100
AcDbDictionary
280
     1
  3
ACAD_XREC_ROUNDTRIP
360
B4
  0
DICTIONARY
  5
CA
100
AcDbDictionary
280
     1
  3
ACAD_XREC_ROUNDTRIP
360
CB
  0
DICTIONARY
  5
C7
102
{ACAD_REACTORS
330
C9
102
}
100
AcDbDictionary
  0
DICTIONARY
  5
C8
102
{ACAD_REACTORS
330
C9
102
}
100
AcDbDictionary
  3
STANDARD
350
CC
  0
XRECORD
  5
AE
102
{ACAD_REACTORS
330
AD
102
}
100
AcDbXrecord
340
18
  0
XRECORD
  5
B8
102
{ACAD_REACTORS
330
B7
102
}
100
AcDbXrecord
340
15
  0
XRECORD
  5
B4
102
{ACAD_REACTORS
330
B3
102
}
100
AcDbXrecord
102
UCS
 74
     0
 71
     1
 10
0.0
 20
0.0
 30
0.0
 10
1.0
 20
0.0
 30
0.0
 10
0.0
 20
1.0
 30
0.0
146
0.0
 79
     0
102
VIEW
281
     0
102
NEWVIEWCONTROL
280
     4
  0
XRECORD
  5
CB
102
{ACAD_REACTORS
330
CA
102
}
100
AcDbXrecord
102
EXTNAMES
  1
ACDBVARIABLEDICTIONARY
  2
AcDbVariableDictionary
  0
MLINESTYLE
  5
CC
102
{ACAD_REACTORS
330
C8
102
}
100
AcDbMlineStyle
  2
STANDARD
 70
     0
  3

 62
     0
 51
90.0
 52
90.0
 71
     2
 49
0.5
 62
   256
  6
BYLAYER
 49
-0.5
 62
   256
  6
BYLAYER
  0
ENDSEC
  0
EOF
