  0
SECTION
  2
HEADER
  9
$ACADVER
  1
AC1015
  9
$ACADMAINTVER
 70
    20
  9
$DWGCODEPAGE
  3
ANSI_1252
  9
$INSBASE
 10
0.0
 20
0.0
 30
0.0
  9
$EXTMIN
 10
-0.0000762379485035
 20
-0.0001525243269498
 30
-0.0000000349181948
  9
$EXTMAX
 10
4.130221939449521
 20
4.000106809662749
 30
0.0000000814935747
  9
$LIMMIN
 10
0.0
 20
0.0
  9
$LIMMAX
 10
0.0
 20
0.0
  9
$ORTHOMODE
 70
     0
  9
$REGENMODE
 70
     1
  9
$FILLMODE
 70
     1
  9
$QTEXTMODE
 70
     0
  9
$MIRRTEXT
 70
     1
  9
$LTSCALE
 40
1.0
  9
$ATTMODE
 70
     1
  9
$TEXTSIZE
 40
0.2
  9
$TRACEWID
 40
0.05
  9
$TEXTSTYLE
  7
Standard
  9
$CLAYER
  8
0
  9
$CELTYPE
  6
ByLayer
  9
$CECOLOR
 62
   256
  9
$CELTSCALE
 40
1.0
  9
$DISPSILH
 70
     0
  9
$DIMSCALE
 40
1.0
  9
$DIMASZ
 40
0.156
  9
$DIMEXO
 40
0.05
  9
$DIMDLI
 40
0.38
  9
$DIMRND
 40
0.0
  9
$DIMDLE
 40
0.0
  9
$DIMEXE
 40
0.125
  9
$DIMTP
 40
0.0
  9
$DIMTM
 40
0.0
  9
$DIMTXT
 40
0.125
  9
$DIMCEN
 40
0.09
  9
$DIMTSZ
 40
0.0
  9
$DIMTOL
 70
     0
  9
$DIMLIM
 70
     0
  9
$DIMTIH
 70
     1
  9
$DIMTOH
 70
     1
  9
$DIMSE1
 70
     0
  9
$DIMSE2
 70
     0
  9
$DIMTAD
 70
     0
  9
$DIMZIN
 70
     0
  9
$DIMBLK
  1

  9
$DIMASO
 70
     1
  9
$DIMSHO
 70
     1
  9
$DIMPOST
  1

  9
$DIMAPOST
  1

  9
$DIMALT
 70
     0
  9
$DIMALTD
 70
     2
  9
$DIMALTF
 40
25.4
  9
$DIMLFAC
 40
4.0
  9
$DIMTOFL
 70
     0
  9
$DIMTVP
 40
0.0
  9
$DIMTIX
 70
     0
  9
$DIMSOXD
 70
     0
  9
$DIMSAH
 70
     0
  9
$DIMBLK1
  1

  9
$DIMBLK2
  1

  9
$DIMSTYLE
  2
Standard
  9
$DIMCLRD
 70
     0
  9
$DIMCLRE
 70
     0
  9
$DIMCLRT
 70
     0
  9
$DIMTFAC
 40
1.0
  9
$DIMGAP
 40
0.06
  9
$DIMJUST
 70
     0
  9
$DIMSD1
 70
     0
  9
$DIMSD2
 70
     0
  9
$DIMTOLJ
 70
     1
  9
$DIMTZIN
 70
     0
  9
$DIMALTZ
 70
     0
  9
$DIMALTTZ
 70
     0
  9
$DIMUPT
 70
     0
  9
$DIMDEC
 70
     4
  9
$DIMTDEC
 70
     4
  9
$DIMALTU
 70
     2
  9
$DIMALTTD
 70
     2
  9
$DIMTXSTY
  7
Standard
  9
$DIMAUNIT
 70
     0
  9
$DIMADEC
 70
     0
  9
$DIMALTRND
 40
0.0
  9
$DIMAZIN
 70
     0
  9
$DIMDSEP
 70
    46
  9
$DIMATFIT
 70
     3
  9
$DIMFRAC
 70
     0
  9
$DIMLDRBLK
  1

  9
$DIMLUNIT
 70
     2
  9
$DIMLWD
 70
    -2
  9
$DIMLWE
 70
    -2
  9
$DIMTMOVE
 70
     0
  9
$LUNITS
 70
     2
  9
$LUPREC
 70
     3
  9
$SKETCHINC
 40
0.1
  9
$FILLETRAD
 40
0.5
  9
$AUNITS
 70
     0
  9
$AUPREC
 70
     0
  9
$MENU
  1
.
  9
$ELEVATION
 40
0.0
  9
$PELEVATION
 40
0.0
  9
$THICKNESS
 40
0.0
  9
$LIMCHECK
 70
     0
  9
$CHAMFERA
 40
0.5
  9
$CHAMFERB
 40
0.5
  9
$CHAMFERC
 40
1.0
  9
$CHAMFERD
 40
0.0
  9
$SKPOLY
 70
     0
  9
$TDCREATE
 40
2453815.503268889
  9
$TDUCREATE
 40
2453815.711602222
  9
$TDUPDATE
 40
2454763.449546238
  9
$TDUUPDATE
 40
2454763.657879572
  9
$TDINDWG
 40
0.0073011690
  9
$TDUSRTIMER
 40
0.0073011690
  9
$USRTIMER
 70
     1
  9
$ANGBASE
 50
0.0
  9
$ANGDIR
 70
     0
  9
$PDMODE
 70
     0
  9
$PDSIZE
 40
-1.0
  9
$PLINEWID
 40
0.0
  9
$SPLFRAME
 70
     0
  9
$SPLINETYPE
 70
     6
  9
$SPLINESEGS
 70
     8
  9
$HANDSEED
  5
37F
  9
$SURFTAB1
 70
     6
  9
$SURFTAB2
 70
     6
  9
$SURFTYPE
 70
     6
  9
$SURFU
 70
     6
  9
$SURFV
 70
     6
  9
$UCSBASE
  2

  9
$UCSNAME
  2

  9
$UCSORG
 10
0.0
 20
0.0
 30
0.0
  9
$UCSXDIR
 10
1.0
 20
0.0
 30
0.0
  9
$UCSYDIR
 10
0.0
 20
1.0
 30
0.0
  9
$UCSORTHOREF
  2

  9
$UCSORTHOVIEW
 70
     0
  9
$UCSORGTOP
 10
0.0
 20
0.0
 30
0.0
  9
$UCSORGBOTTOM
 10
0.0
 20
0.0
 30
0.0
  9
$UCSORGLEFT
 10
0.0
 20
0.0
 30
0.0
  9
$UCSORGRIGHT
 10
0.0
 20
0.0
 30
0.0
  9
$UCSORGFRONT
 10
0.0
 20
0.0
 30
0.0
  9
$UCSORGBACK
 10
0.0
 20
0.0
 30
0.0
  9
$PUCSBASE
  2

  9
$PUCSNAME
  2

  9
$PUCSORG
 10
0.0
 20
0.0
 30
0.0
  9
$PUCSXDIR
 10
1.0
 20
0.0
 30
0.0
  9
$PUCSYDIR
 10
0.0
 20
1.0
 30
0.0
  9
$PUCSORTHOREF
  2

  9
$PUCSORTHOVIEW
 70
     0
  9
$PUCSORGTOP
 10
0.0
 20
0.0
 30
0.0
  9
$PUCSORGBOTTOM
 10
0.0
 20
0.0
 30
0.0
  9
$PUCSORGLEFT
 10
0.0
 20
0.0
 30
0.0
  9
$PUCSORGRIGHT
 10
0.0
 20
0.0
 30
0.0
  9
$PUCSORGFRONT
 10
0.0
 20
0.0
 30
0.0
  9
$PUCSORGBACK
 10
0.0
 20
0.0
 30
0.0
  9
$USERI1
 70
     0
  9
$USERI2
 70
     0
  9
$USERI3
 70
     0
  9
$USERI4
 70
     0
  9
$USERI5
 70
     0
  9
$USERR1
 40
0.0
  9
$USERR2
 40
0.0
  9
$USERR3
 40
0.0
  9
$USERR4
 40
0.0
  9
$USERR5
 40
0.0
  9
$WORLDVIEW
 70
     1
  9
$SHADEDGE
 70
     3
  9
$SHADEDIF
 70
    70
  9
$TILEMODE
 70
     1
  9
$MAXACTVP
 70
    64
  9
$PINSBASE
 10
0.0
 20
0.0
 30
0.0
  9
$PLIMCHECK
 70
     0
  9
$PEXTMIN
 10
1.000000000000000E+20
 20
1.000000000000000E+20
 30
1.000000000000000E+20
  9
$PEXTMAX
 10
-1.000000000000000E+20
 20
-1.000000000000000E+20
 30
-1.000000000000000E+20
  9
$PLIMMIN
 10
0.0
 20
0.0
  9
$PLIMMAX
 10
12.0
 20
9.0
  9
$UNITMODE
 70
     0
  9
$VISRETAIN
 70
     1
  9
$PLINEGEN
 70
     0
  9
$PSLTSCALE
 70
     1
  9
$TREEDEPTH
 70
  3020
  9
$CMLSTYLE
  2
Standard
  9
$CMLJUST
 70
     0
  9
$CMLSCALE
 40
1.0
  9
$PROXYGRAPHICS
 70
     1
  9
$MEASUREMENT
 70
     0
  9
$CELWEIGHT
370
    -1
  9
$ENDCAPS
280
     0
  9
$JOINSTYLE
280
     0
  9
$LWDISPLAY
290
     1
  9
$INSUNITS
 70
     1
  9
$HYPERLINKBASE
  1

  9
$STYLESHEET
  1

  9
$XEDIT
290
     1
  9
$CEPSNTYPE
380
     0
  9
$PSTYLEMODE
290
     1
  9
$FINGERPRINTGUID
  2
{7119BE2F-5751-489E-93B9-2CEC3FEEBFE9}
  9
$VERSIONGUID
  2
{22EE4394-AD12-4840-B0BD-E3238AFA6DC5}
  9
$EXTNAMES
290
     1
  9
$PSVPSCALE
 40
0.0
  9
$OLESTARTUP
290
     0
  0
ENDSEC
  0
SECTION
  2
CLASSES
  0
CLASS
  1
ACDBDICTIONARYWDFLT
  2
AcDbDictionaryWithDefault
  3
ObjectDBX Classes
 90
        0
280
     0
281
     0
  0
CLASS
  1
DICTIONARYVAR
  2
AcDbDictionaryVar
  3
ObjectDBX Classes
 90
        0
280
     0
281
     0
  0
CLASS
  1
ACDBPLACEHOLDER
  2
AcDbPlaceHolder
  3
ObjectDBX Classes
 90
        0
280
     0
281
     0
  0
CLASS
  1
LAYOUT
  2
AcDbLayout
  3
ObjectDBX Classes
 90
        0
280
     0
281
     0
  0
ENDSEC
  0
SECTION
  2
TABLES
  0
TABLE
  2
VPORT
  5
8
330
0
100
AcDbSymbolTable
 70
     2
  0
VPORT
  5
372
330
8
100
AcDbSymbolTableRecord
100
AcDbViewportTableRecord
  2
*Active
 70
     0
 10
0.0
 20
0.0
 11
1.0
 21
1.0
 12
2.000034358761283
 22
1.9999771426679
 13
0.0
 23
0.0
 14
0.5
 24
0.5
 15
0.5
 25
0.5
 16
0.0
 26
0.0
 36
1.0
 17
0.0
 27
0.0
 37
0.0
 40
4.030718161405864
 41
1.257941550190597
 42
50.0
 43
0.0
 44
0.0
 50
0.0
 51
0.0
 71
     0
 72
  2000
 73
     1
 74
     3
 75
     0
 76
     0
 77
     0
 78
     0
281
     0
 65
     1
110
0.0
120
0.0
130
0.0
111
1.0
121
0.0
131
0.0
112
0.0
122
1.0
132
0.0
 79
     0
146
0.0
  0
ENDTAB
  0
TABLE
  2
LTYPE
  5
5
330
0
100
AcDbSymbolTable
 70
     6
  0
LTYPE
  5
14
330
5
100
AcDbSymbolTableRecord
100
AcDbLinetypeTableRecord
  2
ByBlock
 70
     0
  3

 72
    65
 73
     0
 40
0.0
  0
LTYPE
  5
15
330
5
100
AcDbSymbolTableRecord
100
AcDbLinetypeTableRecord
  2
ByLayer
 70
     0
  3

 72
    65
 73
     0
 40
0.0
  0
LTYPE
  5
16
330
5
100
AcDbSymbolTableRecord
100
AcDbLinetypeTableRecord
  2
Continuous
 70
     0
  3
Solid line
 72
    65
 73
     0
 40
0.0
  0
LTYPE
  5
2A
330
5
100
AcDbSymbolTableRecord
100
AcDbLinetypeTableRecord
  2
HIDDEN
 70
     0
  3
Hidden __ __ __ __ __ __ __ __ __ __ __ __ __ __
 72
    65
 73
     2
 40
0.075
 49
0.05
 74
     0
 49
-0.025
 74
     0
  0
LTYPE
  5
2B
330
5
100
AcDbSymbolTableRecord
100
AcDbLinetypeTableRecord
  2
PHANTOM
 70
     0
  3
Phantom ______  __  __  ______  __  __  ______
 72
    65
 73
     6
 40
0.5
 49
0.25
 74
     0
 49
-0.05
 74
     0
 49
0.05
 74
     0
 49
-0.05
 74
     0
 49
0.05
 74
     0
 49
-0.05
 74
     0
  0
LTYPE
  5
2C
330
5
100
AcDbSymbolTableRecord
100
AcDbLinetypeTableRecord
  2
CENTER
 70
     0
  3
Center ____ _ ____ _ ____ _ ____ _ ____ _ ____
 72
    65
 73
     4
 40
0.4
 49
0.25
 74
     0
 49
-0.05
 74
     0
 49
0.05
 74
     0
 49
-0.05
 74
     0
  0
LTYPE
  5
2D
330
5
100
AcDbSymbolTableRecord
100
AcDbLinetypeTableRecord
  2
CENTERX2
 70
     0
  3
Center (2x) ________  __  ________  __  _____
 72
    65
 73
     4
 40
0.8
 49
0.5
 74
     0
 49
-0.1
 74
     0
 49
0.1
 74
     0
 49
-0.1
 74
     0
  0
LTYPE
  5
2E
330
5
100
AcDbSymbolTableRecord
100
AcDbLinetypeTableRecord
  2
DOT2
 70
     0
  3
Dot (.5x) ........................................
 72
    65
 73
     2
 40
0.025
 49
0.0
 74
     0
 49
-0.025
 74
     0
  0
ENDTAB
  0
TABLE
  2
LAYER
  5
2
330
0
100
AcDbSymbolTable
 70
    10
  0
LAYER
  5
10
330
2
100
AcDbSymbolTableRecord
100
AcDbLayerTableRecord
  2
0
 70
     0
 62
     7
  6
Continuous
370
    -3
390
F
  0
LAYER
  5
2F
330
2
100
AcDbSymbolTableRecord
100
AcDbLayerTableRecord
  2
SLD-0
 70
     0
 62
   179
  6
Continuous
370
     0
390
F
  0
LAYER
  5
30
330
2
100
AcDbSymbolTableRecord
100
AcDbLayerTableRecord
  2
SLD-DEFPOINTS
 70
     0
 62
   179
  6
Continuous
370
     0
390
F
  0
LAYER
  5
31
330
2
100
AcDbSymbolTableRecord
100
AcDbLayerTableRecord
  2
OBJ
 70
     0
 62
   179
  6
Continuous
370
     0
390
F
  0
LAYER
  5
32
330
2
100
AcDbSymbolTableRecord
100
AcDbLayerTableRecord
  2
FORMAT
 70
     0
 62
     7
  6
Continuous
370
     0
390
F
  0
LAYER
  5
33
330
2
100
AcDbSymbolTableRecord
100
AcDbLayerTableRecord
  2
REV-1
 70
     0
 62
     7
  6
Continuous
370
     0
390
F
  0
LAYER
  5
34
330
2
100
AcDbSymbolTableRecord
100
AcDbLayerTableRecord
  2
REV-2
 70
     0
 62
     7
  6
Continuous
370
     0
390
F
  0
LAYER
  5
35
330
2
100
AcDbSymbolTableRecord
100
AcDbLayerTableRecord
  2
REV-3
 70
     0
 62
     7
  6
Continuous
370
     0
390
F
  0
LAYER
  5
36
330
2
100
AcDbSymbolTableRecord
100
AcDbLayerTableRecord
  2
PAINT
 70
     0
 62
     7
  6
Continuous
370
     0
390
F
  0
LAYER
  5
FA
330
2
100
AcDbSymbolTableRecord
100
AcDbLayerTableRecord
  2
Defpoints
 70
     0
 62
     7
  6
Continuous
290
     0
370
    -3
390
F
  0
ENDTAB
  0
TABLE
  2
STYLE
  5
3
330
0
100
AcDbSymbolTable
 70
    14
  0
STYLE
  5
11
330
3
100
AcDbSymbolTableRecord
100
AcDbTextStyleTableRecord
  2
Standard
 70
     0
 40
0.0
 41
1.0
 50
0.0
 71
     0
 42
0.2
  3
txt
  4

  0
STYLE
  5
5F
330
3
100
AcDbSymbolTableRecord
100
AcDbTextStyleTableRecord
  2
SLDTEXTSTYLE0
 70
     0
 40
0.0
 41
0.6222222222222224
 50
0.0
 71
     0
 42
0.2
  3
TXT
  4

  0
STYLE
  5
64
330
3
100
AcDbSymbolTableRecord
100
AcDbTextStyleTableRecord
  2
SLDTEXTSTYLE1
 70
     0
 40
0.0
 41
0.6447368421052632
 50
0.0
 71
     0
 42
0.2
  3
TXT
  4

  0
STYLE
  5
66
330
3
100
AcDbSymbolTableRecord
100
AcDbTextStyleTableRecord
  2
SLDTEXTSTYLE2
 70
     0
 40
0.0
 41
0.7
 50
0.0
 71
     0
 42
0.2
  3
TXT
  4

  0
STYLE
  5
69
330
3
100
AcDbSymbolTableRecord
100
AcDbTextStyleTableRecord
  2
SLDTEXTSTYLE3
 70
     0
 40
0.0
 41
0.661111111111111
 50
0.0
 71
     0
 42
0.2
  3
TXT
  4

  0
STYLE
  5
6C
330
3
100
AcDbSymbolTableRecord
100
AcDbTextStyleTableRecord
  2
SLDTEXTSTYLE4
 70
     0
 40
0.0
 41
0.63
 50
0.0
 71
     0
 42
0.2
  3
TXT
  4

  0
STYLE
  5
6E
330
3
100
AcDbSymbolTableRecord
100
AcDbTextStyleTableRecord
  2
SLDTEXTSTYLE5
 70
     0
 40
0.0
 41
0.6469696969696969
 50
0.0
 71
     0
 42
0.2
  3
TXT
  4

  0
STYLE
  5
70
330
3
100
AcDbSymbolTableRecord
100
AcDbTextStyleTableRecord
  2
SLDTEXTSTYLE6
 70
     0
 40
0.0
 41
0.6340579710144928
 50
0.0
 71
     0
 42
0.2
  3
TXT
  4

  0
STYLE
  5
72
330
3
100
AcDbSymbolTableRecord
100
AcDbTextStyleTableRecord
  2
SLDTEXTSTYLE7
 70
     0
 40
0.0
 41
0.6450000000000001
 50
0.0
 71
     0
 42
0.2
  3
TXT
  4

  0
STYLE
  5
75
330
3
100
AcDbSymbolTableRecord
100
AcDbTextStyleTableRecord
  2
SLDTEXTSTYLE8
 70
     0
 40
0.0
 41
0.6637931034482759
 50
0.0
 71
     0
 42
0.2
  3
TXT
  4

  0
STYLE
  5
7F
330
3
100
AcDbSymbolTableRecord
100
AcDbTextStyleTableRecord
  2
SLDTEXTSTYLE9
 70
     0
 40
0.0
 41
0.6650000000000001
 50
0.0
 71
     0
 42
0.2
  3
TXT
  4

  0
STYLE
  5
87
330
3
100
AcDbSymbolTableRecord
100
AcDbTextStyleTableRecord
  2
SLDTEXTSTYLE10
 70
     0
 40
0.0
 41
0.6551282051282051
 50
0.0
 71
     0
 42
0.2
  3
TXT
  4

  0
STYLE
  5
337
330
3
100
AcDbSymbolTableRecord
100
AcDbTextStyleTableRecord
  2
SLDTEXTSTYLE11
 70
     0
 40
0.0
 41
0.6382352941176471
 50
0.0
 71
     0
 42
0.2
  3
TXT
  4

  0
STYLE
  5
345
330
3
100
AcDbSymbolTableRecord
100
AcDbTextStyleTableRecord
  2
SLDTEXTSTYLE12
 70
     0
 40
0.0
 41
0.6522727272727274
 50
0.0
 71
     0
 42
0.2
  3
TXT
  4

  0
ENDTAB
  0
TABLE
  2
VIEW
  5
6
330
0
100
AcDbSymbolTable
 70
     0
  0
ENDTAB
  0
TABLE
  2
UCS
  5
7
330
0
100
AcDbSymbolTable
 70
     0
  0
ENDTAB
  0
TABLE
  2
APPID
  5
9
330
0
100
AcDbSymbolTable
 70
     1
  0
APPID
  5
12
330
9
100
AcDbSymbolTableRecord
100
AcDbRegAppTableRecord
  2
ACAD
 70
     0
  0
ENDTAB
  0
TABLE
  2
DIMSTYLE
  5
A
330
0
100
AcDbSymbolTable
 70
     5
100
AcDbDimStyleTable
 71
     0
  0
DIMSTYLE
105
27
330
A
100
AcDbSymbolTableRecord
100
AcDbDimStyleTableRecord
  2
Standard
 70
     0
340
11
  0
DIMSTYLE
105
108
330
A
100
AcDbSymbolTableRecord
100
AcDbDimStyleTableRecord
  2
SLDDIMSTYLE0
 70
     0
 41
0.156
 44
0.0
 78
    12
140
0.125
144
4.0
147
0.03125
173
     1
271
     3
272
     3
284
    12
340
66
341
109
343
109
344
109
  0
DIMSTYLE
105
31D
330
A
100
AcDbSymbolTableRecord
100
AcDbDimStyleTableRecord
  2
SLDDIMSTYLE1
 70
     0
 41
0.156
 44
0.0
 47
0.001
 48
0.001
 71
     1
 78
     4
140
0.125
144
4.0
147
0.03125
172
     1
173
     1
271
     3
272
     3
284
     8
340
66
341
109
343
109
344
109
  0
DIMSTYLE
105
332
330
A
100
AcDbSymbolTableRecord
100
AcDbDimStyleTableRecord
  2
SLDDIMSTYLE2
 70
     0
  3
<>
 41
0.156
 44
0.0
 78
    12
140
0.125
144
4.0
147
0.03125
173
     1
271
     3
272
     3
284
    12
340
66
341
109
343
109
344
109
  0
DIMSTYLE
105
33F
330
A
100
AcDbSymbolTableRecord
100
AcDbDimStyleTableRecord
  2
SLDDIMSTYLE3
 70
     0
 41
0.156
 44
0.0
140
0.156
147
0.039
173
     1
271
     0
272
     0
340
11
341
109
343
109
344
109
  0
ENDTAB
  0
TABLE
  2
BLOCK_RECORD
  5
1
330
0
100
AcDbSymbolTable
 70
    17
  0
BLOCK_RECORD
  5
1F
330
1
100
AcDbSymbolTableRecord
100
AcDbBlockTableRecord
  2
*Model_Space
340
22
  0
BLOCK_RECORD
  5
1B
330
1
100
AcDbSymbolTableRecord
100
AcDbBlockTableRecord
  2
*Paper_Space
340
1E
  0
BLOCK_RECORD
  5
23
330
1
100
AcDbSymbolTableRecord
100
AcDbBlockTableRecord
  2
*Paper_Space0
340
26
  0
BLOCK_RECORD
  5
61
330
1
100
AcDbSymbolTableRecord
100
AcDbBlockTableRecord
  2
SW_NOTE_0
340
0
  0
BLOCK_RECORD
  5
A2
330
1
100
AcDbSymbolTableRecord
100
AcDbBlockTableRecord
  2
SW_NOTE_1
340
0
  0
BLOCK_RECORD
  5
FB
330
1
100
AcDbSymbolTableRecord
100
AcDbBlockTableRecord
  2
*D3
340
0
  0
BLOCK_RECORD
  5
109
330
1
100
AcDbSymbolTableRecord
100
AcDbBlockTableRecord
  2
_Closed
340
0
102
{BLKREFS
331
110
331
111
331
131
331
132
331
186
331
187
331
2B6
331
2B7
331
2CB
331
2CC
331
2E0
331
2E1
331
2F5
331
2F6
331
30A
331
30B
331
31F
331
333
331
353
331
354
102
}
  0
BLOCK_RECORD
  5
118
330
1
100
AcDbSymbolTableRecord
100
AcDbBlockTableRecord
  2
*D5
340
0
  0
BLOCK_RECORD
  5
12C
330
1
100
AcDbSymbolTableRecord
100
AcDbBlockTableRecord
  2
SW_ANGULAR_DIMENSION_0
340
0
  0
BLOCK_RECORD
  5
179
330
1
100
AcDbSymbolTableRecord
100
AcDbBlockTableRecord
  2
*D7
340
0
  0
BLOCK_RECORD
  5
2A9
330
1
100
AcDbSymbolTableRecord
100
AcDbBlockTableRecord
  2
*D8
340
0
  0
BLOCK_RECORD
  5
2BE
330
1
100
AcDbSymbolTableRecord
100
AcDbBlockTableRecord
  2
*D9
340
0
  0
BLOCK_RECORD
  5
2D3
330
1
100
AcDbSymbolTableRecord
100
AcDbBlockTableRecord
  2
*D10
340
0
  0
BLOCK_RECORD
  5
2E8
330
1
100
AcDbSymbolTableRecord
100
AcDbBlockTableRecord
  2
*D11
340
0
  0
BLOCK_RECORD
  5
2FD
330
1
100
AcDbSymbolTableRecord
100
AcDbBlockTableRecord
  2
*D12
340
0
  0
BLOCK_RECORD
  5
312
330
1
100
AcDbSymbolTableRecord
100
AcDbBlockTableRecord
  2
*D13
340
0
  0
BLOCK_RECORD
  5
327
330
1
100
AcDbSymbolTableRecord
100
AcDbBlockTableRecord
  2
*D14
340
0
  0
BLOCK_RECORD
  5
339
330
1
100
AcDbSymbolTableRecord
100
AcDbBlockTableRecord
  2
SW_NOTE_2
340
0
  0
BLOCK_RECORD
  5
341
330
1
100
AcDbSymbolTableRecord
100
AcDbBlockTableRecord
  2
SW_NOTE_3
340
0
  0
ENDTAB
  0
ENDSEC
  0
SECTION
  2
BLOCKS
  0
BLOCK
  5
20
330
1F
100
AcDbEntity
  8
0
100
AcDbBlockBegin
  2
*Model_Space
 70
     0
 10
0.0
 20
0.0
 30
0.0
  3
*Model_Space
  1

  0
ENDBLK
  5
21
330
1F
100
AcDbEntity
  8
0
100
AcDbBlockEnd
  0
BLOCK
  5
1C
330
1B
100
AcDbEntity
 67
     1
  8
0
100
AcDbBlockBegin
  2
*Paper_Space
 70
     0
 10
0.0
 20
0.0
 30
0.0
  3
*Paper_Space
  1

  0
ENDBLK
  5
1D
330
1B
100
AcDbEntity
 67
     1
  8
0
100
AcDbBlockEnd
  0
BLOCK
  5
24
330
23
100
AcDbEntity
  8
0
100
AcDbBlockBegin
  2
*Paper_Space0
 70
     0
 10
0.0
 20
0.0
 30
0.0
  3
*Paper_Space0
  1

  0
ENDBLK
  5
25
330
23
100
AcDbEntity
  8
0
100
AcDbBlockEnd
  0
BLOCK
  5
62
330
61
100
AcDbEntity
  8
0
100
AcDbBlockBegin
  2
SW_NOTE_0
 70
     0
 10
0.0
 20
0.0
 30
0.0
  3
SW_NOTE_0
  1

  0
MTEXT
  5
65
330
61
100
AcDbEntity
  8
OBJ
100
AcDbMText
 10
0.0
 20
0.1342778895595794
 30
-0.0000000000000423
 40
0.1041666666666667
 41
0.0
 71
     1
 72
     1
  1
{ALL DIMENSIONS ARE }
  7
SLDTEXTSTYLE1
 73
     1
 44
1.0
1001
ACAD
1000
MTEXTBEGIN
1070
    73
1070
     1
1070
    44
1040
1.0
1070
    74
1070
     0
1000
MTEXTEND
  0
MTEXT
  5
67
102
{ACAD_XDICTIONARY
360
37D
102
}
330
61
100
AcDbEntity
  8
OBJ
100
AcDbMText
 10
1.496045490888159
 20
0.1342778895595794
 30
-0.0000000000000423
 40
0.1041666666666667
 41
0.0
 71
     1
 72
     1
  1
{\U+00B1}
  7
SLDTEXTSTYLE2
 73
     1
 44
1.0
1001
ACAD
1000
MTEXTBEGIN
1070
    73
1070
     1
1070
    44
1040
1.0
1070
    74
1070
     0
1000
MTEXTEND
  0
MTEXT
  5
68
330
61
100
AcDbEntity
  8
OBJ
100
AcDbMText
 10
1.58921676123236
 20
0.1342778895595794
 30
-0.0000000000000423
 40
0.1041666666666667
 41
0.0
 71
     1
 72
     1
  1
{1/32}
  7
SLDTEXTSTYLE2
 73
     1
 44
1.0
1001
ACAD
1000
MTEXTBEGIN
1070
    73
1070
     1
1070
    44
1040
1.0
1070
    74
1070
     0
1000
MTEXTEND
  0
MTEXT
  5
6A
330
61
100
AcDbEntity
  8
OBJ
100
AcDbMText
 10
0.1219739242801516
 20
-0.00461099765081
 30
-0.0000000000000423
 40
0.1041666666666667
 41
0.0
 71
     1
 72
     1
  1
{EXCEPT WHERE NOTED}
  7
SLDTEXTSTYLE3
 73
     1
 44
1.0
1001
ACAD
1000
MTEXTBEGIN
1070
    73
1070
     1
1070
    44
1040
1.0
1070
    74
1070
     0
1000
MTEXTEND
  0
ENDBLK
  5
63
330
61
100
AcDbEntity
  8
0
100
AcDbBlockEnd
  0
BLOCK
  5
A3
330
A2
100
AcDbEntity
  8
0
100
AcDbBlockBegin
  2
SW_NOTE_1
 70
     0
 10
0.0
 20
0.0
 30
0.0
  3
SW_NOTE_1
  1

  0
MTEXT
  5
A5
330
A2
100
AcDbEntity
  8
PAINT
100
AcDbMText
 10
0.0
 20
0.1256570302233903
 30
-0.000000000000018
 40
0.09375
 41
0.0
 71
     1
 72
     1
  1
{NOTE:}
  7
SLDTEXTSTYLE2
 73
     1
 44
1.0
1001
ACAD
1000
MTEXTBEGIN
1070
    73
1070
     1
1070
    44
1040
1.0
1070
    74
1070
     0
1000
MTEXTEND
  0
MTEXT
  5
A6
330
A2
100
AcDbEntity
  8
PAINT
100
AcDbMText
 10
0.0
 20
0.0006570317340395
 30
-0.000000000000018
 40
0.09375
 41
0.0
 71
     1
 72
     1
  1
{PAINT WITH PRIMER AFTER FABRICATION.}
  7
SLDTEXTSTYLE3
 73
     1
 44
1.0
1001
ACAD
1000
MTEXTBEGIN
1070
    73
1070
     1
1070
    44
1040
1.0
1070
    74
1070
     0
1000
MTEXTEND
  0
ENDBLK
  5
A4
330
A2
100
AcDbEntity
  8
0
100
AcDbBlockEnd
  0
BLOCK
  5
106
330
FB
100
AcDbEntity
  8
0
100
AcDbBlockBegin
  2
*D3
 70
     1
 10
0.0
 20
0.0
 30
0.0
  3
*D3
  1

  0
INSERT
  5
110
330
FB
100
AcDbEntity
  8
OBJ
100
AcDbBlockReference
  2
_Closed
 10
4.678901285485079
 20
10.46845517024054
 30
-0.811515748031493
 41
0.156
 42
0.156
 50
90.0000000000006
  0
INSERT
  5
111
330
FB
100
AcDbEntity
  8
OBJ
100
AcDbBlockReference
  2
_Closed
 10
4.678901285485085
 20
8.734218443609799
 30
-0.811515748031493
 41
0.156
 42
0.156
 50
270.0000000000006
  0
LINE
  5
112
330
FB
100
AcDbEntity
  8
OBJ
100
AcDbLine
 10
5.131898477030887
 20
10.46845517024054
 30
0.0
 11
4.553901285485079
 21
10.46845517024054
 31
0.0
  0
LINE
  5
113
330
FB
100
AcDbEntity
  8
OBJ
100
AcDbLine
 10
6.866135203661621
 20
8.73421844360981
 30
0.0
 11
4.553901285485085
 21
8.734218443609799
 31
0.0
  0
LINE
  5
114
330
FB
100
AcDbEntity
  8
OBJ
100
AcDbLine
 10
4.678901285485079
 20
10.46845517024054
 30
0.0
 11
4.678901285485082
 21
9.686388746655376
 31
0.0
  0
LINE
  5
115
330
FB
100
AcDbEntity
  8
OBJ
100
AcDbLine
 10
4.678901285485085
 20
8.734218443609799
 30
0.0
 11
4.678901285485082
 21
9.536152537663882
 31
0.0
  0
MTEXT
  5
116
330
FB
100
AcDbEntity
  8
OBJ
100
AcDbMText
 10
4.327032269689214
 20
9.661809567887278
 30
-0.0000000000000674
 40
0.09375
 41
0.0
 71
     1
 72
     1
  1
{6 15/16"}
  7
SLDTEXTSTYLE2
 73
     1
 44
1.0
1001
ACAD
1000
MTEXTBEGIN
1070
    73
1070
     1
1070
    44
1040
1.0
1070
    74
1070
     0
1000
MTEXTEND
  0
ENDBLK
  5
107
330
FB
100
AcDbEntity
  8
0
100
AcDbBlockEnd
  0
BLOCK
  5
10A
330
109
100
AcDbEntity
  8
0
100
AcDbBlockBegin
  2
_Closed
 70
     0
 10
0.0
 20
0.0
 30
0.0
  3
_Closed
  1

  0
LINE
  5
10C
330
109
100
AcDbEntity
  8
0
  6
ByBlock
 62
     0
370
    -2
100
AcDbLine
 10
-1.0
 20
0.166667
 30
0.0
 11
0.0
 21
0.0
 31
0.0
  0
LINE
  5
10D
330
109
100
AcDbEntity
  8
0
  6
ByBlock
 62
     0
370
    -2
100
AcDbLine
 10
0.0
 20
0.0
 30
0.0
 11
-1.0
 21
-0.166667
 31
0.0
  0
LINE
  5
10E
330
109
100
AcDbEntity
  8
0
  6
ByBlock
 62
     0
370
    -2
100
AcDbLine
 10
-1.0
 20
0.166667
 30
0.0
 11
-1.0
 21
-0.166667
 31
0.0
  0
LINE
  5
10F
330
109
100
AcDbEntity
  8
0
  6
ByBlock
 62
     0
370
    -2
100
AcDbLine
 10
0.0
 20
0.0
 30
0.0
 11
-1.0
 21
0.0
 31
0.0
  0
ENDBLK
  5
10B
330
109
100
AcDbEntity
  8
0
100
AcDbBlockEnd
  0
BLOCK
  5
123
330
118
100
AcDbEntity
  8
0
100
AcDbBlockBegin
  2
*D5
 70
     1
 10
0.0
 20
0.0
 30
0.0
  3
*D5
  1

  0
LINE
  5
34F
330
118
100
AcDbEntity
  8
OBJ
 62
     0
370
    -2
100
AcDbLine
 10
2.607777401598751
 20
18.77686660948254
 30
0.0
 11
2.607777401598751
 21
18.36203245938199
 31
0.0
  0
LINE
  5
350
330
118
100
AcDbEntity
  8
OBJ
 62
     0
370
    -2
100
AcDbLine
 10
0.8735406749680148
 20
20.51110333611327
 30
0.0
 11
0.8735406749680148
 21
18.36203245938199
 31
0.0
  0
LINE
  5
351
330
118
100
AcDbEntity
  8
OBJ
 62
     0
370
    -2
100
AcDbLine
 10
2.451777401598751
 20
18.48703245938199
 30
0.0
 11
2.049679692362711
 21
18.48703245938199
 31
0.0
  0
LINE
  5
352
330
118
100
AcDbEntity
  8
OBJ
 62
     0
370
    -2
100
AcDbLine
 10
1.029540674968014
 20
18.48703245938199
 30
0.0
 11
1.579679692362712
 21
18.48703245938199
 31
0.0
  0
INSERT
  5
353
330
118
100
AcDbEntity
  8
OBJ
 62
     0
370
    -2
100
AcDbBlockReference
  2
_Closed
 10
2.607777401598751
 20
18.48703245938199
 30
0.0
 41
0.156
 42
0.156
 43
0.156
  0
INSERT
  5
354
330
118
100
AcDbEntity
  8
OBJ
 62
     0
370
    -2
100
AcDbBlockReference
  2
_Closed
 10
0.8735406749680148
 20
18.48703245938199
 30
0.0
 41
0.156
 42
0.156
 43
0.156
 50
180.0
  0
MTEXT
  5
355
330
118
100
AcDbEntity
  8
OBJ
 62
     0
100
AcDbMText
 10
1.639679692362711
 20
18.54953245938199
 30
0.0
 40
0.125
 41
0.0
 71
     1
 72
     1
  1
\A1;6.937
  7
SLDTEXTSTYLE2
 73
     1
 44
1.0
1001
ACAD
1000
MTEXTBEGIN
1070
    73
1070
     1
1070
    44
1040
1.0
1070
    74
1070
     0
1000
MTEXTEND
  0
POINT
  5
356
330
118
100
AcDbEntity
  8
Defpoints
 62
     0
100
AcDbPoint
 10
2.607777401598751
 20
18.82686660948254
 30
0.0
  0
POINT
  5
357
330
118
100
AcDbEntity
  8
Defpoints
 62
     0
100
AcDbPoint
 10
0.8735406749680148
 20
20.56110333611327
 30
0.0
  0
POINT
  5
358
330
118
100
AcDbEntity
  8
Defpoints
 62
     0
100
AcDbPoint
 10
0.8735406749680148
 20
18.48703245938199
 30
0.0
  0
ENDBLK
  5
124
330
118
100
AcDbEntity
  8
0
100
AcDbBlockEnd
  0
BLOCK
  5
12D
330
12C
100
AcDbEntity
  8
0
100
AcDbBlockBegin
  2
SW_ANGULAR_DIMENSION_0
 70
     0
 10
0.0
 20
0.0
 30
0.0
  3
SW_ANGULAR_DIMENSION_0
  1

  0
ARC
  5
12F
330
12C
100
AcDbEntity
  8
OBJ
100
AcDbCircle
 10
0.7008913914736926
 20
0.5853154385034198
 30
0.0
 40
0.7804548042132426
100
AcDbArc
 50
180.0000000000004
 51
213.880930843546
  0
ARC
  5
130
330
12C
100
AcDbEntity
  8
OBJ
100
AcDbCircle
 10
0.7008913914736926
 20
0.5853154385034198
 30
0.0
 40
0.7804548042132428
100
AcDbArc
 50
228.5875294377102
 51
270.0000000000008
  0
INSERT
  5
131
330
12C
100
AcDbEntity
  8
OBJ
100
AcDbBlockReference
  2
_Closed
 10
-0.0795634127395498
 20
0.5853154385034174
 30
-0.811515748031493
 41
0.156
 42
0.156
 50
95.65175571430096
  0
INSERT
  5
132
330
12C
100
AcDbEntity
  8
OBJ
100
AcDbBlockReference
  2
_Closed
 10
0.7008913914736926
 20
-0.1951393657098228
 30
-0.811515748031493
 41
0.156
 42
0.156
 50
354.3482442857003
  0
MTEXT
  5
133
330
12C
100
AcDbEntity
  8
OBJ
100
AcDbMText
 10
0.0
 20
0.1256570302233898
 30
-0.0000000000000698
 40
0.09375
 41
0.0
 71
     1
 72
     1
  1
{90°}
  7
SLDTEXTSTYLE2
 73
     1
 44
1.0
1001
ACAD
1000
MTEXTBEGIN
1070
    73
1070
     1
1070
    44
1040
1.0
1070
    74
1070
     0
1000
MTEXTEND
  0
ENDBLK
  5
12E
330
12C
100
AcDbEntity
  8
0
100
AcDbBlockEnd
  0
BLOCK
  5
184
330
179
100
AcDbEntity
  8
0
100
AcDbBlockBegin
  2
*D7
 70
     1
 10
0.0
 20
0.0
 30
0.0
  3
*D7
  1

  0
INSERT
  5
186
330
179
100
AcDbEntity
  8
OBJ
100
AcDbBlockReference
  2
_Closed
 10
3.51860174313966
 20
7.807755210387785
 30
-0.8596341113468643
 41
0.156
 42
0.156
 50
90.0000000000004
  0
INSERT
  5
187
330
179
100
AcDbEntity
  8
OBJ
100
AcDbBlockReference
  2
_Closed
 10
3.51860174313966
 20
6.182755210387785
 30
-0.8596341113468643
 41
0.156
 42
0.156
 50
270.0000000000004
  0
LINE
  5
188
330
179
100
AcDbEntity
  8
OBJ
100
AcDbLine
 10
3.032243363315366
 20
7.807755210387785
 30
0.0
 11
3.64360174313966
 21
7.807755210387785
 31
0.0
  0
LINE
  5
189
330
179
100
AcDbEntity
  8
OBJ
100
AcDbLine
 10
3.032243363315366
 20
6.182755210387785
 30
0.0
 11
3.64360174313966
 21
6.182755210387785
 31
0.0
  0
LINE
  5
18A
330
179
100
AcDbEntity
  8
OBJ
100
AcDbLine
 10
3.51860174313966
 20
7.807755210387785
 30
0.0
 11
3.51860174313966
 21
7.081395437975776
 31
0.0
  0
LINE
  5
18B
330
179
100
AcDbEntity
  8
OBJ
100
AcDbLine
 10
3.51860174313966
 20
6.182755210387785
 30
0.0
 11
3.51860174313966
 21
6.93115922898428
 31
0.0
  0
MTEXT
  5
18C
330
179
100
AcDbEntity
  8
OBJ
100
AcDbMText
 10
3.256301864646343
 20
7.056816259207674
 30
-0.0000000000000492
 40
0.09375
 41
0.0
 71
     1
 72
     1
  1
{6 1/2"}
  7
SLDTEXTSTYLE2
 73
     1
 44
1.0
1001
ACAD
1000
MTEXTBEGIN
1070
    73
1070
     1
1070
    44
1040
1.0
1070
    74
1070
     0
1000
MTEXTEND
  0
ENDBLK
  5
185
330
179
100
AcDbEntity
  8
0
100
AcDbBlockEnd
  0
BLOCK
  5
2B4
330
2A9
100
AcDbEntity
  8
0
100
AcDbBlockBegin
  2
*D8
 70
     1
 10
0.0
 20
0.0
 30
0.0
  3
*D8
  1

  0
INSERT
  5
2B6
330
2A9
100
AcDbEntity
  8
OBJ
100
AcDbBlockReference
  2
_Closed
 10
2.278330392979626
 20
5.11878454895554
 30
-0.0055157480334892
 41
0.156
 42
0.156
 50
180.0000000000004
  0
INSERT
  5
2B7
330
2A9
100
AcDbEntity
  8
OBJ
100
AcDbBlockReference
  2
_Closed
 10
4.012705392979627
 20
5.11878454895554
 30
-0.0055157480334892
 41
0.156
 42
0.156
 50
360.0000000000004
  0
LINE
  5
2B8
330
2A9
100
AcDbEntity
  8
OBJ
100
AcDbLine
 10
2.278330392979626
 20
4.851541850224601
 30
0.0
 11
2.278330392979626
 21
5.243784548955541
 31
0.0
  0
LINE
  5
2B9
330
2A9
100
AcDbEntity
  8
OBJ
100
AcDbLine
 10
4.012705392979627
 20
4.882791850224601
 30
0.0
 11
4.012705392979627
 21
5.243784548955541
 31
0.0
  0
LINE
  5
2BA
330
2A9
100
AcDbEntity
  8
OBJ
100
AcDbLine
 10
2.278330392979626
 20
5.11878454895554
 30
0.0
 11
2.795373462710893
 21
5.11878454895554
 31
0.0
  0
LINE
  5
2BB
330
2A9
100
AcDbEntity
  8
OBJ
100
AcDbLine
 10
4.012705392979627
 20
5.11878454895554
 30
0.0
 11
3.624111494302631
 21
5.11878454895554
 31
0.0
  0
MTEXT
  5
2BC
330
2A9
100
AcDbEntity
  8
OBJ
100
AcDbMText
 10
2.857873462710893
 20
5.169323474683181
 30
-0.000000000000036
 40
0.09375
 41
0.0
 71
     1
 72
     1
  1
{6 15/16"}
  7
SLDTEXTSTYLE2
 73
     1
 44
1.0
1001
ACAD
1000
MTEXTBEGIN
1070
    73
1070
     1
1070
    44
1040
1.0
1070
    74
1070
     0
1000
MTEXTEND
  0
ENDBLK
  5
2B5
330
2A9
100
AcDbEntity
  8
0
100
AcDbBlockEnd
  0
BLOCK
  5
2C9
330
2BE
100
AcDbEntity
  8
0
100
AcDbBlockBegin
  2
*D9
 70
     1
 10
0.0
 20
0.0
 30
0.0
  3
*D9
  1

  0
INSERT
  5
2CB
330
2BE
100
AcDbEntity
  8
OBJ
100
AcDbBlockReference
  2
_Closed
 10
2.278330392979626
 20
5.406381195418342
 30
-0.0055157480334892
 41
0.156
 42
0.156
 50
180.0000000000004
  0
INSERT
  5
2CC
330
2BE
100
AcDbEntity
  8
OBJ
100
AcDbBlockReference
  2
_Closed
 10
5.747080392979625
 20
5.406381195418338
 30
-0.0055157480334892
 41
0.156
 42
0.156
 50
360.0000000000004
  0
LINE
  5
2CD
330
2BE
100
AcDbEntity
  8
OBJ
100
AcDbLine
 10
2.278330392979626
 20
4.851541850224601
 30
0.0
 11
2.278330392979626
 21
5.531381195418342
 31
0.0
  0
LINE
  5
2CE
330
2BE
100
AcDbEntity
  8
OBJ
100
AcDbLine
 10
5.747080392979625
 20
4.851541850224781
 30
0.0
 11
5.747080392979625
 21
5.531381195418339
 31
0.0
  0
LINE
  5
2CF
330
2BE
100
AcDbEntity
  8
OBJ
100
AcDbLine
 10
2.278330392979626
 20
5.406381195418342
 30
0.0
 11
3.613074018730946
 21
5.40638119541834
 31
0.0
  0
LINE
  5
2D0
330
2BE
100
AcDbEntity
  8
OBJ
100
AcDbLine
 10
5.747080392979625
 20
5.406381195418338
 30
0.0
 11
4.352242913020133
 21
5.40638119541834
 31
0.0
  0
MTEXT
  5
2D1
330
2BE
100
AcDbEntity
  8
OBJ
100
AcDbMText
 10
3.675574018730946
 20
5.456920121145981
 30
-0.000000000000038
 40
0.09375
 41
0.0
 71
     1
 72
     1
  1
{13 7/8"}
  7
SLDTEXTSTYLE2
 73
     1
 44
1.0
1001
ACAD
1000
MTEXTBEGIN
1070
    73
1070
     1
1070
    44
1040
1.0
1070
    74
1070
     0
1000
MTEXTEND
  0
ENDBLK
  5
2CA
330
2BE
100
AcDbEntity
  8
0
100
AcDbBlockEnd
  0
BLOCK
  5
2DE
330
2D3
100
AcDbEntity
  8
0
100
AcDbBlockBegin
  2
*D10
 70
     1
 10
0.0
 20
0.0
 30
0.0
  3
*D10
  1

  0
INSERT
  5
2E0
330
2D3
100
AcDbEntity
  8
OBJ
100
AcDbBlockReference
  2
_Closed
 10
1.852645803010444
 20
4.035916850224578
 30
-0.0055157480334892
 41
0.156
 42
0.156
 50
270.0000000000034
  0
INSERT
  5
2E1
330
2D3
100
AcDbEntity
  8
OBJ
100
AcDbBlockReference
  2
_Closed
 10
1.852645803010403
 20
4.832791850224579
 30
-0.0055157480334892
 41
0.156
 42
0.156
 50
90.00000000000339
  0
LINE
  5
2E2
330
2D3
100
AcDbEntity
  8
OBJ
100
AcDbLine
 10
2.259580392979624
 20
4.035916850224599
 30
0.0
 11
1.727645803010444
 21
4.035916850224571
 31
0.0
  0
LINE
  5
2E3
330
2D3
100
AcDbEntity
  8
OBJ
100
AcDbLine
 10
2.259580392979625
 20
4.832791850224601
 30
0.0
 11
1.727645803010404
 21
4.832791850224572
 31
0.0
  0
LINE
  5
2E4
330
2D3
100
AcDbEntity
  8
OBJ
100
AcDbLine
 10
1.852645803010444
 20
4.035916850224578
 30
0.0
 11
1.852645803010426
 21
4.396573989918492
 31
0.0
  0
LINE
  5
2E5
330
2D3
100
AcDbEntity
  8
OBJ
100
AcDbLine
 10
1.852645803010403
 20
4.832791850224579
 30
0.0
 11
1.852645803010418
 21
4.546810198909985
 31
0.0
  0
MTEXT
  5
2E6
330
2D3
100
AcDbEntity
  8
OBJ
100
AcDbMText
 10
1.54556135586583
 20
4.52223102014188
 30
-0.0000000000000315
 40
0.09375
 41
0.0
 71
     1
 72
     1
  1
{3 3/16"}
  7
SLDTEXTSTYLE2
 73
     1
 44
1.0
1001
ACAD
1000
MTEXTBEGIN
1070
    73
1070
     1
1070
    44
1040
1.0
1070
    74
1070
     0
1000
MTEXTEND
  0
ENDBLK
  5
2DF
330
2D3
100
AcDbEntity
  8
0
100
AcDbBlockEnd
  0
BLOCK
  5
2F3
330
2E8
100
AcDbEntity
  8
0
100
AcDbBlockBegin
  2
*D11
 70
     1
 10
0.0
 20
0.0
 30
0.0
  3
*D11
  1

  0
INSERT
  5
2F5
330
2E8
100
AcDbEntity
  8
OBJ
100
AcDbBlockReference
  2
_Closed
 10
1.852645803010401
 20
4.004666850224578
 30
-0.0055157480334892
 41
0.156
 42
0.156
 50
90.00000000000341
  0
INSERT
  5
2F6
330
2E8
100
AcDbEntity
  8
OBJ
100
AcDbBlockReference
  2
_Closed
 10
1.852645803010443
 20
3.207791850224578
 30
-0.0055157480334892
 41
0.156
 42
0.156
 50
270.0000000000034
  0
LINE
  5
2F7
330
2E8
100
AcDbEntity
  8
OBJ
100
AcDbLine
 10
2.259580392979625
 20
4.004666850224599
 30
0.0
 11
1.727645803010403
 21
4.004666850224571
 31
0.0
  0
LINE
  5
2F8
330
2E8
100
AcDbEntity
  8
OBJ
100
AcDbLine
 10
2.259580392979626
 20
3.207791850224598
 30
0.0
 11
1.727645803010443
 21
3.207791850224571
 31
0.0
  0
LINE
  5
2F9
330
2E8
100
AcDbEntity
  8
OBJ
100
AcDbLine
 10
1.852645803010401
 20
4.004666850224578
 30
0.0
 11
1.852645803010418
 21
3.71098244512747
 31
0.0
  0
LINE
  5
2FA
330
2E8
100
AcDbEntity
  8
OBJ
100
AcDbLine
 10
1.852645803010443
 20
3.207791850224578
 30
0.0
 11
1.852645803010426
 21
3.560746236135976
 31
0.0
  0
MTEXT
  5
2FB
330
2E8
100
AcDbEntity
  8
OBJ
100
AcDbMText
 10
1.545561355865828
 20
3.686403266359365
 30
-0.0000000000000256
 40
0.09375
 41
0.0
 71
     1
 72
     1
  1
{3 3/16"}
  7
SLDTEXTSTYLE2
 73
     1
 44
1.0
1001
ACAD
1000
MTEXTBEGIN
1070
    73
1070
     1
1070
    44
1040
1.0
1070
    74
1070
     0
1000
MTEXTEND
  0
ENDBLK
  5
2F4
330
2E8
100
AcDbEntity
  8
0
100
AcDbBlockEnd
  0
BLOCK
  5
308
330
2FD
100
AcDbEntity
  8
0
100
AcDbBlockBegin
  2
*D12
 70
     1
 10
0.0
 20
0.0
 30
0.0
  3
*D12
  1

  0
INSERT
  5
30A
330
2FD
100
AcDbEntity
  8
OBJ
100
AcDbBlockReference
  2
_Closed
 10
6.166595499952476
 20
3.207791850224805
 30
-0.0055157480334892
 41
0.156
 42
0.156
 50
270.0000000000034
  0
INSERT
  5
30B
330
2FD
100
AcDbEntity
  8
OBJ
100
AcDbBlockReference
  2
_Closed
 10
6.166595499952392
 20
4.832791850224803
 30
-0.0055157480334892
 41
0.156
 42
0.156
 50
90.00000000000339
  0
LINE
  5
30C
330
2FD
100
AcDbEntity
  8
OBJ
100
AcDbLine
 10
5.765830392979625
 20
3.207791850224783
 30
0.0
 11
6.291595499952478
 21
3.20779185022481
 31
0.0
  0
LINE
  5
30D
330
2FD
100
AcDbEntity
  8
OBJ
100
AcDbLine
 10
5.765830392979625
 20
4.832791850224784
 30
0.0
 11
6.291595499952394
 21
4.832791850224809
 31
0.0
  0
LINE
  5
30E
330
2FD
100
AcDbEntity
  8
OBJ
100
AcDbLine
 10
6.166595499952476
 20
3.207791850224805
 30
0.0
 11
6.16659549995244
 21
3.947204229820363
 31
0.0
  0
LINE
  5
30F
330
2FD
100
AcDbEntity
  8
OBJ
100
AcDbLine
 10
6.166595499952392
 20
4.832791850224803
 30
0.0
 11
6.166595499952433
 21
4.097440438811857
 31
0.0
  0
MTEXT
  5
310
330
2FD
100
AcDbEntity
  8
OBJ
100
AcDbMText
 10
5.90429562145912
 20
4.072861260043754
 30
-0.0000000000000283
 40
0.09375
 41
0.0
 71
     1
 72
     1
  1
{6 1/2"}
  7
SLDTEXTSTYLE2
 73
     1
 44
1.0
1001
ACAD
1000
MTEXTBEGIN
1070
    73
1070
     1
1070
    44
1040
1.0
1070
    74
1070
     0
1000
MTEXTEND
  0
ENDBLK
  5
309
330
2FD
100
AcDbEntity
  8
0
100
AcDbBlockEnd
  0
BLOCK
  5
31B
330
312
100
AcDbEntity
  8
0
100
AcDbBlockBegin
  2
*D13
 70
     1
 10
0.0
 20
0.0
 30
0.0
  3
*D13
  1

  0
INSERT
  5
31F
330
312
100
AcDbEntity
  8
OBJ
100
AcDbBlockReference
  2
_Closed
 10
5.668151151281344
 20
4.755970970797393
 30
-0.0055157480334892
 41
0.156
 42
0.156
 50
228.7991692949862
  0
LINE
  5
320
330
312
100
AcDbEntity
  8
OBJ
100
AcDbLine
 10
5.668151151281344
 20
4.755970970797393
 30
0.0
 11
5.985779720786799
 21
5.11878454895554
 31
0.0
  0
LINE
  5
321
330
312
100
AcDbEntity
  8
OBJ
100
AcDbLine
 10
5.985779720786799
 20
5.11878454895554
 30
0.0
 11
6.235779720786799
 21
5.11878454895554
 31
0.0
  0
MTEXT
  5
322
330
312
100
AcDbEntity
  8
OBJ
100
AcDbMText
 10
6.298279720786799
 20
5.169323474683181
 30
-0.000000000000036
 40
0.09375
 41
0.0
 71
     1
 72
     1
  1
{%%c}
  7
SLDTEXTSTYLE2
 73
     1
 44
1.0
1001
ACAD
1000
MTEXTBEGIN
1070
    73
1070
     1
1070
    44
1040
1.0
1070
    74
1070
     0
1000
MTEXTEND
  0
MTEXT
  5
323
330
312
100
AcDbEntity
  8
OBJ
100
AcDbMText
 10
6.441017752378537
 20
5.169323474683181
 30
-0.000000000000036
 40
0.09375
 41
0.0
 71
     1
 72
     1
  1
{.180}
  7
SLDTEXTSTYLE2
 73
     1
 44
1.0
1001
ACAD
1000
MTEXTBEGIN
1070
    73
1070
     1
1070
    44
1040
1.0
1070
    74
1070
     0
1000
MTEXTEND
  0
MTEXT
  5
324
330
312
100
AcDbEntity
  8
OBJ
100
AcDbMText
 10
6.755668542171976
 20
5.169323474683181
 30
-0.000000000000036
 40
0.09375
 41
0.0
 71
     1
 72
     1
  1
{±.001}
  7
SLDTEXTSTYLE2
 73
     1
 44
1.0
1001
ACAD
1000
MTEXTBEGIN
1070
    73
1070
     1
1070
    44
1040
1.0
1070
    74
1070
     0
1000
MTEXTEND
  0
MTEXT
  5
325
330
312
100
AcDbEntity
  8
OBJ
100
AcDbMText
 10
7.186336585914382
 20
5.169323474683181
 30
-0.000000000000036
 40
0.09375
 41
0.0
 71
     1
 72
     1
  1
{ (16)}
  7
SLDTEXTSTYLE2
 73
     1
 44
1.0
1001
ACAD
1000
MTEXTBEGIN
1070
    73
1070
     1
1070
    44
1040
1.0
1070
    74
1070
     0
1000
MTEXTEND
  0
ENDBLK
  5
31C
330
312
100
AcDbEntity
  8
0
100
AcDbBlockEnd
  0
BLOCK
  5
330
330
327
100
AcDbEntity
  8
0
100
AcDbBlockBegin
  2
*D14
 70
     1
 10
0.0
 20
0.0
 30
0.0
  3
*D14
  1

  0
INSERT
  5
333
330
327
100
AcDbEntity
  8
OBJ
100
AcDbBlockReference
  2
_Closed
 10
2.612259161789759
 20
3.422548495316997
 30
-0.0055157480334892
 41
0.156
 42
0.156
 50
64.11927356323758
  0
LINE
  5
334
330
327
100
AcDbEntity
  8
OBJ
100
AcDbLine
 10
2.612259161789759
 20
3.422548495316997
 30
0.0
 11
2.372082286716663
 21
2.9275
 31
0.0
  0
LINE
  5
335
330
327
100
AcDbEntity
  8
OBJ
100
AcDbLine
 10
2.372082286716663
 20
2.9275
 30
0.0
 11
2.122082286716663
 21
2.9275
 31
0.0
  0
MTEXT
  5
336
330
327
100
AcDbEntity
  8
OBJ
100
AcDbMText
 10
0.9017955309450972
 20
2.902920821231894
 30
-0.0000000000000202
 40
0.09375
 41
0.0
 71
     1
 72
     1
  1
{PUNCH SLOT}
  7
SLDTEXTSTYLE2
 73
     1
 44
1.0
1001
ACAD
1000
MTEXTBEGIN
1070
    73
1070
     1
1070
    44
1040
1.0
1070
    74
1070
     0
1000
MTEXTEND
  0
MTEXT
  5
338
330
327
100
AcDbEntity
  8
OBJ
100
AcDbMText
 10
0.6914527302160575
 20
3.083204272021689
 30
-0.0000000000000214
 40
0.09375
 41
0.0
 71
     1
 72
     1
  1
{0.180 x 0.300 (4)}
  7
SLDTEXTSTYLE11
 73
     1
 44
1.0
1001
ACAD
1000
MTEXTBEGIN
1070
    73
1070
     1
1070
    44
1040
1.0
1070
    74
1070
     0
1000
MTEXTEND
  0
ENDBLK
  5
331
330
327
100
AcDbEntity
  8
0
100
AcDbBlockEnd
  0
BLOCK
  5
33A
330
339
100
AcDbEntity
  8
0
100
AcDbBlockBegin
  2
SW_NOTE_2
 70
     0
 10
0.0
 20
0.0
 30
0.0
  3
SW_NOTE_2
  1

  0
MTEXT
  5
33C
330
339
100
AcDbEntity
  8
OBJ
100
AcDbMText
 10
0.0197554905854171
 20
0.1257539313089897
 30
0.0065000000019927
 40
0.09375
 41
0.0
 71
     1
 72
     1
  1
{0.180 x 0.180 (8)}
  7
SLDTEXTSTYLE11
 73
     1
 44
1.0
1001
ACAD
1000
MTEXTBEGIN
1070
    73
1070
     1
1070
    44
1040
1.0
1070
    74
1070
     0
1000
MTEXTEND
  0
MTEXT
  5
33D
330
339
100
AcDbEntity
  8
OBJ
100
AcDbMText
 10
0.1385922511063522
 20
0.0007539328196389
 30
0.0065000000019927
 40
0.09375
 41
0.0
 71
     1
 72
     1
  1
{PUNCH SQUARE}
  7
SLDTEXTSTYLE2
 73
     1
 44
1.0
1001
ACAD
1000
MTEXTBEGIN
1070
    73
1070
     1
1070
    44
1040
1.0
1070
    74
1070
     0
1000
MTEXTEND
  0
ENDBLK
  5
33B
330
339
100
AcDbEntity
  8
0
100
AcDbBlockEnd
  0
BLOCK
  5
342
330
341
100
AcDbEntity
  8
0
100
AcDbBlockBegin
  2
SW_NOTE_3
 70
     0
 10
0.0
 20
0.0
 30
0.0
  3
SW_NOTE_3
  1

  0
MTEXT
  5
344
330
341
100
AcDbEntity
  8
OBJ
100
AcDbMText
 10
0.0
 20
0.1256570302233903
 30
-0.0000000000000201
 40
0.09375
 41
0.0
 71
     1
 72
     1
  1
{FLAT LAYOUT}
  7
SLDTEXTSTYLE2
 73
     1
 44
1.0
1001
ACAD
1000
MTEXTBEGIN
1070
    73
1070
     1
1070
    44
1040
1.0
1070
    74
1070
     0
1000
MTEXTEND
  0
MTEXT
  5
346
330
341
100
AcDbEntity
  8
OBJ
100
AcDbMText
 10
-0.4777776106722712
 20
0.0006570317340395
 30
-0.0000000000000201
 40
0.09375
 41
0.0
 71
     1
 72
     1
  1
{0.045 MIN. BEND RADIUS}
  7
SLDTEXTSTYLE12
 73
     1
 44
1.0
1001
ACAD
1000
MTEXTBEGIN
1070
    73
1070
     1
1070
    44
1040
1.0
1070
    74
1070
     0
1000
MTEXTEND
  0
MTEXT
  5
347
330
341
100
AcDbEntity
  8
OBJ
100
AcDbMText
 10
-0.4952254624465321
 20
-0.1243429667553113
 30
-0.0000000000000201
 40
0.09375
 41
0.0
 71
     1
 72
     1
  1
{0.090 MAX. BEND RADIUS}
  7
SLDTEXTSTYLE12
 73
     1
 44
1.0
1001
ACAD
1000
MTEXTBEGIN
1070
    73
1070
     1
1070
    44
1040
1.0
1070
    74
1070
     0
1000
MTEXTEND
  0
ENDBLK
  5
343
330
341
100
AcDbEntity
  8
0
100
AcDbBlockEnd
  0
ENDSEC
  0
SECTION
  2
ENTITIES
  0
LINE
  5
A8
330
1F
100
AcDbEntity
  8
0
  6
Continuous
 62
     7
370
    15
100
AcDbLine
 10
3.511794730980993
 20
1.83383672202105
 30
0.0
 11
3.504543904781538
 21
1.83383672202105
 31
0.0
  0
LINE
  5
A9
330
1F
100
AcDbEntity
  8
0
  6
Continuous
 62
     7
370
    15
100
AcDbLine
 10
3.504543904781538
 20
1.424234743868534
 30
0.0
 11
3.511794730980993
 21
1.424234743868534
 31
0.0
  0
LINE
  5
AA
330
1F
100
AcDbEntity
  8
0
  6
Continuous
 62
     7
370
    15
100
AcDbLine
 10
3.504543904781538
 20
1.424234743868534
 30
0.0
 11
3.504543904781538
 21
1.83383672202105
 31
0.0
  0
LINE
  5
AB
330
1F
100
AcDbEntity
  8
0
  6
Continuous
 62
     7
370
    15
100
AcDbLine
 10
3.511794730980993
 20
1.424234743868534
 30
0.0
 11
3.511794730980993
 21
1.83383672202105
 31
0.0
  0
LINE
  5
AC
330
1F
100
AcDbEntity
  8
0
  6
Continuous
 62
     7
370
    15
100
AcDbLine
 10
3.511794730980993
 20
1.406804885511498
 30
0.0
 11
3.504543904781538
 21
1.406804885511498
 31
0.0
  0
LINE
  5
AD
330
1F
100
AcDbEntity
  8
0
  6
Continuous
 62
     7
370
    15
100
AcDbLine
 10
3.504543904781538
 20
1.406804885511498
 30
0.0
 11
3.504543904781538
 21
1.424234743868534
 31
0.0
  0
LINE
  5
AE
330
1F
100
AcDbEntity
  8
0
  6
Continuous
 62
     7
370
    15
100
AcDbLine
 10
3.511794730980993
 20
1.424234743868534
 30
0.0
 11
3.511794730980993
 21
1.406804885511498
 31
0.0
  0
LINE
  5
AF
330
1F
100
AcDbEntity
  8
0
  6
Continuous
 62
     7
370
    15
100
AcDbLine
 10
3.511794730980993
 20
0.9449133322878767
 30
0.0
 11
3.504543904781538
 21
0.9449133322878767
 31
0.0
  0
LINE
  5
B0
330
1F
100
AcDbEntity
  8
0
  6
Continuous
 62
     7
370
    15
100
AcDbLine
 10
3.504543904781538
 20
0.9449133322878767
 30
0.0
 11
3.504543904781538
 21
0.9623432021484932
 31
0.0
  0
LINE
  5
B1
330
1F
100
AcDbEntity
  8
0
  6
Continuous
 62
     7
370
    15
100
AcDbLine
 10
3.504543904781538
 20
0.9623432021484932
 30
0.0
 11
3.511794730980993
 21
0.9623432021484932
 31
0.0
  0
LINE
  5
B2
330
1F
100
AcDbEntity
  8
0
  6
Continuous
 62
     7
370
    15
100
AcDbLine
 10
3.511794730980993
 20
0.9623432021484932
 30
0.0
 11
3.511794730980993
 21
0.9449133322878767
 31
0.0
  0
LINE
  5
B3
330
1F
100
AcDbEntity
  8
0
  6
Continuous
 62
     7
370
    15
100
AcDbLine
 10
3.504543904781538
 20
1.83383672202105
 30
0.0
 11
3.504543904781538
 21
1.851266539476463
 31
0.0
  0
LINE
  5
B4
330
1F
100
AcDbEntity
  8
0
  6
Continuous
 62
     7
370
    15
100
AcDbLine
 10
3.504543904781538
 20
1.851266539476463
 30
0.0
 11
3.511794730980993
 21
1.851266539476463
 31
0.0
  0
LINE
  5
B5
330
1F
100
AcDbEntity
  8
0
  6
Continuous
 62
     7
370
    15
100
AcDbLine
 10
3.511794730980993
 20
1.851266539476463
 30
0.0
 11
3.511794730980993
 21
1.83383672202105
 31
0.0
  0
LINE
  5
B6
330
1F
100
AcDbEntity
  8
0
  6
Continuous
 62
     7
370
    15
100
AcDbLine
 10
3.511794730980993
 20
1.371945168797427
 30
0.0
 11
3.504543904781538
 21
1.371945168797427
 31
0.0
  0
LINE
  5
B7
330
1F
100
AcDbEntity
  8
0
  6
Continuous
 62
     7
370
    15
100
AcDbLine
 10
3.504543904781538
 20
1.371945168797427
 30
0.0
 11
3.504543904781538
 21
1.389375027154462
 31
0.0
  0
LINE
  5
B8
330
1F
100
AcDbEntity
  8
0
  6
Continuous
 62
     7
370
    15
100
AcDbLine
 10
3.504543904781538
 20
1.389375027154462
 30
0.0
 11
3.511794730980993
 21
1.389375027154462
 31
0.0
  0
LINE
  5
B9
330
1F
100
AcDbEntity
  8
0
  6
Continuous
 62
     7
370
    15
100
AcDbLine
 10
3.511794730980993
 20
1.389375027154462
 30
0.0
 11
3.511794730980993
 21
1.371945168797427
 31
0.0
  0
LINE
  5
BA
330
1F
100
AcDbEntity
  8
0
  6
Continuous
 62
     7
370
    15
100
AcDbLine
 10
3.504543904781538
 20
0.9623432021484932
 30
0.0
 11
3.504543904781538
 21
1.371945168797427
 31
0.0
  0
LINE
  5
BB
330
1F
100
AcDbEntity
  8
0
  6
Continuous
 62
     7
370
    15
100
AcDbLine
 10
3.511794730980993
 20
0.9623432021484932
 30
0.0
 11
3.511794730980993
 21
1.371945168797427
 31
0.0
  0
LINE
  5
BC
330
1F
100
AcDbEntity
  8
0
  6
Continuous
 62
     7
370
    15
100
AcDbLine
 10
3.504543904781538
 20
1.406804885511498
 30
0.0
 11
3.504543904781538
 21
1.389375027154462
 31
0.0
  0
LINE
  5
BD
330
1F
100
AcDbEntity
  8
0
  6
Continuous
 62
     7
370
    15
100
AcDbLine
 10
3.511794730980993
 20
1.406804885511498
 30
0.0
 11
3.511794730980993
 21
1.389375027154462
 31
0.0
  0
LINE
  5
BE
330
1F
100
AcDbEntity
  8
0
  6
Continuous
 62
     7
370
    15
100
AcDbLine
 10
3.504543904777091
 20
0.9449133322878767
 30
0.0
 11
3.498269151708406
 21
0.9449133322878767
 31
0.0
  0
LINE
  5
BF
330
1F
100
AcDbEntity
  8
0
  6
Continuous
 62
     7
370
    15
100
AcDbLine
 10
3.498269151708406
 20
1.851266539476463
 30
0.0
 11
3.504543904781538
 21
1.851266539476463
 31
0.0
  0
CIRCLE
  5
C0
330
1F
100
AcDbEntity
  8
0
  6
Continuous
 62
     7
370
    15
100
AcDbCircle
 10
2.589552848819891
 20
0.9972029425016597
 30
0.0
 40
0.0125495064513077
  0
CIRCLE
  5
C1
330
1F
100
AcDbEntity
  8
0
  6
Continuous
 62
     7
370
    15
100
AcDbCircle
 10
2.589552848819891
 20
1.174290422425667
 30
0.0
 40
0.0125495064513077
  0
CIRCLE
  5
C2
330
1F
100
AcDbEntity
  8
0
  6
Continuous
 62
     7
370
    15
100
AcDbCircle
 10
2.589552848819891
 20
1.798976965779649
 30
0.0
 40
0.0125495064513077
  0
CIRCLE
  5
C3
330
1F
100
AcDbEntity
  8
0
  6
Continuous
 62
     7
370
    15
100
AcDbCircle
 10
2.711561939318715
 20
1.6337417975041
 30
0.0
 40
0.0125495064513077
  0
CIRCLE
  5
C4
330
1F
100
AcDbEntity
  8
0
  6
Continuous
 62
     7
370
    15
100
AcDbCircle
 10
3.17491760529311
 20
1.699278108972038
 30
0.0
 40
0.0125495064513072
  0
CIRCLE
  5
C5
330
1F
100
AcDbEntity
  8
0
  6
Continuous
 62
     7
370
    15
100
AcDbCircle
 10
3.295462586705947
 20
1.570994265247558
 30
0.0
 40
0.0125495064513077
  0
CIRCLE
  5
C6
330
1F
100
AcDbEntity
  8
0
  6
Continuous
 62
     7
370
    15
100
AcDbCircle
 10
2.868430769960061
 20
1.106662526549175
 30
0.0
 40
0.0125495064513077
  0
CIRCLE
  5
C7
330
1F
100
AcDbEntity
  8
0
  6
Continuous
 62
     7
370
    15
100
AcDbCircle
 10
3.201689885722566
 20
1.106662526549175
 30
0.0
 40
0.0125495064513077
  0
LINE
  5
C8
330
1F
100
AcDbEntity
  8
0
  6
Continuous
 62
     7
370
    15
100
AcDbLine
 10
2.941675161908479
 20
1.69724812563737
 30
0.0
 11
2.959422825873131
 21
1.714995748700399
 31
0.0
  0
LINE
  5
C9
330
1F
100
AcDbEntity
  8
0
  6
Continuous
 62
     7
370
    15
100
AcDbLine
 10
2.959422825873131
 20
1.714995748700399
 30
0.0
 11
2.941675161908479
 21
1.732743453566671
 31
0.0
  0
LINE
  5
CA
330
1F
100
AcDbEntity
  8
0
  6
Continuous
 62
     7
370
    15
100
AcDbLine
 10
2.941675161908479
 20
1.732743453566671
 30
0.0
 11
2.923927457042207
 21
1.714995748700399
 31
0.0
  0
LINE
  5
CB
330
1F
100
AcDbEntity
  8
0
  6
Continuous
 62
     7
370
    15
100
AcDbLine
 10
2.923927457042207
 20
1.714995748700399
 30
0.0
 11
2.941675161908479
 21
1.69724812563737
 31
0.0
  0
LINE
  5
CC
330
1F
100
AcDbEntity
  8
0
  6
Continuous
 62
     7
370
    15
100
AcDbLine
 10
2.640068723729219
 20
1.23215759515765
 30
0.0
 11
2.657816346792245
 21
1.24990527957311
 31
0.0
  0
LINE
  5
CD
330
1F
100
AcDbEntity
  8
0
  6
Continuous
 62
     7
370
    15
100
AcDbLine
 10
2.657816346792245
 20
1.24990527957311
 30
0.0
 11
2.640068723729219
 21
1.267652963988572
 31
0.0
  0
LINE
  5
CE
330
1F
100
AcDbEntity
  8
0
  6
Continuous
 62
     7
370
    15
100
AcDbLine
 10
2.640068723729219
 20
1.267652963988572
 30
0.0
 11
2.622321018862946
 21
1.24990527957311
 31
0.0
  0
LINE
  5
CF
330
1F
100
AcDbEntity
  8
0
  6
Continuous
 62
     7
370
    15
100
AcDbLine
 10
2.622321018862946
 20
1.24990527957311
 30
0.0
 11
2.640068723729219
 21
1.23215759515765
 31
0.0
  0
LINE
  5
D0
330
1F
100
AcDbEntity
  8
0
  6
Continuous
 62
     7
370
    15
100
AcDbLine
 10
2.858987869034523
 20
1.507611106378459
 30
0.0
 11
2.876735532999173
 21
1.525358811244731
 31
0.0
  0
LINE
  5
D1
330
1F
100
AcDbEntity
  8
0
  6
Continuous
 62
     7
370
    15
100
AcDbLine
 10
2.876735532999173
 20
1.525358811244731
 30
0.0
 11
2.858987869034523
 21
1.543106475209381
 31
0.0
  0
LINE
  5
D2
330
1F
100
AcDbEntity
  8
0
  6
Continuous
 62
     7
370
    15
100
AcDbLine
 10
2.858987869034523
 20
1.543106475209381
 30
0.0
 11
2.841240164168251
 21
1.525358811244731
 31
0.0
  0
LINE
  5
D3
330
1F
100
AcDbEntity
  8
0
  6
Continuous
 62
     7
370
    15
100
AcDbLine
 10
2.841240164168251
 20
1.525358811244731
 30
0.0
 11
2.858987869034523
 21
1.507611106378459
 31
0.0
  0
LINE
  5
D4
330
1F
100
AcDbEntity
  8
0
  6
Continuous
 62
     7
370
    15
100
AcDbLine
 10
3.062948104807396
 20
1.140127880862034
 30
0.0
 11
3.080695809673668
 21
1.157875565277494
 31
0.0
  0
LINE
  5
D5
330
1F
100
AcDbEntity
  8
0
  6
Continuous
 62
     7
370
    15
100
AcDbLine
 10
3.080695809673668
 20
1.157875565277494
 30
0.0
 11
3.062948104807396
 21
1.175623249692957
 31
0.0
  0
LINE
  5
D6
330
1F
100
AcDbEntity
  8
0
  6
Continuous
 62
     7
370
    15
100
AcDbLine
 10
3.062948104807396
 20
1.175623249692957
 30
0.0
 11
3.045200440842745
 21
1.157875565277494
 31
0.0
  0
LINE
  5
D7
330
1F
100
AcDbEntity
  8
0
  6
Continuous
 62
     7
370
    15
100
AcDbLine
 10
3.045200440842745
 20
1.157875565277494
 30
0.0
 11
3.062948104807396
 21
1.140127880862034
 31
0.0
  0
LINE
  5
D8
330
1F
100
AcDbEntity
  8
0
  6
Continuous
 62
     7
370
    15
100
AcDbLine
 10
2.741541313831604
 20
1.092718626047305
 30
0.0
 11
2.741541313831604
 21
1.075985956298324
 31
0.0
  0
ARC
  5
D9
330
1F
100
AcDbEntity
  8
0
  6
Continuous
 62
     7
370
    15
100
AcDbCircle
 10
2.728991809389976
 20
1.092718630492167
 30
0.0
 40
0.0125495064513077
100
AcDbArc
 50
0.0
 51
180.0000000000004
  0
LINE
  5
DA
330
1F
100
AcDbEntity
  8
0
  6
Continuous
 62
     7
370
    15
100
AcDbLine
 10
2.716442278531915
 20
1.075985956298324
 30
0.0
 11
2.716442278531915
 21
1.092718626047305
 31
0.0
  0
ARC
  5
DB
330
1F
100
AcDbEntity
  8
0
  6
Continuous
 62
     7
370
    15
100
AcDbCircle
 10
2.728991809389976
 20
1.075985955223756
 30
0.0
 40
0.0125495064513077
100
AcDbArc
 50
180.0000000000004
 51
0.0
  0
LINE
  5
DC
330
1F
100
AcDbEntity
  8
0
  6
Continuous
 62
     7
370
    15
100
AcDbLine
 10
2.741541313831604
 20
1.267017332322532
 30
0.0
 11
2.741541313831604
 21
1.250284662573553
 31
0.0
  0
ARC
  5
DD
330
1F
100
AcDbEntity
  8
0
  6
Continuous
 62
     7
370
    15
100
AcDbCircle
 10
2.728991809389976
 20
1.267017331204774
 30
0.0
 40
0.0125495064513077
100
AcDbArc
 50
0.0
 51
180.0000000000004
  0
LINE
  5
DE
330
1F
100
AcDbEntity
  8
0
  6
Continuous
 62
     7
370
    15
100
AcDbLine
 10
2.716442278531915
 20
1.250284662573553
 30
0.0
 11
2.716442278531915
 21
1.267017332322532
 31
0.0
  0
ARC
  5
DF
330
1F
100
AcDbEntity
  8
0
  6
Continuous
 62
     7
370
    15
100
AcDbCircle
 10
2.728991809389976
 20
1.250284655936362
 30
0.0
 40
0.0125495064513077
100
AcDbArc
 50
180.0000000000004
 51
0.0
  0
LINE
  5
E0
330
1F
100
AcDbEntity
  8
0
  6
Continuous
 62
     7
370
    15
100
AcDbLine
 10
2.554693130808154
 20
0.9449133322878767
 30
0.0
 11
3.498269151708406
 21
0.9449133322878767
 31
0.0
  0
LINE
  5
E1
330
1F
100
AcDbEntity
  8
0
  6
Continuous
 62
     7
370
    15
100
AcDbLine
 10
2.554693130808154
 20
1.389375027154462
 30
0.0
 11
2.537263231549495
 21
1.371945168797427
 31
0.0
  0
LINE
  5
E2
330
1F
100
AcDbEntity
  8
0
  6
Continuous
 62
     7
370
    15
100
AcDbLine
 10
2.554693130808154
 20
1.389375027154462
 30
0.0
 11
2.728991796181759
 21
1.389375027154462
 31
0.0
  0
ARC
  5
E3
330
1F
100
AcDbEntity
  8
0
  6
Continuous
 62
     7
370
    15
100
AcDbCircle
 10
2.728991809389976
 20
1.398089954140655
 30
0.0
 40
0.0087149350356303
100
AcDbArc
 50
270.0000000000008
 51
90.0
  0
LINE
  5
E4
330
1F
100
AcDbEntity
  8
0
  6
Continuous
 62
     7
370
    15
100
AcDbLine
 10
2.728991796181759
 20
1.406804885511498
 30
0.0
 11
2.554693130808154
 21
1.406804885511498
 31
0.0
  0
LINE
  5
E5
330
1F
100
AcDbEntity
  8
0
  6
Continuous
 62
     7
370
    15
100
AcDbLine
 10
2.537263231549495
 20
1.424234743868534
 30
0.0
 11
2.554693130808154
 21
1.406804885511498
 31
0.0
  0
LINE
  5
E6
330
1F
100
AcDbEntity
  8
0
  6
Continuous
 62
     7
370
    15
100
AcDbLine
 10
2.537263231549495
 20
1.83383672202105
 30
0.0
 11
2.537263231549495
 21
1.424234743868534
 31
0.0
  0
LINE
  5
E7
330
1F
100
AcDbEntity
  8
0
  6
Continuous
 62
     7
370
    15
100
AcDbLine
 10
2.554693130808154
 20
1.851266539476463
 30
0.0
 11
2.537263231549495
 21
1.83383672202105
 31
0.0
  0
LINE
  5
E8
330
1F
100
AcDbEntity
  8
0
  6
Continuous
 62
     7
370
    15
100
AcDbLine
 10
3.498269151708406
 20
1.851266539476463
 30
0.0
 11
2.554693130808154
 21
1.851266539476463
 31
0.0
  0
LINE
  5
E9
330
1F
100
AcDbEntity
  8
0
  6
Continuous
 62
     7
370
    15
100
AcDbLine
 10
2.537263231549495
 20
1.371945168797427
 30
0.0
 11
2.537263231549495
 21
0.9623432021484932
 31
0.0
  0
LINE
  5
EA
330
1F
100
AcDbEntity
  8
0
  6
Continuous
 62
     7
370
    15
100
AcDbLine
 10
2.537263231549495
 20
0.9623432021484932
 30
0.0
 11
2.554693130808154
 21
0.9449133322878767
 31
0.0
  0
LINE
  5
EB
330
1F
100
AcDbEntity
  8
0
  6
Continuous
 62
     7
370
    15
100
AcDbLine
 10
2.554693130808154
 20
3.658676938613085
 30
0.0
 11
2.554693130808154
 21
3.651426112838024
 31
0.0
  0
LINE
  5
EC
330
1F
100
AcDbEntity
  8
0
  6
Continuous
 62
     7
370
    15
100
AcDbLine
 10
2.537263231549495
 20
3.651426112838024
 30
0.0
 11
2.537263231549495
 21
3.658676938613085
 31
0.0
  0
LINE
  5
ED
330
1F
100
AcDbEntity
  8
0
  6
Continuous
 62
     7
370
    15
100
AcDbLine
 10
2.554693130808154
 20
3.651426112838024
 30
0.0
 11
2.537263231549495
 21
3.651426112838024
 31
0.0
  0
LINE
  5
EE
330
1F
100
AcDbEntity
  8
0
  6
Continuous
 62
     7
370
    15
100
AcDbLine
 10
2.537263231549495
 20
3.658676938613085
 30
0.0
 11
2.554693130808154
 21
3.658676938613085
 31
0.0
  0
LINE
  5
EF
330
1F
100
AcDbEntity
  8
0
  6
Continuous
 62
     7
370
    15
100
AcDbLine
 10
3.498269151708406
 20
3.651426112838024
 30
0.0
 11
2.554693130808154
 21
3.651426112838024
 31
0.0
  0
LINE
  5
F0
330
1F
100
AcDbEntity
  8
0
  6
Continuous
 62
     7
370
    15
100
AcDbLine
 10
3.498269151708406
 20
3.658676938613085
 30
0.0
 11
2.554693130808154
 21
3.658676938613085
 31
0.0
  0
LINE
  5
F1
330
1F
100
AcDbEntity
  8
0
  6
Continuous
 62
     7
370
    15
100
AcDbLine
 10
3.504543904781538
 20
2.701575321184871
 30
0.0
 11
3.511794730980993
 21
2.701575321184871
 31
0.0
  0
LINE
  5
F2
330
1F
100
AcDbEntity
  8
0
  6
Continuous
 62
     7
370
    15
100
AcDbLine
 10
3.504543904781538
 20
2.701575321184871
 30
0.0
 11
3.504543904781538
 21
3.645151359340497
 31
0.0
  0
LINE
  5
F3
330
1F
100
AcDbEntity
  8
0
  6
Continuous
 62
     7
370
    15
100
AcDbLine
 10
3.511794730980993
 20
2.701575321184871
 30
0.0
 11
3.511794730980993
 21
3.645151359340497
 31
0.0
  0
ARC
  5
F4
330
1F
100
AcDbEntity
  8
0
  6
Continuous
 62
     7
370
    15
100
AcDbCircle
 10
3.498269151560331
 20
3.645151359613294
 30
0.0
 40
0.0135255791752975
100
AcDbArc
 50
0.0
 51
90.00000001883412
  0
ARC
  5
F5
330
1F
100
AcDbEntity
  8
0
  6
Continuous
 62
     7
370
    15
100
AcDbCircle
 10
3.498269151555883
 20
3.645151359613294
 30
0.0
 40
0.0062747532256541
100
AcDbArc
 50
0.0
 51
90.0
  0
LINE
  5
F6
330
1F
100
AcDbEntity
  8
0
  6
Continuous
 62
     7
370
    15
100
AcDbLine
 10
3.511794730980993
 20
2.684145421926216
 30
0.0
 11
3.504543904781538
 21
2.684145421926216
 31
0.0
  0
LINE
  5
F7
330
1F
100
AcDbEntity
  8
0
  6
Continuous
 62
     7
370
    15
100
AcDbLine
 10
3.504543904781538
 20
2.684145421926216
 30
0.0
 11
3.504543904781538
 21
2.701575321184871
 31
0.0
  0
LINE
  5
F8
330
1F
100
AcDbEntity
  8
0
  6
Continuous
 62
     7
370
    15
100
AcDbLine
 10
3.511794730980993
 20
2.701575321184871
 30
0.0
 11
3.511794730980993
 21
2.684145421926216
 31
0.0
  0
LINE
  5
135
330
1F
100
AcDbEntity
  8
0
  6
Continuous
 62
     7
370
    15
100
AcDbLine
 10
0.6378745703385575
 20
0.9623432021484932
 30
0.0
 11
0.6451253961136181
 21
0.9623432021484932
 31
0.0
  0
LINE
  5
136
330
1F
100
AcDbEntity
  8
0
  6
Continuous
 62
     7
370
    15
100
AcDbLine
 10
0.6451253961136181
 20
0.9449133322878767
 30
0.0
 11
0.6378745703385575
 21
0.9449133322878767
 31
0.0
  0
LINE
  5
137
330
1F
100
AcDbEntity
  8
0
  6
Continuous
 62
     7
370
    15
100
AcDbLine
 10
0.6451253961136181
 20
0.9623432021484932
 30
0.0
 11
0.6451253961136181
 21
0.9449133322878767
 31
0.0
  0
LINE
  5
138
330
1F
100
AcDbEntity
  8
0
  6
Continuous
 62
     7
370
    15
100
AcDbLine
 10
0.6378745703385575
 20
0.9449133322878767
 30
0.0
 11
0.6378745703385575
 21
0.9623432021484932
 31
0.0
  0
LINE
  5
139
330
1F
100
AcDbEntity
  8
0
  6
Continuous
 62
     7
370
    15
100
AcDbLine
 10
0.6451253961136181
 20
1.371945168797427
 30
0.0
 11
0.6378745703385575
 21
1.371945168797427
 31
0.0
  0
LINE
  5
13A
330
1F
100
AcDbEntity
  8
0
  6
Continuous
 62
     7
370
    15
100
AcDbLine
 10
0.6451253961136181
 20
1.371945168797427
 30
0.0
 11
0.6451253961136181
 21
0.9623432021484932
 31
0.0
  0
LINE
  5
13B
330
1F
100
AcDbEntity
  8
0
  6
Continuous
 62
     7
370
    15
100
AcDbLine
 10
0.6378745703385575
 20
1.371945168797427
 30
0.0
 11
0.6378745703385575
 21
0.9623432021484932
 31
0.0
  0
LINE
  5
13C
330
1F
100
AcDbEntity
  8
0
  6
Continuous
 62
     7
370
    15
100
AcDbLine
 10
0.6451253961136181
 20
1.83383672202105
 30
0.0
 11
0.6378745703385575
 21
1.83383672202105
 31
0.0
  0
LINE
  5
13D
330
1F
100
AcDbEntity
  8
0
  6
Continuous
 62
     7
370
    15
100
AcDbLine
 10
0.6378745703385575
 20
1.424234743868534
 30
0.0
 11
0.6451253961136181
 21
1.424234743868534
 31
0.0
  0
LINE
  5
13E
330
1F
100
AcDbEntity
  8
0
  6
Continuous
 62
     7
370
    15
100
AcDbLine
 10
0.6451253961136181
 20
1.83383672202105
 30
0.0
 11
0.6451253961136181
 21
1.424234743868534
 31
0.0
  0
LINE
  5
13F
330
1F
100
AcDbEntity
  8
0
  6
Continuous
 62
     7
370
    15
100
AcDbLine
 10
0.6378745703385575
 20
1.83383672202105
 30
0.0
 11
0.6378745703385575
 21
1.424234743868534
 31
0.0
  0
LINE
  5
140
330
1F
100
AcDbEntity
  8
0
  6
Continuous
 62
     7
370
    15
100
AcDbLine
 10
0.6378745703385575
 20
1.389375027154462
 30
0.0
 11
0.6451253961136181
 21
1.389375027154462
 31
0.0
  0
LINE
  5
141
330
1F
100
AcDbEntity
  8
0
  6
Continuous
 62
     7
370
    15
100
AcDbLine
 10
0.6451253961136181
 20
1.389375027154462
 30
0.0
 11
0.6451253961136181
 21
1.371945168797427
 31
0.0
  0
LINE
  5
142
330
1F
100
AcDbEntity
  8
0
  6
Continuous
 62
     7
370
    15
100
AcDbLine
 10
0.6378745703385575
 20
1.371945168797427
 30
0.0
 11
0.6378745703385575
 21
1.389375027154462
 31
0.0
  0
LINE
  5
143
330
1F
100
AcDbEntity
  8
0
  6
Continuous
 62
     7
370
    15
100
AcDbLine
 10
0.6451253961136181
 20
1.406804885511498
 30
0.0
 11
0.6378745703385575
 21
1.406804885511498
 31
0.0
  0
LINE
  5
144
330
1F
100
AcDbEntity
  8
0
  6
Continuous
 62
     7
370
    15
100
AcDbLine
 10
0.6451253961136181
 20
1.424234743868534
 30
0.0
 11
0.6451253961136181
 21
1.406804885511498
 31
0.0
  0
LINE
  5
145
330
1F
100
AcDbEntity
  8
0
  6
Continuous
 62
     7
370
    15
100
AcDbLine
 10
0.6378745703385575
 20
1.406804885511498
 30
0.0
 11
0.6378745703385575
 21
1.424234743868534
 31
0.0
  0
LINE
  5
146
330
1F
100
AcDbEntity
  8
0
  6
Continuous
 62
     7
370
    15
100
AcDbLine
 10
0.6378745703385575
 20
1.851266539476463
 30
0.0
 11
0.6451253961136181
 21
1.851266539476463
 31
0.0
  0
LINE
  5
147
330
1F
100
AcDbEntity
  8
0
  6
Continuous
 62
     7
370
    15
100
AcDbLine
 10
0.6451253961136181
 20
1.851266539476463
 30
0.0
 11
0.6451253961136181
 21
1.83383672202105
 31
0.0
  0
LINE
  5
148
330
1F
100
AcDbEntity
  8
0
  6
Continuous
 62
     7
370
    15
100
AcDbLine
 10
0.6378745703385575
 20
1.83383672202105
 30
0.0
 11
0.6378745703385575
 21
1.851266539476463
 31
0.0
  0
LINE
  5
149
330
1F
100
AcDbEntity
  8
0
  6
Continuous
 62
     7
370
    15
100
AcDbLine
 10
0.6451253961136181
 20
1.389375027154462
 30
0.0
 11
0.6451253961136181
 21
1.406804885511498
 31
0.0
  0
LINE
  5
14A
330
1F
100
AcDbEntity
  8
0
  6
Continuous
 62
     7
370
    15
100
AcDbLine
 10
0.6378745703385575
 20
1.389375027154462
 30
0.0
 11
0.6378745703385575
 21
1.406804885511498
 31
0.0
  0
LINE
  5
14B
330
1F
100
AcDbEntity
  8
0
  6
Continuous
 62
     7
370
    15
100
AcDbLine
 10
0.6451253961136181
 20
1.851266539476463
 30
0.0
 11
0.6514001496111442
 21
1.851266539476463
 31
0.0
  0
LINE
  5
14C
330
1F
100
AcDbEntity
  8
0
  6
Continuous
 62
     7
370
    15
100
AcDbLine
 10
0.6514001496111442
 20
0.9449133322878767
 30
0.0
 11
0.6451253961136181
 21
0.9449133322878767
 31
0.0
  0
LINE
  5
14D
330
1F
100
AcDbEntity
  8
0
  6
Continuous
 62
     7
370
    15
100
AcDbLine
 10
1.612406087025425
 20
1.83383672202105
 30
0.0
 11
1.594976187766768
 21
1.851266539476463
 31
0.0
  0
LINE
  5
14E
330
1F
100
AcDbEntity
  8
0
  6
Continuous
 62
     7
370
    15
100
AcDbLine
 10
1.612406087025425
 20
1.424234743868534
 30
0.0
 11
1.612406087025425
 21
1.83383672202105
 31
0.0
  0
LINE
  5
14F
330
1F
100
AcDbEntity
  8
0
  6
Continuous
 62
     7
370
    15
100
AcDbLine
 10
1.594976187766768
 20
1.406804885511498
 30
0.0
 11
1.612406087025425
 21
1.424234743868534
 31
0.0
  0
LINE
  5
150
330
1F
100
AcDbEntity
  8
0
  6
Continuous
 62
     7
370
    15
100
AcDbLine
 10
1.594976187766768
 20
1.406804885511498
 30
0.0
 11
1.420677522393163
 21
1.406804885511498
 31
0.0
  0
ARC
  5
151
330
1F
100
AcDbEntity
  8
0
  6
Continuous
 62
     7
370
    15
100
AcDbCircle
 10
1.420677491504256
 20
1.398089954140655
 30
0.0
 40
0.0087149350356308
100
AcDbArc
 50
90.0
 51
270.0000000000008
  0
LINE
  5
152
330
1F
100
AcDbEntity
  8
0
  6
Continuous
 62
     7
370
    15
100
AcDbLine
 10
1.420677522393163
 20
1.389375027154462
 30
0.0
 11
1.594976187766768
 21
1.389375027154462
 31
0.0
  0
LINE
  5
153
330
1F
100
AcDbEntity
  8
0
  6
Continuous
 62
     7
370
    15
100
AcDbLine
 10
1.612406087025425
 20
1.371945168797427
 30
0.0
 11
1.594976187766768
 21
1.389375027154462
 31
0.0
  0
LINE
  5
154
330
1F
100
AcDbEntity
  8
0
  6
Continuous
 62
     7
370
    15
100
AcDbLine
 10
1.612406087025425
 20
0.9623432021484932
 30
0.0
 11
1.612406087025425
 21
1.371945168797427
 31
0.0
  0
LINE
  5
155
330
1F
100
AcDbEntity
  8
0
  6
Continuous
 62
     7
370
    15
100
AcDbLine
 10
1.594976187766768
 20
0.9449133322878767
 30
0.0
 11
1.612406087025425
 21
0.9623432021484932
 31
0.0
  0
LINE
  5
156
330
1F
100
AcDbEntity
  8
0
  6
Continuous
 62
     7
370
    15
100
AcDbLine
 10
1.594976187766768
 20
1.851266539476463
 30
0.0
 11
0.6514001496111442
 21
1.851266539476463
 31
0.0
  0
CIRCLE
  5
157
330
1F
100
AcDbEntity
  8
0
  6
Continuous
 62
     7
370
    15
100
AcDbCircle
 10
1.438107361575517
 20
1.798976965779649
 30
0.0
 40
0.0125495064513079
  0
CIRCLE
  5
158
330
1F
100
AcDbEntity
  8
0
  6
Continuous
 62
     7
370
    15
100
AcDbCircle
 10
1.560116452074342
 20
1.633741797504098
 30
0.0
 40
0.0125495064513077
  0
CIRCLE
  5
159
330
1F
100
AcDbEntity
  8
0
  6
Continuous
 62
     7
370
    15
100
AcDbCircle
 10
0.9064963244020679
 20
1.756448082805774
 30
0.0
 40
0.0125495064513077
  0
CIRCLE
  5
15A
330
1F
100
AcDbEntity
  8
0
  6
Continuous
 62
     7
370
    15
100
AcDbCircle
 10
1.11600336265862
 20
1.583543771698868
 30
0.0
 40
0.0125495064513077
  0
CIRCLE
  5
15B
330
1F
100
AcDbEntity
  8
0
  6
Continuous
 62
     7
370
    15
100
AcDbCircle
 10
1.560116452074342
 20
1.290373357100264
 30
0.0
 40
0.0125495064513077
  0
CIRCLE
  5
15C
330
1F
100
AcDbEntity
  8
0
  6
Continuous
 62
     7
370
    15
100
AcDbCircle
 10
1.560116452074342
 20
1.089929851280766
 30
0.0
 40
0.0125495064513077
  0
CIRCLE
  5
15D
330
1F
100
AcDbEntity
  8
0
  6
Continuous
 62
     7
370
    15
100
AcDbCircle
 10
1.281238530934172
 20
0.9972029425016597
 30
0.0
 40
0.0125495064513077
  0
CIRCLE
  5
15E
330
1F
100
AcDbEntity
  8
0
  6
Continuous
 62
     7
370
    15
100
AcDbCircle
 10
0.8908094413379334
 20
0.9972029425016597
 30
0.0
 40
0.0125495064513076
  0
LINE
  5
15F
330
1F
100
AcDbEntity
  8
0
  6
Continuous
 62
     7
370
    15
100
AcDbLine
 10
1.510057874986387
 20
1.131761535762137
 30
0.0
 11
1.527805579852659
 21
1.1495092201776
 31
0.0
  0
LINE
  5
160
330
1F
100
AcDbEntity
  8
0
  6
Continuous
 62
     7
370
    15
100
AcDbLine
 10
1.527805579852659
 20
1.1495092201776
 30
0.0
 11
1.510057874986387
 21
1.16725690459306
 31
0.0
  0
LINE
  5
161
330
1F
100
AcDbEntity
  8
0
  6
Continuous
 62
     7
370
    15
100
AcDbLine
 10
1.510057874986387
 20
1.16725690459306
 30
0.0
 11
1.492310170120114
 21
1.1495092201776
 31
0.0
  0
LINE
  5
162
330
1F
100
AcDbEntity
  8
0
  6
Continuous
 62
     7
370
    15
100
AcDbLine
 10
1.492310170120114
 20
1.1495092201776
 30
0.0
 11
1.510057874986387
 21
1.131761535762137
 31
0.0
  0
LINE
  5
163
330
1F
100
AcDbEntity
  8
0
  6
Continuous
 62
     7
370
    15
100
AcDbLine
 10
1.243272215176481
 20
1.616373510873868
 30
0.0
 11
1.261019879141132
 21
1.634121215740141
 31
0.0
  0
LINE
  5
164
330
1F
100
AcDbEntity
  8
0
  6
Continuous
 62
     7
370
    15
100
AcDbLine
 10
1.261019879141132
 20
1.634121215740141
 30
0.0
 11
1.243272215176481
 21
1.651868838803169
 31
0.0
  0
LINE
  5
165
330
1F
100
AcDbEntity
  8
0
  6
Continuous
 62
     7
370
    15
100
AcDbLine
 10
1.243272215176481
 20
1.651868838803169
 30
0.0
 11
1.225524510310209
 21
1.634121215740141
 31
0.0
  0
LINE
  5
166
330
1F
100
AcDbEntity
  8
0
  6
Continuous
 62
     7
370
    15
100
AcDbLine
 10
1.225524510310209
 20
1.634121215740141
 30
0.0
 11
1.243272215176481
 21
1.616373510873868
 31
0.0
  0
LINE
  5
167
330
1F
100
AcDbEntity
  8
0
  6
Continuous
 62
     7
370
    15
100
AcDbLine
 10
1.109410816283005
 20
1.226580024940782
 30
0.0
 11
1.127158480247655
 21
1.244327709356242
 31
0.0
  0
LINE
  5
168
330
1F
100
AcDbEntity
  8
0
  6
Continuous
 62
     7
370
    15
100
AcDbLine
 10
1.127158480247655
 20
1.244327709356242
 30
0.0
 11
1.109410816283005
 21
1.262075393771705
 31
0.0
  0
LINE
  5
169
330
1F
100
AcDbEntity
  8
0
  6
Continuous
 62
     7
370
    15
100
AcDbLine
 10
1.109410816283005
 20
1.262075393771705
 30
0.0
 11
1.091663111416733
 21
1.244327709356242
 31
0.0
  0
LINE
  5
16A
330
1F
100
AcDbEntity
  8
0
  6
Continuous
 62
     7
370
    15
100
AcDbLine
 10
1.091663111416733
 20
1.244327709356242
 30
0.0
 11
1.109410816283005
 21
1.226580024940782
 31
0.0
  0
LINE
  5
16B
330
1F
100
AcDbEntity
  8
0
  6
Continuous
 62
     7
370
    15
100
AcDbLine
 10
0.843779584320217
 20
1.48669528453034
 30
0.0
 11
0.8615272687356782
 21
1.504442948494991
 31
0.0
  0
LINE
  5
16C
330
1F
100
AcDbEntity
  8
0
  6
Continuous
 62
     7
370
    15
100
AcDbLine
 10
0.8615272687356782
 20
1.504442948494991
 30
0.0
 11
0.843779584320217
 21
1.522190612459642
 31
0.0
  0
LINE
  5
16D
330
1F
100
AcDbEntity
  8
0
  6
Continuous
 62
     7
370
    15
100
AcDbLine
 10
0.843779584320217
 20
1.522190612459642
 30
0.0
 11
0.8260318999047559
 21
1.504442948494991
 31
0.0
  0
LINE
  5
16E
330
1F
100
AcDbEntity
  8
0
  6
Continuous
 62
     7
370
    15
100
AcDbLine
 10
0.8260318999047559
 20
1.504442948494991
 30
0.0
 11
0.843779584320217
 21
1.48669528453034
 31
0.0
  0
LINE
  5
16F
330
1F
100
AcDbEntity
  8
0
  6
Continuous
 62
     7
370
    15
100
AcDbLine
 10
1.433226958239761
 20
1.267017332322532
 30
0.0
 11
1.433226958239761
 21
1.250284662573553
 31
0.0
  0
ARC
  5
170
330
1F
100
AcDbEntity
  8
0
  6
Continuous
 62
     7
370
    15
100
AcDbCircle
 10
1.420677491504256
 20
1.267017331204774
 30
0.0
 40
0.0125495064513074
100
AcDbArc
 50
0.0
 51
180.0000000000004
  0
LINE
  5
171
330
1F
100
AcDbEntity
  8
0
  6
Continuous
 62
     7
370
    15
100
AcDbLine
 10
1.408128004743318
 20
1.250284662573553
 30
0.0
 11
1.408128004743318
 21
1.267017332322532
 31
0.0
  0
ARC
  5
172
330
1F
100
AcDbEntity
  8
0
  6
Continuous
 62
     7
370
    15
100
AcDbCircle
 10
1.420677491504256
 20
1.250284655936362
 30
0.0
 40
0.0125495064513077
100
AcDbArc
 50
180.0000000000004
 51
0.0
  0
LINE
  5
173
330
1F
100
AcDbEntity
  8
0
  6
Continuous
 62
     7
370
    15
100
AcDbLine
 10
1.433226958239761
 20
1.092718626047305
 30
0.0
 11
1.433226958239761
 21
1.075985956298324
 31
0.0
  0
ARC
  5
174
330
1F
100
AcDbEntity
  8
0
  6
Continuous
 62
     7
370
    15
100
AcDbCircle
 10
1.420677491504256
 20
1.092718630492167
 30
0.0
 40
0.0125495064513079
100
AcDbArc
 50
0.0
 51
180.0000000000004
  0
LINE
  5
175
330
1F
100
AcDbEntity
  8
0
  6
Continuous
 62
     7
370
    15
100
AcDbLine
 10
1.408128004743318
 20
1.075985956298324
 30
0.0
 11
1.408128004743318
 21
1.092718626047305
 31
0.0
  0
ARC
  5
176
330
1F
100
AcDbEntity
  8
0
  6
Continuous
 62
     7
370
    15
100
AcDbCircle
 10
1.420677491504256
 20
1.075985955223756
 30
0.0
 40
0.0125495064513079
100
AcDbArc
 50
180.0000000000004
 51
0.0
  0
LINE
  5
177
330
1F
100
AcDbEntity
  8
0
  6
Continuous
 62
     7
370
    15
100
AcDbLine
 10
0.6514001496111442
 20
0.9449133322878767
 30
0.0
 11
1.594976187766768
 21
0.9449133322878767
 31
0.0
  0
MTEXT
  5
35A
330
1F
100
AcDbEntity
  8
0
100
AcDbMText
 10
2.310958992445526
 20
2.532253533457295
 30
0.0
 40
0.1
 41
1.844522311835284
 71
     1
 72
     5
  1
PBC66-TZ-TOP-VIEW
 73
     1
 44
1.0
1001
ACAD
1000
MTEXTBEGIN
1070
    73
1070
     1
1070
    44
1040
1.0
1070
    74
1070
     0
1000
MTEXTEND
  0
MTEXT
  5
362
330
1F
100
AcDbEntity
  8
0
100
AcDbMText
 10
0.3013786178032376
 20
0.5606766822898024
 30
0.0
 40
0.1
 41
1.844522311835284
 71
     1
 72
     5
  1
PBC66-TZ-SIDE-VIEW
 73
     1
 44
1.0
1001
ACAD
1000
MTEXTBEGIN
1070
    73
1070
     1
1070
    44
1040
1.0
1070
    74
1070
     0
1000
MTEXTEND
  0
MTEXT
  5
368
330
1F
100
AcDbEntity
  8
0
100
AcDbMText
 10
2.230221939449521
 20
0.5817525905557659
 30
0.0
 40
0.1
 41
1.844522311835284
 71
     1
 72
     5
  1
PBC66-TZ-FRONT-VIEW
 73
     1
 44
1.0
1001
ACAD
1000
MTEXTBEGIN
1070
    73
1070
     1
1070
    44
1040
1.0
1070
    74
1070
     0
1000
MTEXTEND
  0
ENDSEC
  0
SECTION
  2
OBJECTS
  0
DICTIONARY
  5
C
330
0
100
AcDbDictionary
281
     1
  3
ACAD_COLOR
350
34C
  3
ACAD_GROUP
350
D
  3
ACAD_LAYOUT
350
1A
  3
ACAD_MATERIAL
350
34B
  3
ACAD_MLINESTYLE
350
17
  3
ACAD_PLOTSETTINGS
350
19
  3
ACAD_PLOTSTYLENAME
350
E
  3
ACDBHEADERROUNDTRIPXREC
350
374
  3
AcDbVariableDictionary
350
36F
  3
DWGPROPS
350
373
  0
DICTIONARY
  5
37D
330
67
100
AcDbDictionary
280
     1
281
     1
  3
ACAD_MTEXT_RT
360
37E
  0
DICTIONARY
  5
34C
102
{ACAD_REACTORS
330
C
102
}
330
C
100
AcDbDictionary
281
     1
  0
DICTIONARY
  5
D
102
{ACAD_REACTORS
330
C
102
}
330
C
100
AcDbDictionary
281
     1
  0
DICTIONARY
  5
1A
102
{ACAD_REACTORS
330
C
102
}
330
C
100
AcDbDictionary
281
     1
  3
Layout1
350
1E
  3
Layout2
350
26
  3
Model
350
22
  0
DICTIONARY
  5
34B
102
{ACAD_REACTORS
330
C
102
}
330
C
100
AcDbDictionary
281
     1
  0
DICTIONARY
  5
17
102
{ACAD_REACTORS
330
C
102
}
330
C
100
AcDbDictionary
281
     1
  3
Standard
350
18
  0
DICTIONARY
  5
19
102
{ACAD_REACTORS
330
C
102
}
330
C
100
AcDbDictionary
281
     1
  0
ACDBDICTIONARYWDFLT
  5
E
102
{ACAD_REACTORS
330
C
102
}
330
C
100
AcDbDictionary
281
     1
  3
Normal
350
F
100
AcDbDictionaryWithDefault
340
F
  0
DICTIONARY
  5
374
102
{ACAD_REACTORS
330
C
102
}
330
C
100
AcDbDictionary
281
     1
  3
COLORDICT
350
376
  3
MATERIALDICT
350
375
  0
DICTIONARY
  5
36F
102
{ACAD_REACTORS
330
C
102
}
330
C
100
AcDbDictionary
281
     1
  3
DIMASSOC
350
370
  3
PROJECTNAME
350
371
  0
XRECORD
  5
373
102
{ACAD_REACTORS
330
C
102
}
330
C
100
AcDbXrecord
280
     1
  1
DWGPROPS COOKIE
  2

  3

  4

  6

  7

  8

  9

300
=
301
=
302
=
303
=
304
=
305
=
306
=
307
=
308
=
309
=
 40
0.0073011689814815
 41
2453815.503268889
 42
2454763.449546238
  1

 90
        0
  0
XRECORD
  5
37E
102
{ACAD_REACTORS
330
37D
102
}
330
37D
100
AcDbXrecord
280
     1
 40
3241.0
  1
{%%p}
  0
LAYOUT
  5
1E
102
{ACAD_XDICTIONARY
360
377
102
}
102
{ACAD_REACTORS
330
1A
102
}
330
1A
100
AcDbPlotSettings
  1

  2

  4

  6

 40
0.0
 41
0.0
 42
0.0
 43
0.0
 44
0.0
 45
0.0
 46
0.0
 47
0.0
 48
0.0
 49
0.0
140
0.0
141
0.0
142
1.0
143
1.0
 70
   688
 72
     0
 73
     0
 74
     5
  7

 75
    16
147
1.0
148
0.0
149
0.0
100
AcDbLayout
  1
Layout1
 70
     1
 71
     1
 10
0.0
 20
0.0
 11
12.0
 21
9.0
 12
0.0
 22
0.0
 32
0.0
 14
1.000000000000000E+20
 24
1.000000000000000E+20
 34
1.000000000000000E+20
 15
-1.000000000000000E+20
 25
-1.000000000000000E+20
 35
-1.000000000000000E+20
146
0.0
 13
0.0
 23
0.0
 33
0.0
 16
1.0
 26
0.0
 36
0.0
 17
0.0
 27
1.0
 37
0.0
 76
     0
330
1B
  0
LAYOUT
  5
26
102
{ACAD_XDICTIONARY
360
37B
102
}
102
{ACAD_REACTORS
330
1A
102
}
330
1A
100
AcDbPlotSettings
  1

  2

  4

  6

 40
0.0
 41
0.0
 42
0.0
 43
0.0
 44
0.0
 45
0.0
 46
0.0
 47
0.0
 48
0.0
 49
0.0
140
0.0
141
0.0
142
1.0
143
1.0
 70
   688
 72
     0
 73
     0
 74
     5
  7

 75
    16
147
1.0
148
0.0
149
0.0
100
AcDbLayout
  1
Layout2
 70
     1
 71
     2
 10
0.0
 20
0.0
 11
0.0
 21
0.0
 12
0.0
 22
0.0
 32
0.0
 14
0.0
 24
0.0
 34
0.0
 15
0.0
 25
0.0
 35
0.0
146
0.0
 13
0.0
 23
0.0
 33
0.0
 16
1.0
 26
0.0
 36
0.0
 17
0.0
 27
1.0
 37
0.0
 76
     0
330
23
  0
LAYOUT
  5
22
102
{ACAD_XDICTIONARY
360
379
102
}
102
{ACAD_REACTORS
330
1A
102
}
330
1A
100
AcDbPlotSettings
  1

  2

  4

  6

 40
0.0
 41
0.0
 42
0.0
 43
0.0
 44
0.0
 45
0.0
 46
0.0
 47
0.0
 48
0.0
 49
0.0
140
0.0
141
0.0
142
1.0
143
1.0
 70
  1712
 72
     0
 73
     0
 74
     0
  7

 75
     0
147
1.0
148
0.0
149
0.0
100
AcDbLayout
  1
Model
 70
     1
 71
     0
 10
0.0
 20
0.0
 11
0.0
 21
0.0
 12
0.0
 22
0.0
 32
0.0
 14
0.0
 24
0.0
 34
0.0
 15
8.5
 25
11.0
 35
0.0
146
0.0
 13
0.0
 23
0.0
 33
0.0
 16
1.0
 26
0.0
 36
0.0
 17
0.0
 27
1.0
 37
0.0
 76
     0
330
1F
  0
MLINESTYLE
  5
18
102
{ACAD_REACTORS
330
17
102
}
330
17
100
AcDbMlineStyle
  2
STANDARD
 70
     0
  3

 62
   256
 51
90.0
 52
90.0
 71
     2
 49
0.5
 62
   256
  6
BYLAYER
 49
-0.5
 62
   256
  6
BYLAYER
  0
ACDBPLACEHOLDER
  5
F
102
{ACAD_REACTORS
330
E
102
}
330
E
  0
XRECORD
  5
376
102
{ACAD_REACTORS
330
374
102
}
330
374
100
AcDbXrecord
280
     1
340
34C
  0
XRECORD
  5
375
102
{ACAD_REACTORS
330
374
102
}
330
374
100
AcDbXrecord
280
     1
340
34B
  0
DICTIONARYVAR
  5
370
102
{ACAD_REACTORS
330
36F
102
}
330
36F
100
DictionaryVariables
280
     0
  1
1
  0
DICTIONARYVAR
  5
371
102
{ACAD_REACTORS
330
36F
102
}
330
36F
100
DictionaryVariables
280
     0
  1

  0
DICTIONARY
  5
377
330
1E
100
AcDbDictionary
280
     1
281
     1
  3
ACAD_XREC_ROUNDTRIP
360
378
  0
DICTIONARY
  5
37B
330
26
100
AcDbDictionary
280
     1
281
     1
  3
ACAD_XREC_ROUNDTRIP
360
37C
  0
DICTIONARY
  5
379
330
22
100
AcDbDictionary
280
     1
281
     1
  3
ACAD_XREC_ROUNDTRIP
360
37A
  0
XRECORD
  5
378
102
{ACAD_REACTORS
330
377
102
}
330
377
100
AcDbXrecord
280
     1
102
SHADEPLOT
 70
     0
102
SHADEPLOTRESLEVEL
 70
     2
102
SHADEPLOTCUSTOMDPI
 70
   300
  0
XRECORD
  5
37C
102
{ACAD_REACTORS
330
37B
102
}
330
37B
100
AcDbXrecord
280
     1
102
SHADEPLOT
 70
     0
102
SHADEPLOTRESLEVEL
 70
     2
102
SHADEPLOTCUSTOMDPI
 70
   300
  0
XRECORD
  5
37A
102
{ACAD_REACTORS
330
379
102
}
330
379
100
AcDbXrecord
280
     1
102
SHADEPLOT
 70
     0
102
SHADEPLOTRESLEVEL
 70
     2
102
SHADEPLOTCUSTOMDPI
 70
   300
  0
ENDSEC
  0
EOF
