  0
SECTION
  2
HEADER
  9
$ACADVER
  1
AC1018
  9
$ACADMAINTVER
 70
     0
  9
$DWGCODEPAGE
  3
ANSI_1252
  9
$INSBASE
 10
0.0
 20
0.0
 30
0.0
  9
$EXTMIN
 10
-8.993570657964815
 20
-14.56062330352381
 30
0.0
  9
$EXTMAX
 10
19.31950211632008
 20
26.5611753534563
 30
0.0
  9
$LIMMIN
 10
-100.0
 20
-100.0
  9
$LIMMAX
 10
100.0
 20
100.0
  9
$ORTHOMODE
 70
     0
  9
$REGENMODE
 70
     1
  9
$FILLMODE
 70
     1
  9
$QTEXTMODE
 70
     0
  9
$MIRRTEXT
 70
     1
  9
$LTSCALE
 40
1.0
  9
$ATTMODE
 70
     1
  9
$TEXTSIZE
 40
0.1377952755905512
  9
$TRACEWID
 40
0.05
  9
$TEXTSTYLE
  7
Standard
  9
$CLAYER
  8
0
  9
$CELTYPE
  6
ByLayer
  9
$CECOLOR
 62
   256
  9
$CELTSCALE
 40
1.0
  9
$DISPSILH
 70
     0
  9
$DIMSCALE
 40
1.0
  9
$DIMASZ
 40
0.13
  9
$DIMEXO
 40
0.0393700787401575
  9
$DIMDLI
 40
0.38
  9
$DIMRND
 40
0.0
  9
$DIMDLE
 40
0.0
  9
$DIMEXE
 40
0.0393700787401575
  9
$DIMTP
 40
0.0
  9
$DIMTM
 40
0.0
  9
$DIMTXT
 40
0.1377952755905512
  9
$DIMCEN
 40
0.09
  9
$DIMTSZ
 40
0.0
  9
$DIMTOL
 70
     0
  9
$DIMLIM
 70
     0
  9
$DIMTIH
 70
     1
  9
$DIMTOH
 70
     1
  9
$DIMSE1
 70
     0
  9
$DIMSE2
 70
     0
  9
$DIMTAD
 70
     1
  9
$DIMZIN
 70
     0
  9
$DIMBLK
  1

  9
$DIMASO
 70
     1
  9
$DIMSHO
 70
     1
  9
$DIMPOST
  1

  9
$DIMAPOST
  1

  9
$DIMALT
 70
     0
  9
$DIMALTD
 70
     2
  9
$DIMALTF
 40
25.4
  9
$DIMLFAC
 40
1.0
  9
$DIMTOFL
 70
     0
  9
$DIMTVP
 40
0.0
  9
$DIMTIX
 70
     0
  9
$DIMSOXD
 70
     0
  9
$DIMSAH
 70
     0
  9
$DIMBLK1
  1

  9
$DIMBLK2
  1

  9
$DIMSTYLE
  2
Standard
  9
$DIMCLRD
 70
     0
  9
$DIMCLRE
 70
     0
  9
$DIMCLRT
 70
     0
  9
$DIMTFAC
 40
1.0
  9
$DIMGAP
 40
0.06
  9
$DIMJUST
 70
     0
  9
$DIMSD1
 70
     0
  9
$DIMSD2
 70
     0
  9
$DIMTOLJ
 70
     1
  9
$DIMTZIN
 70
     0
  9
$DIMALTZ
 70
     0
  9
$DIMALTTZ
 70
     0
  9
$DIMUPT
 70
     0
  9
$DIMDEC
 70
     2
  9
$DIMTDEC
 70
     2
  9
$DIMALTU
 70
     2
  9
$DIMALTTD
 70
     2
  9
$DIMTXSTY
  7
Standard
  9
$DIMAUNIT
 70
     0
  9
$DIMADEC
 70
     2
  9
$DIMALTRND
 40
0.0
  9
$DIMAZIN
 70
     0
  9
$DIMDSEP
 70
    46
  9
$DIMATFIT
 70
     3
  9
$DIMFRAC
 70
     0
  9
$DIMLDRBLK
  1

  9
$DIMLUNIT
 70
     2
  9
$DIMLWD
 70
    -2
  9
$DIMLWE
 70
    -2
  9
$DIMTMOVE
 70
     0
  9
$LUNITS
 70
     2
  9
$LUPREC
 70
     2
  9
$SKETCHINC
 40
0.1
  9
$FILLETRAD
 40
0.5
  9
$AUNITS
 70
     0
  9
$AUPREC
 70
     2
  9
$MENU
  1
.
  9
$ELEVATION
 40
0.0
  9
$PELEVATION
 40
0.0
  9
$THICKNESS
 40
0.0
  9
$LIMCHECK
 70
     0
  9
$CHAMFERA
 40
0.0
  9
$CHAMFERB
 40
0.0
  9
$CHAMFERC
 40
0.0
  9
$CHAMFERD
 40
0.0
  9
$SKPOLY
 70
     0
  9
$TDCREATE
 40
2457060.555115081
  9
$TDUCREATE
 40
2457060.805115081
  9
$TDUPDATE
 40
2457064.336263403
  9
$TDUUPDATE
 40
2457064.586263403
  9
$TDINDWG
 40
0.0004313310
  9
$TDUSRTIMER
 40
0.0004313310
  9
$USRTIMER
 70
     1
  9
$ANGBASE
 50
0.0
  9
$ANGDIR
 70
     0
  9
$PDMODE
 70
     0
  9
$PDSIZE
 40
-1.0
  9
$PLINEWID
 40
0.0
  9
$SPLFRAME
 70
     0
  9
$SPLINETYPE
 70
     6
  9
$SPLINESEGS
 70
     8
  9
$HANDSEED
  5
239
  9
$SURFTAB1
 70
     6
  9
$SURFTAB2
 70
     6
  9
$SURFTYPE
 70
     6
  9
$SURFU
 70
     6
  9
$SURFV
 70
     6
  9
$UCSBASE
  2

  9
$UCSNAME
  2

  9
$UCSORG
 10
0.0
 20
0.0
 30
0.0
  9
$UCSXDIR
 10
1.0
 20
0.0
 30
0.0
  9
$UCSYDIR
 10
0.0
 20
1.0
 30
0.0
  9
$UCSORTHOREF
  2

  9
$UCSORTHOVIEW
 70
     0
  9
$UCSORGTOP
 10
0.0
 20
0.0
 30
0.0
  9
$UCSORGBOTTOM
 10
0.0
 20
0.0
 30
0.0
  9
$UCSORGLEFT
 10
0.0
 20
0.0
 30
0.0
  9
$UCSORGRIGHT
 10
0.0
 20
0.0
 30
0.0
  9
$UCSORGFRONT
 10
0.0
 20
0.0
 30
0.0
  9
$UCSORGBACK
 10
0.0
 20
0.0
 30
0.0
  9
$PUCSBASE
  2

  9
$PUCSNAME
  2

  9
$PUCSORG
 10
0.0
 20
0.0
 30
0.0
  9
$PUCSXDIR
 10
1.0
 20
0.0
 30
0.0
  9
$PUCSYDIR
 10
0.0
 20
1.0
 30
0.0
  9
$PUCSORTHOREF
  2

  9
$PUCSORTHOVIEW
 70
     0
  9
$PUCSORGTOP
 10
0.0
 20
0.0
 30
0.0
  9
$PUCSORGBOTTOM
 10
0.0
 20
0.0
 30
0.0
  9
$PUCSORGLEFT
 10
0.0
 20
0.0
 30
0.0
  9
$PUCSORGRIGHT
 10
0.0
 20
0.0
 30
0.0
  9
$PUCSORGFRONT
 10
0.0
 20
0.0
 30
0.0
  9
$PUCSORGBACK
 10
0.0
 20
0.0
 30
0.0
  9
$USERI1
 70
     0
  9
$USERI2
 70
     0
  9
$USERI3
 70
     0
  9
$USERI4
 70
     0
  9
$USERI5
 70
     0
  9
$USERR1
 40
0.0
  9
$USERR2
 40
0.0
  9
$USERR3
 40
0.0
  9
$USERR4
 40
0.0
  9
$USERR5
 40
0.0
  9
$WORLDVIEW
 70
     1
  9
$SHADEDGE
 70
     3
  9
$SHADEDIF
 70
    70
  9
$TILEMODE
 70
     1
  9
$MAXACTVP
 70
    64
  9
$PINSBASE
 10
0.0
 20
0.0
 30
0.0
  9
$PLIMCHECK
 70
     0
  9
$PEXTMIN
 10
1.000000000000000E+20
 20
1.000000000000000E+20
 30
1.000000000000000E+20
  9
$PEXTMAX
 10
-1.000000000000000E+20
 20
-1.000000000000000E+20
 30
-1.000000000000000E+20
  9
$PLIMMIN
 10
0.0
 20
0.0
  9
$PLIMMAX
 10
12.0
 20
9.0
  9
$UNITMODE
 70
     0
  9
$VISRETAIN
 70
     1
  9
$PLINEGEN
 70
     0
  9
$PSLTSCALE
 70
     1
  9
$TREEDEPTH
 70
  3020
  9
$CMLSTYLE
  2
Standard
  9
$CMLJUST
 70
     0
  9
$CMLSCALE
 40
1.0
  9
$PROXYGRAPHICS
 70
     1
  9
$MEASUREMENT
 70
     0
  9
$CELWEIGHT
370
    -1
  9
$ENDCAPS
280
     0
  9
$JOINSTYLE
280
     0
  9
$LWDISPLAY
290
     1
  9
$INSUNITS
 70
     1
  9
$HYPERLINKBASE
  1

  9
$STYLESHEET
  1

  9
$XEDIT
290
     1
  9
$CEPSNTYPE
380
     0
  9
$PSTYLEMODE
290
     1
  9
$FINGERPRINTGUID
  2
{0598748A-AB19-4905-AF81-48A463696E1F}
  9
$VERSIONGUID
  2
{A7F98B16-2863-4383-AEAE-361A07DA3714}
  9
$EXTNAMES
290
     1
  9
$PSVPSCALE
 40
0.0
  9
$OLESTARTUP
290
     0
  9
$SORTENTS
280
   127
  9
$INDEXCTL
280
     0
  9
$HIDETEXT
280
     0
  9
$XCLIPFRAME
290
     0
  9
$HALOGAP
280
     0
  9
$OBSCOLOR
 70
   257
  9
$OBSLTYPE
280
     0
  9
$INTERSECTIONDISPLAY
280
     0
  9
$INTERSECTIONCOLOR
 70
   257
  9
$DIMASSOC
280
     1
  9
$PROJECTNAME
  1

  0
ENDSEC
  0
SECTION
  2
CLASSES
  0
CLASS
  1
ACDBDICTIONARYWDFLT
  2
AcDbDictionaryWithDefault
  3
ObjectDBX Classes
 90
        0
 91
        1
280
     0
281
     0
  0
CLASS
  1
VISUALSTYLE
  2
AcDbVisualStyle
  3
ObjectDBX Classes
 90
     4095
 91
        0
280
     0
281
     0
  0
CLASS
  1
MATERIAL
  2
AcDbMaterial
  3
ObjectDBX Classes
 90
        0
 91
        0
280
     0
281
     0
  0
CLASS
  1
SCALE
  2
AcDbScale
  3
ObjectDBX Classes
 90
     1153
 91
       33
280
     0
281
     0
  0
CLASS
  1
SUN
  2
AcDbSun
  3
SCENEOE
 90
     1153
 91
        1
280
     0
281
     0
  0
CLASS
  1
ACDBPLACEHOLDER
  2
AcDbPlaceHolder
  3
ObjectDBX Classes
 90
        0
 91
        1
280
     0
281
     0
  0
CLASS
  1
LAYOUT
  2
AcDbLayout
  3
ObjectDBX Classes
 90
        0
 91
        3
280
     0
281
     0
  0
ENDSEC
  0
SECTION
  2
TABLES
  0
TABLE
  2
VPORT
  5
8
330
0
100
AcDbSymbolTable
 70
     4
  0
VPORT
  5
238
330
8
100
AcDbSymbolTableRecord
100
AcDbViewportTableRecord
  2
*Active
 70
     0
 10
0.0
 20
0.0
 11
1.0
 21
1.0
 12
7.940972893837894
 22
7.308730878582569
 13
0.0
 23
0.0
 14
0.5
 24
0.5
 15
0.5
 25
0.5
 16
0.0
 26
0.0
 36
1.0
 17
0.0
 27
0.0
 37
0.0
 40
55.58367232559403
 41
2.240490797546012
 42
50.0
 43
0.0
 44
0.0
 50
0.0
 51
0.0
 71
     0
 72
  2000
 73
     1
 74
     3
 75
     0
 76
     0
 77
     0
 78
     0
281
     0
 65
     1
110
0.0
120
0.0
130
0.0
111
1.0
121
0.0
131
0.0
112
0.0
122
1.0
132
0.0
 79
     0
146
0.0
  0
ENDTAB
  0
TABLE
  2
LTYPE
  5
5
330
0
100
AcDbSymbolTable
 70
     6
  0
LTYPE
  5
14
330
5
100
AcDbSymbolTableRecord
100
AcDbLinetypeTableRecord
  2
ByBlock
 70
     0
  3

 72
    65
 73
     0
 40
0.0
  0
LTYPE
  5
15
330
5
100
AcDbSymbolTableRecord
100
AcDbLinetypeTableRecord
  2
ByLayer
 70
     0
  3

 72
    65
 73
     0
 40
0.0
  0
LTYPE
  5
16
330
5
100
AcDbSymbolTableRecord
100
AcDbLinetypeTableRecord
  2
Continuous
 70
     0
  3
Solid line
 72
    65
 73
     0
 40
0.0
  0
LTYPE
  5
6A
330
5
100
AcDbSymbolTableRecord
100
AcDbLinetypeTableRecord
  2
HIDDEN
 70
     0
  3
Hidden __ __ __ __ __ __ __ __ __ __ __ __ __ __
 72
    65
 73
     2
 40
0.075
 49
0.05
 74
     0
 49
-0.025
 74
     0
  0
LTYPE
  5
6B
330
5
100
AcDbSymbolTableRecord
100
AcDbLinetypeTableRecord
  2
PHANTOM
 70
     0
  3
Phantom ______  __  __  ______  __  __  ______
 72
    65
 73
     6
 40
0.5
 49
0.25
 74
     0
 49
-0.05
 74
     0
 49
0.05
 74
     0
 49
-0.05
 74
     0
 49
0.05
 74
     0
 49
-0.05
 74
     0
  0
LTYPE
  5
6C
330
5
100
AcDbSymbolTableRecord
100
AcDbLinetypeTableRecord
  2
CENTER
 70
     0
  3
Center ____ _ ____ _ ____ _ ____ _ ____ _ ____
 72
    65
 73
     4
 40
0.4
 49
0.25
 74
     0
 49
-0.05
 74
     0
 49
0.05
 74
     0
 49
-0.05
 74
     0
  0
LTYPE
  5
6D
330
5
100
AcDbSymbolTableRecord
100
AcDbLinetypeTableRecord
  2
CENTERX2
 70
     0
  3
Center (2x) ________  __  ________  __  _____
 72
    65
 73
     4
 40
0.8
 49
0.5
 74
     0
 49
-0.1
 74
     0
 49
0.1
 74
     0
 49
-0.1
 74
     0
  0
LTYPE
  5
6E
330
5
100
AcDbSymbolTableRecord
100
AcDbLinetypeTableRecord
  2
DOT2
 70
     0
  3
Dot (.5x) ........................................
 72
    65
 73
     2
 40
0.025
 49
0.0
 74
     0
 49
-0.025
 74
     0
  0
ENDTAB
  0
TABLE
  2
LAYER
  5
2
330
0
100
AcDbSymbolTable
 70
     1
  0
LAYER
  5
10
330
2
100
AcDbSymbolTableRecord
100
AcDbLayerTableRecord
  2
0
 70
     0
 62
     7
  6
Continuous
370
    -3
390
F
  0
ENDTAB
  0
TABLE
  2
STYLE
  5
3
330
0
100
AcDbSymbolTable
 70
     1
  0
STYLE
  5
11
330
3
100
AcDbSymbolTableRecord
100
AcDbTextStyleTableRecord
  2
Standard
 70
     0
 40
0.0
 41
1.0
 50
0.0
 71
     0
 42
0.1377952755905512
  3
txt
  4

  0
ENDTAB
  0
TABLE
  2
VIEW
  5
6
330
0
100
AcDbSymbolTable
 70
     0
  0
ENDTAB
  0
TABLE
  2
UCS
  5
7
330
0
100
AcDbSymbolTable
 70
     0
  0
ENDTAB
  0
TABLE
  2
APPID
  5
9
330
0
100
AcDbSymbolTable
 70
     1
  0
APPID
  5
12
330
9
100
AcDbSymbolTableRecord
100
AcDbRegAppTableRecord
  2
ACAD
 70
     0
  0
ENDTAB
  0
TABLE
  2
DIMSTYLE
  5
A
330
0
100
AcDbSymbolTable
 70
     1
100
AcDbDimStyleTable
 71
     0
  0
DIMSTYLE
105
27
330
A
100
AcDbSymbolTableRecord
100
AcDbDimStyleTableRecord
  2
Standard
 70
     0
340
11
  0
ENDTAB
  0
TABLE
  2
BLOCK_RECORD
  5
1
330
0
100
AcDbSymbolTable
 70
     1
  0
BLOCK_RECORD
  5
1F
330
1
100
AcDbSymbolTableRecord
100
AcDbBlockTableRecord
  2
*Model_Space
340
22
  0
BLOCK_RECORD
  5
1B
330
1
100
AcDbSymbolTableRecord
100
AcDbBlockTableRecord
  2
*Paper_Space
340
1E
  0
BLOCK_RECORD
  5
23
330
1
100
AcDbSymbolTableRecord
100
AcDbBlockTableRecord
  2
*Paper_Space0
340
26
  0
ENDTAB
  0
ENDSEC
  0
SECTION
  2
BLOCKS
  0
BLOCK
  5
20
330
1F
100
AcDbEntity
  8
0
100
AcDbBlockBegin
  2
*Model_Space
 70
     0
 10
0.0
 20
0.0
 30
0.0
  3
*Model_Space
  1

  0
ENDBLK
  5
21
330
1F
100
AcDbEntity
  8
0
100
AcDbBlockEnd
  0
BLOCK
  5
1C
330
1B
100
AcDbEntity
 67
     1
  8
0
100
AcDbBlockBegin
  2
*Paper_Space
 70
     0
 10
0.0
 20
0.0
 30
0.0
  3
*Paper_Space
  1

  0
ENDBLK
  5
1D
330
1B
100
AcDbEntity
 67
     1
  8
0
100
AcDbBlockEnd
  0
BLOCK
  5
24
330
23
100
AcDbEntity
  8
0
100
AcDbBlockBegin
  2
*Paper_Space0
 70
     0
 10
0.0
 20
0.0
 30
0.0
  3
*Paper_Space0
  1

  0
ENDBLK
  5
25
330
23
100
AcDbEntity
  8
0
100
AcDbBlockEnd
  0
ENDSEC
  0
SECTION
  2
ENTITIES
  0
LINE
  5
6F
330
1F
100
AcDbEntity
  8
0
  6
Continuous
 62
     7
370
     5
100
AcDbLine
 10
4.462725806384231
 20
-14.25413386247601
 30
0.0
 11
5.523385978164053
 21
-14.53829644477041
 31
0.0
  0
LINE
  5
70
330
1F
100
AcDbEntity
  8
0
  6
Continuous
 62
     7
370
     5
100
AcDbLine
 10
-7.250888879178869
 20
1.597910082223225
 30
0.0
 11
-6.013452012102401
 21
1.266387069546428
 31
0.0
  0
LINE
  5
71
330
1F
100
AcDbEntity
  8
0
  6
Continuous
 62
     7
370
     5
100
AcDbLine
 10
14.42498958837293
 20
26.18560466380449
 30
0.0
 11
13.18755272129646
 21
26.51712767648128
 31
0.0
  0
LINE
  5
72
330
1F
100
AcDbEntity
  8
0
  6
Continuous
 62
     7
370
     5
100
AcDbLine
 10
-8.45712930156143
 20
10.04084951234352
 30
0.0
 11
-8.45712930156143
 21
8.59568403612719
 31
0.0
  0
LINE
  5
73
330
1F
100
AcDbEntity
  8
0
  6
Continuous
 62
     7
370
     5
100
AcDbLine
 10
-8.45712930156143
 20
10.08959192005079
 30
0.0
 11
-8.45712930156143
 21
10.04084951234352
 31
0.0
  0
LINE
  5
74
330
1F
100
AcDbEntity
  8
0
  6
Continuous
 62
     7
370
     5
100
AcDbLine
 10
4.835858559735683
 20
7.850202339097507
 30
0.0
 11
7.50643822413427
 21
9.540668228017359
 31
0.0
  0
LINE
  5
75
330
1F
100
AcDbEntity
  8
0
  6
Continuous
 62
     7
370
     5
100
AcDbLine
 10
4.667465644389059
 20
7.789987041800434
 30
0.0
 11
4.703037670859359
 21
7.780456902771755
 31
0.0
  0
LINE
  5
76
330
1F
100
AcDbEntity
  8
0
  6
Continuous
 62
     7
370
     5
100
AcDbLine
 10
3.747654227854379
 20
5.154348574807295
 30
0.0
 11
4.8083143996342
 21
4.870185992512904
 31
0.0
  0
LINE
  5
77
330
1F
100
AcDbEntity
  8
0
  6
Continuous
 62
     7
370
     5
100
AcDbLine
 10
4.8083143996342
 20
4.870185992512904
 30
0.0
 11
4.8083143996342
 21
-13.82645952556563
 31
0.0
  0
LINE
  5
78
330
1F
100
AcDbEntity
  8
0
  6
Continuous
 62
     7
370
     5
100
AcDbLine
 10
3.747654227854379
 20
-13.54229694327124
 30
0.0
 11
4.8083143996342
 21
-13.82645952556563
 31
0.0
  0
LINE
  5
79
330
1F
100
AcDbEntity
  8
0
  6
Continuous
 62
     7
370
     5
100
AcDbLine
 10
3.747654227854379
 20
5.154348574807295
 30
0.0
 11
3.747654227854379
 21
-13.54229694327124
 31
0.0
  0
LINE
  5
7A
330
1F
100
AcDbEntity
  8
0
  6
Continuous
 62
     7
370
     5
100
AcDbLine
 10
8.697401696160218
 20
3.82825652410012
 30
0.0
 11
8.697401696160218
 21
-13.32823055180366
 31
0.0
  0
SPLINE
  5
7B
330
1F
100
AcDbEntity
  8
0
  6
Continuous
 62
     7
370
     5
100
AcDbSpline
210
0.0
220
0.0
230
1.0
 70
     8
 71
     3
 72
    31
 73
    27
 74
     0
 42
0.0000000001
 43
0.0000000001
 40
0.0
 40
0.0
 40
0.0
 40
0.0
 40
0.0534151686471479
 40
0.1010250274569885
 40
0.1437193519372731
 40
0.1824429481332064
 40
0.2181709445934879
 40
0.251861002804925
 40
0.2843885874985571
 40
0.326497160030909
 40
0.3690163608979915
 40
0.4125643342921449
 40
0.4573062501429438
 40
0.5030837647329268
 40
0.549532590405876
 40
0.5961780774362844
 40
0.6425150224657023
 40
0.6880827375503542
 40
0.7325471835345688
 40
0.7758008429696313
 40
0.8180847805010207
 40
0.8516923371423549
 40
0.8857580389776082
 40
0.9211326738632353
 40
0.9588409031562115
 40
1.0
 40
1.0
 40
1.0
 40
1.0
 10
4.8083143996342
 20
-13.82645952556563
 30
0.0
 10
4.851425624526396
 20
-13.90257394744069
 30
0.0
 10
4.932962625882867
 20
-14.04653046306261
 30
0.0
 10
5.068254896469208
 20
-14.22684594130816
 30
0.0
 10
5.204066798214462
 20
-14.36629394660337
 30
0.0
 10
5.341450554264257
 20
-14.46652035693951
 30
0.0
 10
5.480018641504367
 20
-14.53063757317847
 30
0.0
 10
5.619559142670271
 20
-14.56150914232817
 30
0.0
 10
5.773947351687177
 20
-14.56242730274992
 30
0.0
 10
5.944398961981183
 20
-14.52601860492469
 30
0.0
 10
6.129494499780626
 20
-14.4479444673006
 30
0.0
 10
6.314319070836596
 20
-14.33922826582873
 30
0.0
 10
6.499034506131144
 20
-14.20709775861101
 30
0.0
 10
6.683758574464482
 20
-14.05851836973918
 30
0.0
 10
6.868508271761831
 20
-13.90034862552782
 30
0.0
 10
7.053241714218235
 20
-13.73942335928195
 30
0.0
 10
7.237899580847765
 20
-13.58257380428152
 30
0.0
 10
7.422446537147664
 20
-13.43663585110384
 30
0.0
 10
7.6069229209348
 20
-13.30847872625662
 30
0.0
 10
7.791441791779741
 20
-13.20509758498215
 30
0.0
 10
7.964049258369783
 20
-13.13852449859052
 30
0.0
 10
8.123588028614429
 20
-13.10805771605616
 30
0.0
 10
8.270509491142883
 20
-13.10929597831481
 30
0.0
 10
8.416484368260043
 20
-13.14432892103784
 30
0.0
 10
8.562219546117928
 20
-13.21473822262403
 30
0.0
 10
8.651045443370415
 20
-13.28931210658357
 30
0.0
 10
8.697401696160218
 20
-13.32823055180366
 30
0.0
  0
LINE
  5
7C
330
1F
100
AcDbEntity
  8
0
  6
Continuous
 62
     7
370
     5
100
AcDbLine
 10
7.988038450668937
 20
-13.13818429854868
 30
0.0
 11
8.697401696160218
 21
-13.32823055180366
 31
0.0
  0
SPLINE
  5
7D
330
1F
100
AcDbEntity
  8
0
  6
Continuous
 62
     7
370
     5
100
AcDbSpline
210
0.0
220
0.0
230
1.0
 70
     8
 71
     3
 72
    13
 73
     9
 74
     0
 42
0.0000000001
 43
0.0000000001
 40
0.0
 40
0.0
 40
0.0
 40
0.0
 40
0.0427638279264704
 40
0.1995222387736202
 40
0.3694239965928554
 40
0.5567475277391422
 40
0.7656382170333029
 40
1.0
 40
1.0
 40
1.0
 40
1.0
 10
4.463466415664359
 20
-14.25111626581839
 30
0.0
 10
4.450095677220781
 20
-14.24846172853639
 30
0.0
 10
4.387712120891202
 20
-14.23607651310795
 30
0.0
 10
4.281196288014018
 20
-14.18076248890391
 30
0.0
 10
4.143281824330499
 20
-14.08262186025613
 30
0.0
 10
4.007633690047165
 20
-13.94253021776503
 30
0.0
 10
3.872290820909105
 20
-13.76241360142747
 30
0.0
 10
3.79076142925378
 20
-13.61842717823633
 30
0.0
 10
3.747654227854383
 20
-13.54229694327124
 30
0.0
  0
LINE
  5
7E
330
1F
100
AcDbEntity
  8
0
  6
Continuous
 62
     7
370
     5
100
AcDbLine
 10
-8.204816755095318
 20
13.47393677560147
 30
0.0
 11
-6.967379888018855
 21
13.14241376292468
 31
0.0
  0
SPLINE
  5
7F
330
1F
100
AcDbEntity
  8
0
  6
Continuous
 62
     7
370
     5
100
AcDbSpline
210
0.0
220
0.0
230
1.0
 70
     8
 71
     3
 72
    15
 73
    11
 74
     0
 42
0.0000000001
 43
0.0000000001
 40
0.0
 40
0.0
 40
0.0
 40
0.0
 40
0.1567345627796765
 40
0.2993690690186815
 40
0.4298170836916419
 40
0.5500862352460809
 40
0.662241144263053
 40
0.7683377350068496
 40
0.8855634252380829
 40
1.0
 40
1.0
 40
1.0
 40
1.0
 10
-6.967379888018901
 20
13.14241376292489
 30
0.0
 10
-7.037856632580917
 20
13.0269388365307
 30
0.0
 10
-7.172469936965208
 20
12.80637726672413
 30
0.0
 10
-7.345681280475635
 20
12.46989381366354
 30
0.0
 10
-7.486462932714644
 20
12.14886995182563
 30
0.0
 10
-7.595688619569459
 20
11.84108448524995
 30
0.0
 10
-7.675757880637645
 20
11.5458208438086
 30
0.0
 10
-7.730493005016059
 20
11.24894474102241
 30
0.0
 10
-7.760163000752569
 20
10.94904235229767
 30
0.0
 10
-7.755717391257984
 20
10.74882992144933
 30
0.0
 10
-7.7535213481376
 20
10.64992894242403
 30
0.0
  0
LINE
  5
80
330
1F
100
AcDbEntity
  8
0
  6
Continuous
 62
     7
370
     5
100
AcDbLine
 10
-7.753521348137602
 20
10.64992894242403
 30
0.0
 11
-8.151268912555032
 21
10.75648991078434
 31
0.0
  0
SPLINE
  5
81
330
1F
100
AcDbEntity
  8
0
  6
Continuous
 62
     7
370
     5
100
AcDbSpline
210
0.0
220
0.0
230
1.0
 70
     8
 71
     3
 72
    30
 73
    26
 74
     0
 42
0.0000000001
 43
0.0000000001
 40
0.0
 40
0.0
 40
0.0
 40
0.0
 40
0.0358019629235744
 40
0.0719458800153324
 40
0.1087709945577683
 40
0.1547301031085509
 40
0.2019108812686421
 40
0.2500920545717781
 40
0.2989302360165469
 40
0.3480356629941272
 40
0.3970397470425238
 40
0.4456622713742211
 40
0.4937846366623048
 40
0.5330001876423745
 40
0.5721894207003709
 40
0.6117578876138057
 40
0.6522066116412454
 40
0.6936844302579032
 40
0.7360105776804096
 40
0.7788119168817217
 40
0.8258557087016239
 40
0.8721542903815484
 40
0.9169861727915446
 40
0.9597312400921049
 40
0.9999999999999998
 40
0.9999999999999998
 40
0.9999999999999998
 40
0.9999999999999998
 10
-8.151268912555032
 20
10.75648991078434
 30
0.0
 10
-8.143219104239568
 20
10.65336298315555
 30
0.0
 10
-8.127042601726374
 20
10.44612413490109
 30
0.0
 10
-8.06798890196044
 20
10.1499555282368
 30
0.0
 10
-7.982873341891985
 20
9.841035320080818
 30
0.0
 10
-7.867922986997395
 20
9.520954581938493
 30
0.0
 10
-7.726364736219686
 20
9.188662660899643
 30
0.0
 10
-7.571858447329654
 20
8.859848586783982
 30
0.0
 10
-7.41142223873517
 20
8.530794471116262
 30
0.0
 10
-7.251960203674965
 20
8.197865280602474
 30
0.0
 10
-7.100419532740942
 20
7.857400123915689
 30
0.0
 10
-6.963781744115529
 20
7.505675195379035
 30
0.0
 10
-6.855877657145429
 20
7.160432459140454
 30
0.0
 10
-6.778423515260298
 20
6.822263429645042
 30
0.0
 10
-6.730062103494963
 20
6.492500002808614
 30
0.0
 10
-6.709820338694759
 20
6.146119680969039
 30
0.0
 10
-6.72124366267479
 20
5.783896774374247
 30
0.0
 10
-6.757168859748889
 20
5.410291159419019
 30
0.0
 10
-6.81124610838333
 20
5.029089162021162
 30
0.0
 10
-6.879344303729229
 20
4.631665569702144
 30
0.0
 10
-6.955705865437527
 20
4.222877779673762
 30
0.0
 10
-7.03314140910149
 20
3.807912893964116
 30
0.0
 10
-7.099951648867554
 20
3.405379407123344
 30
0.0
 10
-7.151678630677983
 20
3.01984160753771
 30
0.0
 10
-7.162125151572967
 20
2.772077831527545
 30
0.0
 10
-7.167192601851302
 20
2.651891347594292
 30
0.0
  0
LINE
  5
82
330
1F
100
AcDbEntity
  8
0
  6
Continuous
 62
     7
370
     5
100
AcDbLine
 10
-7.167192601851306
 20
2.651891347594285
 30
0.0
 11
-6.76944503743007
 21
2.545330379541235
 31
0.0
  0
SPLINE
  5
83
330
1F
100
AcDbEntity
  8
0
  6
Continuous
 62
     7
370
     5
100
AcDbSpline
210
0.0
220
0.0
230
1.0
 70
     8
 71
     3
 72
    17
 73
    13
 74
     0
 42
0.0000000001
 43
0.0000000001
 40
0.0
 40
0.0
 40
0.0
 40
0.0
 40
0.0917441347293602
 40
0.1802479596458857
 40
0.2666227155709382
 40
0.3514310414967733
 40
0.4381641412254309
 40
0.5295699996643522
 40
0.6286152670049791
 40
0.7382413004339853
 40
0.8612018427811841
 40
1.0
 40
1.0
 40
1.0
 40
1.0
 10
-6.769445037430075
 20
2.545330379541235
 30
0.0
 10
-6.76900879395098
 20
2.472922838139365
 30
0.0
 10
-6.768151714670124
 20
2.330665116278853
 30
0.0
 10
-6.746122606831896
 20
2.127423789215774
 30
0.0
 10
-6.70569234513258
 20
1.940004454251741
 30
0.0
 10
-6.643503186652795
 20
1.770409380466405
 30
0.0
 10
-6.557905978974268
 20
1.620306202169132
 30
0.0
 10
-6.44651198871012
 20
1.490997339845615
 30
0.0
 10
-6.307569122454037
 20
1.384090883557812
 30
0.0
 10
-6.139198958540202
 20
1.301381593395615
 30
0.0
 10
-5.939785129422674
 20
1.242197341380111
 30
0.0
 10
-5.793480873360735
 20
1.225965022081597
 30
0.0
 10
-5.715902702440968
 20
1.21735779714597
 30
0.0
  0
SPLINE
  5
84
330
1F
100
AcDbEntity
  8
0
  6
Continuous
 62
     7
370
     5
100
AcDbSpline
210
0.0
220
0.0
230
1.0
 70
     8
 71
     3
 72
    16
 73
    12
 74
     0
 42
0.0000000001
 43
0.0000000001
 40
0.0
 40
0.0
 40
0.0
 40
0.0
 40
0.1118220973316963
 40
0.2196947515698966
 40
0.324972395667201
 40
0.428340800679604
 40
0.5340552111795035
 40
0.6454650013442506
 40
0.7661860649575202
 40
0.8998034674906447
 40
1.0
 40
1.0
 40
1.0
 40
1.0
 10
-8.00688190450654
 20
2.876853392218032
 30
0.0
 10
-8.006445644701059
 20
2.804445912142999
 30
0.0
 10
-8.005588533344075
 20
2.662188310770162
 30
0.0
 10
-7.983559657713539
 20
2.458946111464672
 30
0.0
 10
-7.94312854576669
 20
2.27152997028779
 30
0.0
 10
-7.880942517110257
 20
2.101923139938496
 30
0.0
 10
-7.795333198075665
 20
1.95186545556082
 30
0.0
 10
-7.683988355705405
 20
1.822371978870296
 30
0.0
 10
-7.544837774819002
 20
1.716245761611163
 30
0.0
 10
-7.397952930857877
 20
1.640717664291894
 30
0.0
 10
-7.294310245135481
 20
1.613213770301723
 30
0.0
 10
-7.249896135568167
 20
1.601427497563873
 30
0.0
  0
LINE
  5
85
330
1F
100
AcDbEntity
  8
0
  6
Continuous
 62
     7
370
     5
100
AcDbLine
 10
-8.006881904506535
 20
2.876853392218032
 30
0.0
 11
-7.609134340089101
 21
2.770292423857634
 31
0.0
  0
SPLINE
  5
86
330
1F
100
AcDbEntity
  8
0
  6
Continuous
 62
     7
370
     5
100
AcDbSpline
210
0.0
220
0.0
230
1.0
 70
     8
 71
     3
 72
    31
 73
    27
 74
     0
 42
0.0000000001
 43
0.0000000001
 40
0.0
 40
0.0
 40
0.0
 40
0.0
 40
0.0365052759047293
 40
0.0750752206474692
 40
0.1154482505591689
 40
0.1571862931757567
 40
0.1997616587987116
 40
0.2426208958322968
 40
0.2852392996863381
 40
0.3237176343416845
 40
0.3613943262361121
 40
0.3982032926799432
 40
0.4343619553777927
 40
0.4702710084213397
 40
0.5062249938627823
 40
0.554346420596663
 40
0.6029679966193089
 40
0.6519711249169069
 40
0.7010755941671474
 40
0.7499128230967979
 40
0.7980930566987691
 40
0.845272914668895
 40
0.8912311268565366
 40
0.9280555231806175
 40
0.9641987353397501
 40
0.9999999999999998
 40
0.9999999999999998
 40
0.9999999999999998
 40
0.9999999999999998
 10
-7.609134340089108
 20
2.770292423857636
 30
0.0
 10
-7.60484005456021
 20
2.879177879433916
 30
0.0
 10
-7.596008606896393
 20
3.10310714445367
 30
0.0
 10
-7.552239593337163
 20
3.451141241549031
 30
0.0
 10
-7.494648792468947
 20
3.814169155563707
 30
0.0
 10
-7.426375046384603
 20
4.188792605684421
 30
0.0
 10
-7.354515178435591
 20
4.570592142565051
 30
0.0
 10
-7.285050221281128
 20
4.955344485865028
 30
0.0
 10
-7.225925837931592
 20
5.328372926275561
 30
0.0
 10
-7.182067300468225
 20
5.68593953137653
 30
0.0
 10
-7.156959658015551
 20
6.024851485661195
 30
0.0
 10
-7.154683865038697
 20
6.352811754433306
 30
0.0
 10
-7.179023656124407
 20
6.666737090382814
 30
0.0
 10
-7.226137399436502
 20
6.967047566610688
 30
0.0
 10
-7.3004097574789
 20
7.287104636408414
 30
0.0
 10
-7.405722754545347
 20
7.624079054031812
 30
0.0
 10
-7.5423614685514
 20
7.975800444491953
 30
0.0
 10
-7.693901888669484
 20
8.316266560141999
 30
0.0
 10
-7.853363991177504
 20
8.649195492777542
 30
0.0
 10
-8.013800181828763
 20
8.978249677048918
 30
0.0
 10
-8.168306475436684
 20
9.307063733126305
 30
0.0
 10
-8.309864724985539
 20
9.639355658863568
 30
0.0
 10
-8.424815080186069
 20
9.959436395836148
 30
0.0
 10
-8.50993064018964
 20
10.26835660424025
 30
0.0
 10
-8.568984339971009
 20
10.56452521084545
 30
0.0
 10
-8.585160842482174
 20
10.77176405910769
 30
0.0
 10
-8.593210650796624
 20
10.87489098674034
 30
0.0
  0
LINE
  5
87
330
1F
100
AcDbEntity
  8
0
  6
Continuous
 62
     7
370
     5
100
AcDbLine
 10
-8.593210650796622
 20
10.87489098674034
 30
0.0
 11
-8.990958215214051
 21
10.98145195510065
 31
0.0
  0
SPLINE
  5
88
330
1F
100
AcDbEntity
  8
0
  6
Continuous
 62
     7
370
     5
100
AcDbSpline
210
0.0
220
0.0
230
1.0
 70
     8
 71
     3
 72
    15
 73
    11
 74
     0
 42
0.0000000001
 43
0.0000000001
 40
0.0
 40
0.0
 40
0.0
 40
0.0
 40
0.156734562779666
 40
0.2993690690186614
 40
0.429817083691613
 40
0.550086235246044
 40
0.6622411442630085
 40
0.768337735006798
 40
0.8855634252380571
 40
1.0
 40
1.0
 40
1.0
 40
1.0
 10
-8.204816755095366
 20
13.47393677560169
 30
0.0
 10
-8.275293499657381
 20
13.35846184920749
 30
0.0
 10
-8.409906804041659
 20
13.13790027940092
 30
0.0
 10
-8.583118147552108
 20
12.80141682634033
 30
0.0
 10
-8.723899799791107
 20
12.48039296450242
 30
0.0
 10
-8.833125486645927
 20
12.17260749792674
 30
0.0
 10
-8.91319474771411
 20
11.87734385648539
 30
0.0
 10
-8.967929872092533
 20
11.58046775369918
 30
0.0
 10
-8.997599867829052
 20
11.28056536497437
 30
0.0
 10
-8.993154258334442
 20
11.08035293412598
 30
0.0
 10
-8.990958215214055
 20
10.98145195510065
 30
0.0
  0
SPLINE
  5
89
330
1F
100
AcDbEntity
  8
0
  6
Continuous
 62
     7
370
     5
100
AcDbSpline
210
0.0
220
0.0
230
1.0
 70
     8
 71
     3
 72
    18
 73
    14
 74
     0
 42
0.0000000001
 43
0.0000000001
 40
0.0
 40
0.0
 40
0.0
 40
0.0
 40
0.083427243594674
 40
0.1646625511671746
 40
0.2450148983522771
 40
0.3262913606174003
 40
0.4012075580090682
 40
0.4803645730124582
 40
0.5655588439698877
 40
0.658540332563071
 40
0.7609528998968608
 40
0.8743107716108234
 40
1.0
 40
1.0
 40
1.0
 40
1.0
 10
15.18232859721936
 20
25.16822715418753
 30
0.0
 10
15.16932259267511
 20
25.23943389968659
 30
0.0
 10
15.14365229845861
 20
25.37997653143353
 30
0.0
 10
15.08210879910649
 20
25.57343541020185
 30
0.0
 10
15.00141258030982
 20
25.74690958440668
 30
0.0
 10
14.90194798611331
 20
25.89151671603206
 30
0.0
 10
14.78550668173377
 20
26.00839820682541
 30
0.0
 10
14.65297131364243
 20
26.09960639211253
 30
0.0
 10
14.49877096515375
 20
26.16823109478122
 30
0.0
 10
14.32163962971404
 20
26.21320412720975
 30
0.0
 10
14.12023006474656
 20
26.23303777849047
 30
0.0
 10
13.89322359236269
 20
26.22816200043722
 30
0.0
 10
13.7325127825197
 20
26.2043774764013
 30
0.0
 10
13.64801220638115
 20
26.19187174647448
 30
0.0
  0
LINE
  5
8A
330
1F
100
AcDbEntity
  8
0
  6
Continuous
 62
     7
370
     5
100
AcDbLine
 10
15.18232859721936
 20
25.16822715418753
 30
0.0
 11
-7.753521348137602
 21
10.64992894242403
 31
0.0
  0
LINE
  5
8B
330
1F
100
AcDbEntity
  8
0
  6
Continuous
 62
     7
370
     5
100
AcDbLine
 10
-6.967379888018855
 20
13.14241376292468
 30
0.0
 11
13.6480122063812
 21
26.19187174647426
 31
0.0
  0
SPLINE
  5
8C
330
1F
100
AcDbEntity
  8
0
  6
Continuous
 62
     7
370
     5
100
AcDbSpline
210
0.0
220
0.0
230
1.0
 70
     8
 71
     3
 72
    27
 73
    23
 74
     0
 42
0.0000000001
 43
0.0000000001
 40
0.0
 40
0.0
 40
0.0
 40
0.0
 40
0.0428365014969345
 40
0.0907729277102877
 40
0.1396408764250557
 40
0.1894669700230877
 40
0.2400878456160528
 40
0.2912439070872237
 40
0.342662751889371
 40
0.392079469035659
 40
0.4414887627162278
 40
0.4910213937910241
 40
0.5410599204426051
 40
0.5920792357586887
 40
0.6441301277648063
 40
0.696944280624077
 40
0.7553616485454504
 40
0.8133568385760504
 40
0.8700803733438691
 40
0.9247138924403527
 40
0.9765868236143743
 40
1.0
 40
1.0
 40
1.0
 40
1.0
 10
15.8720462031439
 20
17.23563428034247
 30
0.0
 10
15.85464291808024
 20
17.34759014198781
 30
0.0
 10
15.81776438968038
 20
17.58483083580596
 30
0.0
 10
15.72439381125215
 20
17.92697139908491
 30
0.0
 10
15.60733069225231
 20
18.27013032757156
 30
0.0
 10
15.47328618481633
 20
18.60641408835326
 30
0.0
 10
15.33011524895654
 20
18.94088250454328
 30
0.0
 10
15.18445563386925
 20
19.27791054344035
 30
0.0
 10
15.04516215382416
 20
19.61741804986395
 30
0.0
 10
14.91860182680296
 20
19.96339281975113
 30
0.0
 10
14.81055025641522
 20
20.31936717019252
 30
0.0
 10
14.72539401055436
 20
20.69406784204161
 30
0.0
 10
14.67053400859688
 20
21.09151523988442
 30
0.0
 10
14.64918878633106
 20
21.51044973672713
 30
0.0
 10
14.65283559025472
 20
21.94437331951524
 30
0.0
 10
14.67580078859525
 20
22.4028131010016
 30
0.0
 10
14.71270265890693
 20
22.87976405055191
 30
0.0
 10
14.75614039058261
 20
23.36826678040041
 30
0.0
 10
14.79667769277124
 20
23.84601604310278
 30
0.0
 10
14.8240468164106
 20
24.30478865990154
 30
0.0
 10
14.83312884084272
 20
24.6684133009446
 30
0.0
 10
14.82164949590021
 20
24.87378927168842
 30
0.0
 10
14.8180795420715
 20
24.9376590078756
 30
0.0
  0
LINE
  5
8D
330
1F
100
AcDbEntity
  8
0
  6
Continuous
 62
     7
370
     5
100
AcDbLine
 10
15.87204620314389
 20
17.23563428034247
 30
0.0
 11
7.7841641138721
 21
12.11603834843413
 31
0.0
  0
LINE
  5
8E
330
1F
100
AcDbEntity
  8
0
  6
Continuous
 62
     7
370
     5
100
AcDbLine
 10
3.69559523350593
 20
9.527991146928213
 30
0.0
 11
-7.167192601851306
 21
2.651891347594285
 31
0.0
  0
LINE
  5
8F
330
1F
100
AcDbEntity
  8
0
  6
Continuous
 62
     7
370
     5
100
AcDbLine
 10
12.41057533930473
 20
26.52339475915106
 30
0.0
 11
13.6480122063812
 21
26.19187174647426
 31
0.0
  0
LINE
  5
90
330
1F
100
AcDbEntity
  8
0
  6
Continuous
 62
     7
370
     5
100
AcDbLine
 10
-8.204816755095318
 20
13.47393677560147
 30
0.0
 11
12.41057533930473
 21
26.52339475915106
 31
0.0
  0
SPLINE
  5
91
330
1F
100
AcDbEntity
  8
0
  6
Continuous
 62
     7
370
     5
100
AcDbSpline
210
0.0
220
0.0
230
1.0
 70
     8
 71
     3
 72
    15
 73
    11
 74
     0
 42
0.0000000001
 43
0.0000000001
 40
0.0
 40
0.0
 40
0.0
 40
0.0
 40
0.1512995496057201
 40
0.2913594133939492
 40
0.4221089325368078
 40
0.5454765117938875
 40
0.6633272077724599
 40
0.7773904825174281
 40
0.8891914913807008
 40
1.0
 40
1.0
 40
1.0
 40
1.0
 10
15.87611732968236
 20
14.88501722845471
 30
0.0
 10
15.92206228105189
 20
14.99288669252678
 30
0.0
 10
16.01053904198293
 20
15.2006122532245
 30
0.0
 10
16.11682292342769
 20
15.5134901018633
 30
0.0
 10
16.19793302747931
 20
15.81182135435743
 30
0.0
 10
16.25434235815671
 20
16.09742671174518
 30
0.0
 10
16.28824748380542
 20
16.3711145935367
 30
0.0
 10
16.30101327671242
 20
16.63369474940367
 30
0.0
 10
16.2959527911926
 20
16.88685814749625
 30
0.0
 10
16.27848748585315
 20
17.04857526144026
 30
0.0
 10
16.26979376754707
 20
17.12907331209416
 30
0.0
  0
LINE
  5
92
330
1F
100
AcDbEntity
  8
0
  6
Continuous
 62
     7
370
     5
100
AcDbLine
 10
15.87611732968241
 20
14.88501722845449
 30
0.0
 11
7.527581099184627
 21
9.600428302609582
 31
0.0
  0
LINE
  5
93
330
1F
100
AcDbEntity
  8
0
  6
Continuous
 62
     7
370
     5
100
AcDbLine
 10
4.822776583313928
 20
7.888298224173786
 30
0.0
 11
-5.715902702440923
 21
1.21735779714576
 31
0.0
  0
LINE
  5
94
330
1F
100
AcDbEntity
  8
0
  6
Continuous
 62
     7
370
     5
100
AcDbLine
 10
16.26979376754707
 20
17.12907331209416
 30
0.0
 11
7.162153852244406
 21
11.36397489146672
 31
0.0
  0
LINE
  5
95
330
1F
100
AcDbEntity
  8
0
  6
Continuous
 62
     7
370
     5
100
AcDbLine
 10
5.227039711996837
 20
10.13905563934186
 30
0.0
 11
-6.76944503743007
 21
2.545330379541235
 31
0.0
  0
LINE
  5
96
330
1F
100
AcDbEntity
  8
0
  6
Continuous
 62
     7
370
     5
100
AcDbLine
 10
16.26979376754707
 20
17.12907331209416
 30
0.0
 11
15.87204620314389
 21
17.23563428034247
 31
0.0
  0
LINE
  5
97
330
1F
100
AcDbEntity
  8
0
  6
Continuous
 62
     7
370
     5
100
AcDbLine
 10
-7.586303798912563
 20
3.143077594630376
 30
0.0
 11
-8.006881904506535
 21
2.876853392218032
 31
0.0
  0
SPLINE
  5
98
330
1F
100
AcDbEntity
  8
0
  6
Continuous
 62
     7
370
     5
100
AcDbSpline
210
0.0
220
0.0
230
1.0
 70
     8
 71
     3
 72
    11
 73
     7
 74
     0
 42
0.0000000001
 43
0.0000000001
 40
0.0
 40
0.0
 40
0.0
 40
0.0
 40
0.1313123311731064
 40
0.3918541838714189
 40
0.6802413484860188
 40
0.9999999999999998
 40
0.9999999999999998
 40
0.9999999999999998
 40
0.9999999999999998
 10
13.18663116122471
 20
26.5136400490996
 30
0.0
 10
13.15433885884448
 20
26.52282128077131
 30
0.0
 10
13.05797415583839
 20
26.55021934774269
 30
0.0
 10
12.88250938950691
 20
26.56349621019118
 30
0.0
 10
12.65587006676962
 20
26.55999763187992
 30
0.0
 10
12.49510463516738
 20
26.53600821843872
 30
0.0
 10
12.41057533930469
 20
26.52339475915128
 30
0.0
  0
LINE
  5
99
330
1F
100
AcDbEntity
  8
0
  6
Continuous
 62
     7
370
     5
100
AcDbLine
 10
19.31950211632008
 20
4.511502840545783
 30
0.0
 11
19.31950211632008
 21
3.066337364329456
 31
0.0
  0
SPLINE
  5
9A
330
1F
100
AcDbEntity
  8
0
  6
Continuous
 62
     7
370
     5
100
AcDbSpline
210
0.0
220
0.0
230
1.0
 70
     8
 71
     3
 72
    31
 73
    27
 74
     0
 42
0.0000000001
 43
0.0000000001
 40
0.0
 40
0.0
 40
0.0
 40
0.0
 40
0.0500143298618738
 40
0.0947971070993635
 40
0.1352766306271187
 40
0.172418574998129
 40
0.2071860580138265
 40
0.2404804241438939
 40
0.2730775659828583
 40
0.3186320264088929
 40
0.365021326854828
 40
0.4126433606346792
 40
0.4614210634129565
 40
0.5109710187163663
 40
0.5607435148188723
 40
0.6101383091614673
 40
0.6586123457521499
 40
0.7057980602610778
 40
0.7516487346870246
 40
0.7838222635141987
 40
0.8159023710244746
 40
0.8484499591161039
 40
0.8822109349954994
 40
0.918074783116544
 40
0.9570102099232158
 40
1.0
 40
1.0
 40
1.0
 40
1.0
 10
14.96402007779374
 20
2.149360201830979
 30
0.0
 10
15.06496216741264
 20
2.145524365862854
 30
0.0
 10
15.2562876956535
 20
2.13825392648898
 30
0.0
 10
15.53256562335014
 20
2.137231691423142
 30
0.0
 10
15.78120279612159
 20
2.143980716642018
 30
0.0
 10
16.00448078485815
 20
2.158413195459866
 30
0.0
 10
16.204162145218
 20
2.179784421598371
 30
0.0
 10
16.38212181193531
 20
2.207438076096815
 30
0.0
 10
16.56136109479722
 20
2.245032298181895
 30
0.0
 10
16.73619220658972
 20
2.294691566897148
 30
0.0
 10
16.90082061992769
 20
2.356994725576299
 30
0.0
 10
17.04383225860869
 20
2.424947702442499
 30
0.0
 10
17.17167539441339
 20
2.496887919097825
 30
0.0
 10
17.29054048232176
 20
2.571171931733035
 30
0.0
 10
17.40644393234487
 20
2.64614626868712
 30
0.0
 10
17.52535879936947
 20
2.720152724106064
 30
0.0
 10
17.65331822149386
 20
2.791541694141722
 30
0.0
 10
17.79649137330038
 20
2.858666078150573
 30
0.0
 10
17.94621831229672
 20
2.91421469784204
 30
0.0
 10
18.09932173635867
 20
2.958284872909628
 30
0.0
 10
18.25065473382851
 20
2.992378943915408
 30
0.0
 10
18.42087256259668
 20
3.021053569443798
 30
0.0
 10
18.61206442496067
 20
3.043605959659026
 30
0.0
 10
18.82607067318346
 20
3.059200303021393
 30
0.0
 10
19.0648217067054
 20
3.067748521712784
 30
0.0
 10
19.23185326121103
 20
3.066823017423915
 30
0.0
 10
19.31950211632008
 20
3.066337364329456
 30
0.0
  0
LINE
  5
9B
330
1F
100
AcDbEntity
  8
0
  6
Continuous
 62
     7
370
     5
100
AcDbLine
 10
14.96402007779374
 20
3.594525678047306
 30
0.0
 11
14.96402007779374
 21
2.149360201830979
 31
0.0
  0
SPLINE
  5
9C
330
1F
100
AcDbEntity
  8
0
  6
Continuous
 62
     7
370
     5
100
AcDbSpline
210
0.0
220
0.0
230
1.0
 70
     8
 71
     3
 72
    31
 73
    27
 74
     0
 42
0.0000000001
 43
0.0000000001
 40
0.0
 40
0.0
 40
0.0
 40
0.0
 40
0.042989790076783
 40
0.0819252168834564
 40
0.1177890650044997
 40
0.1515500408838959
 40
0.1840976289755252
 40
0.2161777364858012
 40
0.2483512653129753
 40
0.2942019397389224
 40
0.3413876542478504
 40
0.3898616908385331
 40
0.4392564851811282
 40
0.4890289812836339
 40
0.5385789365870443
 40
0.5873566393653203
 40
0.6349786731451723
 40
0.681367973591108
 40
0.7269224340171425
 40
0.759519575856107
 40
0.7928139419861738
 40
0.8275814250018727
 40
0.8647233693728825
 40
0.9052028929006375
 40
0.9499856701381284
 40
1.0
 40
1.0
 40
1.0
 40
1.0
 10
19.31950211632008
 20
4.511502840545783
 30
0.0
 10
19.23185326121104
 20
4.51198849364024
 30
0.0
 10
19.06482170670543
 20
4.5129139979291
 30
0.0
 10
18.82607067318344
 20
4.504365779237736
 30
0.0
 10
18.61206442496071
 20
4.488771435875342
 30
0.0
 10
18.42087256259668
 20
4.466219045660126
 30
0.0
 10
18.25065473382851
 20
4.437544420131734
 30
0.0
 10
18.09932173635866
 20
4.403450349125961
 30
0.0
 10
17.94621831229673
 20
4.359380174058363
 30
0.0
 10
17.79649137330036
 20
4.303831554366906
 30
0.0
 10
17.65331822149388
 20
4.236707170358049
 30
0.0
 10
17.52535879936947
 20
4.165318200322396
 30
0.0
 10
17.40644393234487
 20
4.091311744903451
 30
0.0
 10
17.29054048232178
 20
4.016337407949353
 30
0.0
 10
17.17167539441337
 20
3.942053395314159
 30
0.0
 10
17.04383225860868
 20
3.870113178658826
 30
0.0
 10
16.90082061992767
 20
3.802160201792632
 30
0.0
 10
16.73619220658977
 20
3.739857043113462
 30
0.0
 10
16.56136109479719
 20
3.690197774398229
 30
0.0
 10
16.38212181193531
 20
3.652603552313139
 30
0.0
 10
16.20416214521802
 20
3.624949897814689
 30
0.0
 10
16.00448078485813
 20
3.6035786716762
 30
0.0
 10
15.78120279612159
 20
3.589146192858345
 30
0.0
 10
15.53256562335012
 20
3.582397167639468
 30
0.0
 10
15.25628769565348
 20
3.58341940270532
 30
0.0
 10
15.06496216741263
 20
3.590689842079183
 30
0.0
 10
14.96402007779374
 20
3.594525678047306
 30
0.0
  0
LINE
  5
9D
330
1F
100
AcDbEntity
  8
0
  6
Continuous
 62
     7
370
     5
100
AcDbLine
 10
3.072516593062649
 20
6.78039088491531
 30
0.0
 11
14.96402007779374
 21
3.594525678047306
 31
0.0
  0
LINE
  5
9E
330
1F
100
AcDbEntity
  8
0
  6
Continuous
 62
     7
370
     5
100
AcDbLine
 10
-8.355717022222576
 20
9.779129809944596
 30
0.0
 11
-8.355717022222576
 21
8.396975497545708
 31
0.0
  0
LINE
  5
9F
330
1F
100
AcDbEntity
  8
0
  6
Continuous
 62
     7
370
     5
100
AcDbLine
 10
-8.355717022222576
 20
8.396975497545708
 30
0.0
 11
-7.647745782348799
 21
8.207302177979922
 31
0.0
  0
LINE
  5
A0
330
1F
100
AcDbEntity
  8
0
  6
Continuous
 62
     7
370
     5
100
AcDbLine
 10
1.468393629151311
 20
5.764987679283617
 30
0.0
 11
14.96402007779374
 21
2.149360201830979
 31
0.0
  0
SPLINE
  5
A1
330
1F
100
AcDbEntity
  8
0
  6
Continuous
 62
     7
370
     5
100
AcDbSpline
210
0.0
220
0.0
230
1.0
 70
     8
 71
     3
 72
    10
 73
     6
 74
     0
 42
0.0000000001
 43
0.0000000001
 40
0.0
 40
0.0
 40
0.0
 40
0.0
 40
0.2068095583005488
 40
0.5806762854232924
 40
1.0
 40
1.0
 40
1.0
 40
1.0
 10
-8.453796329525475
 20
8.595694892680409
 30
0.0
 10
-8.45399216228014
 20
8.581832463637775
 30
0.0
 10
-8.45454201808698
 20
8.542909776168357
 30
0.0
 10
-8.421905788443082
 20
8.476238131492129
 30
0.0
 10
-8.378607080182865
 20
8.424386890576883
 30
0.0
 10
-8.355717022222576
 20
8.396975497545708
 30
0.0
  0
LINE
  5
A2
330
1F
100
AcDbEntity
  8
0
  6
Continuous
 62
     7
370
     5
100
AcDbLine
 10
19.31950211632008
 20
5.956668316762112
 30
0.0
 11
7.041185344447455
 21
9.246165078264132
 31
0.0
  0
SPLINE
  5
A3
330
1F
100
AcDbEntity
  8
0
  6
Continuous
 62
     7
370
     5
100
AcDbSpline
210
0.0
220
0.0
230
1.0
 70
     8
 71
     3
 72
    31
 73
    27
 74
     0
 42
0.0000000001
 43
0.0000000001
 40
0.0
 40
0.0
 40
0.0
 40
0.0
 40
0.042989790076783
 40
0.0819252168834564
 40
0.1177890650044997
 40
0.1515500408838959
 40
0.1840976289755252
 40
0.2161777364858012
 40
0.2483512653129753
 40
0.2942019397389224
 40
0.3413876542478504
 40
0.3898616908385331
 40
0.4392564851811282
 40
0.4890289812836339
 40
0.5385789365870443
 40
0.5873566393653203
 40
0.6349786731451723
 40
0.681367973591108
 40
0.7269224340171425
 40
0.759519575856107
 40
0.7928139419861738
 40
0.8275814250018727
 40
0.8647233693728825
 40
0.9052028929006375
 40
0.9499856701381284
 40
1.0
 40
1.0
 40
1.0
 40
1.0
 10
19.31950211632008
 20
5.956668316762112
 30
0.0
 10
19.23185326121104
 20
5.957153969856568
 30
0.0
 10
19.06482170670543
 20
5.95807947414543
 30
0.0
 10
18.82607067318344
 20
5.949531255454061
 30
0.0
 10
18.61206442496071
 20
5.93393691209167
 30
0.0
 10
18.42087256259668
 20
5.911384521876456
 30
0.0
 10
18.25065473382851
 20
5.882709896348064
 30
0.0
 10
18.09932173635866
 20
5.848615825342289
 30
0.0
 10
17.94621831229673
 20
5.804545650274691
 30
0.0
 10
17.79649137330036
 20
5.748997030583233
 30
0.0
 10
17.65331822149388
 20
5.681872646574378
 30
0.0
 10
17.52535879936947
 20
5.610483676538723
 30
0.0
 10
17.40644393234487
 20
5.536477221119781
 30
0.0
 10
17.29054048232178
 20
5.461502884165682
 30
0.0
 10
17.17167539441337
 20
5.387218871530488
 30
0.0
 10
17.04383225860868
 20
5.315278654875156
 30
0.0
 10
16.90082061992767
 20
5.247325678008961
 30
0.0
 10
16.73619220658977
 20
5.185022519329789
 30
0.0
 10
16.56136109479719
 20
5.135363250614558
 30
0.0
 10
16.38212181193531
 20
5.097769028529469
 30
0.0
 10
16.20416214521802
 20
5.070115374031018
 30
0.0
 10
16.00448078485813
 20
5.048744147892529
 30
0.0
 10
15.78120279612159
 20
5.034311669074674
 30
0.0
 10
15.53256562335012
 20
5.027562643855797
 30
0.0
 10
15.25628769565348
 20
5.028584878921645
 30
0.0
 10
15.06496216741263
 20
5.035855318295513
 30
0.0
 10
14.96402007779374
 20
5.039691154263636
 30
0.0
  0
LINE
  5
A4
330
1F
100
AcDbEntity
  8
0
  6
Continuous
 62
     7
370
     5
100
AcDbLine
 10
4.676639556973992
 20
7.795794090547005
 30
0.0
 11
4.71389490466826
 21
7.785812971158582
 31
0.0
  0
LINE
  5
A5
330
1F
100
AcDbEntity
  8
0
  6
Continuous
 62
     7
370
     5
100
AcDbLine
 10
4.725385691636886
 20
7.782734462335043
 30
0.0
 11
5.539894661517586
 21
7.564518507459638
 31
0.0
  0
LINE
  5
A6
330
1F
100
AcDbEntity
  8
0
  6
Continuous
 62
     7
370
     5
100
AcDbLine
 10
5.849779556772487
 20
7.481496919214369
 30
0.0
 11
6.335389790352439
 21
7.351396570738846
 31
0.0
  0
LINE
  5
A7
330
1F
100
AcDbEntity
  8
0
  6
Continuous
 62
     7
370
     5
100
AcDbLine
 10
6.664469700248888
 20
7.263232425930367
 30
0.0
 11
14.96402007779374
 21
5.039691154263636
 31
0.0
  0
LINE
  5
A8
330
1F
100
AcDbEntity
  8
0
  6
Continuous
 62
     7
370
     5
100
AcDbLine
 10
19.31950211632008
 20
5.956668316762112
 30
0.0
 11
19.31950211632008
 21
4.511502840545783
 31
0.0
  0
SPLINE
  5
A9
330
1F
100
AcDbEntity
  8
0
  6
Continuous
 62
     7
370
     5
100
AcDbSpline
210
0.0
220
0.0
230
1.0
 70
     8
 71
     3
 72
    31
 73
    27
 74
     0
 42
0.0000000001
 43
0.0000000001
 40
0.0
 40
0.0
 40
0.0
 40
0.0
 40
0.042989790076783
 40
0.0819252168834564
 40
0.1177890650044997
 40
0.1515500408838959
 40
0.1840976289755252
 40
0.2161777364858012
 40
0.2483512653129753
 40
0.2942019397389224
 40
0.3413876542478504
 40
0.3898616908385331
 40
0.4392564851811282
 40
0.4890289812836339
 40
0.5385789365870443
 40
0.5873566393653203
 40
0.6349786731451723
 40
0.681367973591108
 40
0.7269224340171425
 40
0.759519575856107
 40
0.7928139419861738
 40
0.8275814250018727
 40
0.8647233693728825
 40
0.9052028929006375
 40
0.9499856701381284
 40
1.0
 40
1.0
 40
1.0
 40
1.0
 10
19.31950211632008
 20
4.511502840545783
 30
0.0
 10
19.23185326121104
 20
4.51198849364024
 30
0.0
 10
19.06482170670543
 20
4.5129139979291
 30
0.0
 10
18.82607067318344
 20
4.504365779237736
 30
0.0
 10
18.61206442496071
 20
4.488771435875342
 30
0.0
 10
18.42087256259668
 20
4.466219045660126
 30
0.0
 10
18.25065473382851
 20
4.437544420131734
 30
0.0
 10
18.09932173635866
 20
4.403450349125961
 30
0.0
 10
17.94621831229673
 20
4.359380174058363
 30
0.0
 10
17.79649137330036
 20
4.303831554366906
 30
0.0
 10
17.65331822149388
 20
4.236707170358049
 30
0.0
 10
17.52535879936947
 20
4.165318200322396
 30
0.0
 10
17.40644393234487
 20
4.091311744903451
 30
0.0
 10
17.29054048232178
 20
4.016337407949353
 30
0.0
 10
17.17167539441337
 20
3.942053395314159
 30
0.0
 10
17.04383225860868
 20
3.870113178658826
 30
0.0
 10
16.90082061992767
 20
3.802160201792632
 30
0.0
 10
16.73619220658977
 20
3.739857043113462
 30
0.0
 10
16.56136109479719
 20
3.690197774398229
 30
0.0
 10
16.38212181193531
 20
3.652603552313139
 30
0.0
 10
16.20416214521802
 20
3.624949897814689
 30
0.0
 10
16.00448078485813
 20
3.6035786716762
 30
0.0
 10
15.78120279612159
 20
3.589146192858345
 30
0.0
 10
15.53256562335012
 20
3.582397167639468
 30
0.0
 10
15.25628769565348
 20
3.58341940270532
 30
0.0
 10
15.06496216741263
 20
3.590689842079183
 30
0.0
 10
14.96402007779374
 20
3.594525678047306
 30
0.0
  0
LINE
  5
AA
330
1F
100
AcDbEntity
  8
0
  6
Continuous
 62
     7
370
     5
100
AcDbLine
 10
14.96402007779374
 20
5.039691154263636
 30
0.0
 11
14.96402007779374
 21
3.594525678047308
 31
0.0
  0
SPLINE
  5
AB
330
1F
100
AcDbEntity
  8
0
  6
Continuous
 62
     7
370
     5
100
AcDbSpline
210
0.0
220
0.0
230
1.0
 70
     8
 71
     3
 72
    10
 73
     6
 74
     0
 42
0.0000000001
 43
0.0000000001
 40
0.0
 40
0.0
 40
0.0
 40
0.0
 40
0.2051443265325942
 40
0.7169098258892224
 40
0.9999999999999998
 40
0.9999999999999998
 40
0.9999999999999998
 40
0.9999999999999998
 10
-8.396717372861031
 20
9.895169916165244
 30
0.0
 10
-8.404646210527587
 20
9.904981721036557
 30
0.0
 10
-8.432354808309019
 20
9.939270650400795
 30
0.0
 10
-8.45426087621827
 20
9.988091916685899
 30
0.0
 10
-8.453918328793287
 20
10.02700231623344
 30
0.0
 10
-8.453796329525475
 20
10.04086036889674
 30
0.0
  0
ARC
  5
AC
330
1F
100
AcDbEntity
  8
0
  6
Continuous
 62
     7
370
     5
100
AcDbCircle
 10
6.693568405510162
 20
7.255254041900138
 30
0.0
 40
0.0709402081667685
100
AcDbArc
 50
113.5918517014767
 51
183.3635227553904
  0
LINE
  5
AD
330
1F
100
AcDbEntity
  8
0
  6
Continuous
 62
     7
370
     5
100
AcDbLine
 10
6.665176807030043
 20
7.26342186765201
 30
0.0
 11
6.665176807030043
 21
7.320265043049852
 31
0.0
  0
LINE
  5
AE
330
1F
100
AcDbEntity
  8
0
  6
Continuous
 62
     7
370
     5
100
AcDbLine
 10
6.664469700248857
 20
7.26226898227967
 30
0.0
 11
6.622750400158851
 21
7.251091920709423
 31
0.0
  0
LINE
  5
AF
330
1F
100
AcDbEntity
  8
0
  6
Continuous
 62
     7
370
     5
100
AcDbLine
 10
6.665176807030043
 20
7.320265043049852
 30
0.0
 11
6.374659051511865
 21
7.398097960516612
 31
0.0
  0
LINE
  5
B0
330
1F
100
AcDbEntity
  8
0
  6
Continuous
 62
     7
370
     5
100
AcDbLine
 10
6.622750400158851
 20
7.251091920709423
 30
0.0
 11
6.332232644640673
 21
7.328924838176182
 31
0.0
  0
SPLINE
  5
B1
330
1F
100
AcDbEntity
  8
0
  6
Continuous
 62
     7
370
     5
100
AcDbSpline
210
0.0
220
0.0
230
1.0
 70
     8
 71
     3
 72
    11
 73
     7
 74
     0
 42
0.0000000001
 43
0.0000000001
 40
0.0
 40
0.0
 40
0.0
 40
0.0
 40
0.2500000000000015
 40
0.5000000000000019
 40
0.7499999999999999
 40
1.0
 40
1.0
 40
1.0
 40
1.0
 10
6.374659051511856
 20
7.398097960516613
 30
0.0
 10
6.369099620576133
 20
7.395739603125027
 30
0.0
 10
6.357980758704697
 20
7.39102288834185
 30
0.0
 10
6.343956924714198
 20
7.373898013057995
 30
0.0
 10
6.334145851509628
 20
7.352161832858596
 30
0.0
 10
6.332870380263663
 20
7.33667050307032
 30
0.0
 10
6.332232644640664
 20
7.328924838176184
 30
0.0
  0
LINE
  5
B2
330
1F
100
AcDbEntity
  8
0
  6
Continuous
 62
     7
370
     5
100
AcDbLine
 10
6.664469700248861
 20
5.949451780678374
 30
0.0
 11
6.622750400158851
 21
5.938274719108129
 31
0.0
  0
LINE
  5
B3
330
1F
100
AcDbEntity
  8
0
  6
Continuous
 62
     7
370
     5
100
AcDbLine
 10
6.622750400158851
 20
5.938274719108129
 30
0.0
 11
6.622750400158851
 21
7.251091920709423
 31
0.0
  0
LINE
  5
B4
330
1F
100
AcDbEntity
  8
0
  6
Continuous
 62
     7
370
     5
100
AcDbLine
 10
6.664469700248861
 20
5.949451780678374
 30
0.0
 11
6.664469700248857
 21
7.26226898227967
 31
0.0
  0
LINE
  5
B5
330
1F
100
AcDbEntity
  8
0
  6
Continuous
 62
     7
370
     5
100
AcDbLine
 10
6.472236801655362
 20
5.978598975603405
 30
0.0
 11
6.622750400158851
 21
5.938274719108129
 31
0.0
  0
LINE
  5
B6
330
1F
100
AcDbEntity
  8
0
  6
Continuous
 62
     7
370
     5
100
AcDbLine
 10
5.530427485179012
 20
7.516349315940868
 30
0.0
 11
6.472236801655362
 21
5.978598975603405
 31
0.0
  0
ARC
  5
B7
330
1F
100
AcDbEntity
  8
0
  6
Continuous
 62
     7
370
     5
100
AcDbCircle
 10
5.444880717279461
 20
7.550978835872973
 30
0.0
 40
0.0922900490236498
100
AcDbArc
 50
337.9617892939563
 51
354.4460780678331
  0
LINE
  5
B8
330
1F
100
AcDbEntity
  8
0
  6
Continuous
 62
     7
370
     5
100
AcDbLine
 10
5.808060256682455
 20
7.469356413993425
 30
0.0
 11
5.536737515805802
 21
7.542046774896978
 31
0.0
  0
ARC
  5
B9
330
1F
100
AcDbEntity
  8
0
  6
Continuous
 62
     7
370
     5
100
AcDbCircle
 10
5.91123692495752
 20
7.472786222745658
 30
0.0
 40
0.1032336595516205
100
AcDbArc
 50
181.9039307273676
 51
247.1178665645591
  0
LINE
  5
BA
330
1F
100
AcDbEntity
  8
0
  6
Continuous
 62
     7
370
     5
100
AcDbLine
 10
6.269197009565575
 20
7.271020671164914
 30
0.0
 11
5.871095891757553
 21
7.377676360386074
 31
0.0
  0
LWPOLYLINE
  5
BB
330
1F
100
AcDbEntity
  8
0
  6
Continuous
 62
     7
370
     5
100
AcDbPolyline
 90
        9
 70
   128
 43
0.0
 10
6.332232644640673
 20
7.328924838176182
 10
6.329665854837034
 20
7.314501697823708
 10
6.325164286438906
 20
7.301461721871207
 10
6.318871972925666
 20
7.290222141146093
 10
6.310990244973309
 20
7.281142580511394
 10
6.301771288620137
 20
7.274513552205015
 10
6.291510076249624
 20
7.270547160526481
 10
6.280534928569051
 20
7.269370315286665
 10
6.269197009565575
 20
7.271020671164914
  0
LWPOLYLINE
  5
BC
330
1F
100
AcDbEntity
  8
0
  6
Continuous
 62
     7
370
     5
100
AcDbPolyline
 90
       17
 70
   128
 43
0.0
 10
6.357585357213896
 20
6.810900482156383
 10
6.379774397319887
 20
6.798942095031581
 10
6.398585357213895
 20
6.776776867843286
 10
6.411154438773828
 20
6.747779255502626
 10
6.415568113271191
 20
6.716363881624463
 10
6.411154438773828
 20
6.687313452100669
 10
6.398585357213895
 20
6.665050631483446
 10
6.379774397319887
 20
6.652964732398793
 10
6.357585357213896
 20
6.652895723423397
 10
6.335396317107905
 20
6.664854110548199
 10
6.316585357213897
 20
6.687019337736497
 10
6.304016275653964
 20
6.716016950077154
 10
6.299602601156602
 20
6.747432323955318
 10
6.304016275653964
 20
6.77648275347911
 10
6.316585357213897
 20
6.798745574096333
 10
6.335396317107905
 20
6.810831473180988
 10
6.357585357213896
 20
6.810900482156383
  0
LWPOLYLINE
  5
BD
330
1F
100
AcDbEntity
  8
0
  6
Continuous
 62
     7
370
     5
100
AcDbPolyline
 90
       17
 70
   128
 43
0.0
 10
7.200902102759183
 20
7.653233492069714
 10
7.218677468367812
 20
7.646106330817826
 10
7.224919346701886
 20
7.637699270904289
 10
7.218677468367812
 20
7.629292210990749
 10
7.200902102759183
 20
7.622165049738862
 10
7.174299388155825
 20
7.617402832841342
 10
7.142919346701884
 20
7.615730564651238
 10
7.111539305247948
 20
7.617402832841342
 10
7.08493659064459
 20
7.622165049738861
 10
7.067161225035961
 20
7.62929221099075
 10
7.060919346701891
 20
7.637699270904287
 10
7.067161225035961
 20
7.646106330817826
 10
7.08493659064459
 20
7.653233492069714
 10
7.111539305247952
 20
7.657995708967234
 10
7.142919346701889
 20
7.659667977157338
 10
7.174299388155825
 20
7.657995708967234
 10
7.200902102759183
 20
7.653233492069714
  0
LWPOLYLINE
  5
BE
330
1F
100
AcDbEntity
  8
0
  6
Continuous
 62
     7
370
     5
100
AcDbPolyline
 90
       17
 70
   128
 43
0.0
 10
7.996397231594053
 20
8.103157580702504
 10
8.014172597202687
 20
8.096030419450615
 10
8.020414475536757
 20
8.087623359537078
 10
8.014172597202682
 20
8.079216299623539
 10
7.996397231594053
 20
8.07208913837165
 10
7.969794516990695
 20
8.06732692147413
 10
7.938414475536755
 20
8.065654653284028
 10
7.907034434082823
 20
8.067326921474132
 10
7.880431719479461
 20
8.07208913837165
 10
7.862656353870836
 20
8.079216299623539
 10
7.856414475536761
 20
8.087623359537076
 10
7.862656353870831
 20
8.096030419450615
 10
7.880431719479465
 20
8.103157580702504
 10
7.907034434082823
 20
8.107919797600022
 10
7.93841447553676
 20
8.109592065790124
 10
7.9697945169907
 20
8.107919797600022
 10
7.996397231594053
 20
8.103157580702504
  0
LWPOLYLINE
  5
BF
330
1F
100
AcDbEntity
  8
0
  6
Continuous
 62
     7
370
     5
100
AcDbPolyline
 90
       17
 70
   128
 43
0.0
 10
6.40540697392432
 20
7.676913707260914
 10
6.42318233953295
 20
7.669786546009025
 10
6.42942421786702
 20
7.661379486095488
 10
6.42318233953295
 20
7.65297242618195
 10
6.405406973924316
 20
7.64584526493006
 10
6.378804259320963
 20
7.641083048032541
 10
6.347424217867023
 20
7.639410779842439
 10
6.316044176413086
 20
7.641083048032543
 10
6.289441461809729
 20
7.64584526493006
 10
6.271666096201103
 20
7.65297242618195
 10
6.265424217867025
 20
7.661379486095487
 10
6.271666096201099
 20
7.669786546009025
 10
6.289441461809729
 20
7.676913707260914
 10
6.316044176413086
 20
7.681675924158433
 10
6.347424217867027
 20
7.683348192348536
 10
6.378804259320963
 20
7.681675924158432
 10
6.40540697392432
 20
7.676913707260914
  0
LWPOLYLINE
  5
C0
330
1F
100
AcDbEntity
  8
0
  6
Continuous
 62
     7
370
     5
100
AcDbPolyline
 90
        7
 70
   128
 43
0.0
 10
6.108059412667053
 20
8.65550022045449
 10
6.115993577053743
 20
8.654734329017964
 10
6.145191678447675
 20
8.649507505593858
 10
6.164701226066901
 20
8.641685011536907
 10
6.171552068140886
 20
8.632457750656193
 10
6.164701226066901
 20
8.623230489775481
 10
6.145191678447675
 20
8.61540799571853
  0
LINE
  5
C1
330
1F
100
AcDbEntity
  8
0
  6
Continuous
 62
     7
370
     5
100
AcDbLine
 10
6.145191678447675
 20
8.61540799571853
 30
0.0
 11
5.97099436064738
 21
8.568738609074335
 31
0.0
  0
LWPOLYLINE
  5
C2
330
1F
100
AcDbEntity
  8
0
  6
Continuous
 62
     7
370
     5
100
AcDbPolyline
 90
        9
 70
   128
 43
0.0
 10
7.366365089556842
 20
8.288242142636919
 10
7.395563190950775
 20
8.293468966061023
 10
7.430004699863633
 20
8.295304382367236
 10
7.46444620877649
 20
8.293468966061023
 10
7.493644310170422
 20
8.288242142636919
 10
7.513153857789648
 20
8.280419648579966
 10
7.520004699863632
 20
8.271192387699255
 10
7.513153857789648
 20
8.261965126818543
 10
7.493644310170422
 20
8.25414263276159
  0
LINE
  5
C3
330
1F
100
AcDbEntity
  8
0
  6
Continuous
 62
     7
370
     5
100
AcDbLine
 10
6.394093265425338
 20
8.027759775533725
 30
0.0
 11
7.366365089556842
 21
8.288242142636919
 31
0.0
  0
LWPOLYLINE
  5
C4
330
1F
100
AcDbEntity
  8
0
  6
Continuous
 62
     7
370
     5
100
AcDbPolyline
 90
        9
 70
   128
 43
0.0
 10
6.521372486038917
 20
7.993660265658398
 10
6.492174384644985
 20
7.988433442234291
 10
6.457732875732128
 20
7.986598025928079
 10
6.42329136681927
 20
7.988433442234293
 10
6.394093265425338
 20
7.993660265658398
 10
6.374583717806113
 20
8.001482759715349
 10
6.367732875732127
 20
8.010710020596061
 10
6.374583717806113
 20
8.019937281476773
 10
6.394093265425338
 20
8.027759775533725
  0
LINE
  5
C5
330
1F
100
AcDbEntity
  8
0
  6
Continuous
 62
     7
370
     5
100
AcDbLine
 10
7.493644310170422
 20
8.25414263276159
 30
0.0
 11
6.521372486038917
 21
7.993660265658398
 31
0.0
  0
LWPOLYLINE
  5
C6
330
1F
100
AcDbEntity
  8
0
  6
Continuous
 62
     7
370
     5
100
AcDbPolyline
 90
        9
 70
   128
 43
0.0
 10
6.366516100959058
 20
7.429692260664792
 10
6.376835904309504
 20
7.426381942423068
 10
6.384789280952735
 20
7.422632013206462
 10
6.390121752358285
 20
7.418562456830554
 10
6.392662699234764
 20
7.414303483993593
 10
6.392330820713871
 20
7.409991366017485
 10
6.389136735676372
 20
7.405764074671325
 10
6.383182642987351
 20
7.401756867586915
 10
6.374659051511865
 20
7.398097960516612
  0
LINE
  5
C7
330
1F
100
AcDbEntity
  8
0
  6
Continuous
 62
     7
370
     5
100
AcDbLine
 10
5.968414983151037
 20
7.536347949885954
 30
0.0
 11
6.366516100959058
 21
7.429692260664792
 31
0.0
  0
ARC
  5
C8
330
1F
100
AcDbEntity
  8
0
  6
Continuous
 62
     7
370
     5
100
AcDbCircle
 10
5.904215856964235
 20
7.254456242053197
 30
0.0
 40
0.2891097762927037
100
AcDbArc
 50
77.17006449405886
 51
100.7103184253435
  0
LINE
  5
C9
330
1F
100
AcDbEntity
  8
0
  6
Continuous
 62
     7
370
     5
100
AcDbLine
 10
5.850486663553646
 20
7.538529536333854
 30
0.0
 11
5.579163922676994
 21
7.611219897237408
 31
0.0
  0
LWPOLYLINE
  5
CA
330
1F
100
AcDbEntity
  8
0
  6
Continuous
 62
     7
370
     5
100
AcDbPolyline
 90
        9
 70
   128
 43
0.0
 10
5.571020972124197
 20
7.642814197385587
 10
5.581340775474638
 20
7.639503879143862
 10
5.589294152117869
 20
7.635753949927257
 10
5.594626623523419
 20
7.631684393551349
 10
5.597167570399903
 20
7.627425420714386
 10
5.596835691879008
 20
7.62311330273828
 10
5.593641606841506
 20
7.618886011392121
 10
5.58768751415248
 20
7.614878804307712
 10
5.579163922676994
 20
7.611219897237408
  0
LINE
  5
CB
330
1F
100
AcDbEntity
  8
0
  6
Continuous
 62
     7
370
     5
100
AcDbLine
 10
4.844115201064425
 20
7.837560287118011
 30
0.0
 11
5.571020972124197
 21
7.642814197385587
 31
0.0
  0
ARC
  5
CC
330
1F
100
AcDbEntity
  8
0
  6
Continuous
 62
     7
370
     5
100
AcDbCircle
 10
4.781469952326468
 20
7.56797095910598
 30
0.0
 40
0.2767721679783199
100
AcDbArc
 50
76.91817728502089
 51
93.23516132889604
  0
LINE
  5
CD
330
1F
100
AcDbEntity
  8
0
  6
Continuous
 62
     7
370
     5
100
AcDbLine
 10
6.612589260811982
 20
8.561227663361066
 30
0.0
 11
6.153454296848794
 21
8.684234994505114
 31
0.0
  0
LINE
  5
CE
330
1F
100
AcDbEntity
  8
0
  6
Continuous
 62
     7
370
     5
100
AcDbLine
 10
6.656783434636139
 20
8.573067770956667
 30
0.0
 11
6.612589260811982
 21
8.561227663361066
 31
0.0
  0
LINE
  5
CF
330
1F
100
AcDbEntity
  8
0
  6
Continuous
 62
     7
370
     5
100
AcDbLine
 10
8.999074647316581
 20
7.945542068389879
 30
0.0
 11
6.656783434636139
 21
8.573067770956667
 31
0.0
  0
LINE
  5
D0
330
1F
100
AcDbEntity
  8
0
  6
Continuous
 62
     7
370
     5
100
AcDbLine
 10
6.665176807030043
 20
7.320265043049852
 30
0.0
 11
8.999074647316581
 21
7.945542068389879
 31
0.0
  0
LINE
  5
D1
330
1F
100
AcDbEntity
  8
0
  6
Continuous
 62
     7
370
     5
100
AcDbLine
 10
8.999074647316581
 20
7.945542068389879
 30
0.0
 11
8.999074647316581
 21
7.888698892992037
 31
0.0
  0
LINE
  5
D2
330
1F
100
AcDbEntity
  8
0
  6
Continuous
 62
     7
370
     5
100
AcDbLine
 10
6.665176807030043
 20
7.26342186765201
 30
0.0
 11
8.999074647316581
 21
7.888698892992037
 31
0.0
  0
LINE
  5
D3
330
1F
100
AcDbEntity
  8
0
  6
Continuous
 62
     7
370
     5
100
AcDbLine
 10
6.31091630965558
 20
7.28219773273516
 30
0.0
 11
6.269197009565575
 21
7.271020671164914
 31
0.0
  0
LWPOLYLINE
  5
D4
330
1F
100
AcDbEntity
  8
0
  6
Continuous
 62
     7
370
     5
100
AcDbPolyline
 90
        8
 70
   128
 43
0.0
 10
6.398015636571828
 20
6.664437652664493
 10
6.377115617197911
 20
6.676031172118446
 10
6.358304657303903
 20
6.698196399306742
 10
6.34573557574397
 20
6.727194011647401
 10
6.341321901246608
 20
6.758609385525565
 10
6.34573557574397
 20
6.787659815049357
 10
6.358304657303903
 20
6.809922635666581
 10
6.358874377944882
 20
6.810535614485242
  0
LINE
  5
D5
330
1F
100
AcDbEntity
  8
0
  6
Continuous
 62
     7
370
     5
100
AcDbLine
 10
5.912815191847559
 20
7.388853421956321
 30
0.0
 11
5.871095891757553
 21
7.377676360386074
 31
0.0
  0
LINE
  5
D6
330
1F
100
AcDbEntity
  8
0
  6
Continuous
 62
     7
370
     5
100
AcDbLine
 10
6.31091630965558
 20
7.28219773273516
 30
0.0
 11
5.912815191847559
 21
7.388853421956321
 31
0.0
  0
LINE
  5
D7
330
1F
100
AcDbEntity
  8
0
  6
Continuous
 62
     7
370
     5
100
AcDbLine
 10
5.968414983151037
 20
7.479504774488112
 30
0.0
 11
5.968414983151037
 21
7.536347949885954
 31
0.0
  0
LINE
  5
D8
330
1F
100
AcDbEntity
  8
0
  6
Continuous
 62
     7
370
     5
100
AcDbLine
 10
5.968414983151037
 20
7.479504774488112
 30
0.0
 11
6.348514168059861
 21
7.377672002045603
 31
0.0
  0
LINE
  5
D9
330
1F
100
AcDbEntity
  8
0
  6
Continuous
 62
     7
370
     5
100
AcDbLine
 10
5.581564487989734
 20
10.94842859648786
 30
0.0
 11
4.704515449884051
 21
8.647757220593877
 31
0.0
  0
LINE
  5
DA
330
1F
100
AcDbEntity
  8
0
  6
Continuous
 62
     7
370
     5
100
AcDbLine
 10
7.054822885971256
 20
11.88099507280502
 30
0.0
 11
5.581564487989734
 21
10.94842859648786
 31
0.0
  0
LINE
  5
DB
330
1F
100
AcDbEntity
  8
0
  6
Continuous
 62
     7
370
     5
100
AcDbLine
 10
7.525558887304124
 20
9.613429418432625
 30
0.0
 11
7.054822885971256
 21
11.88099507280502
 31
0.0
  0
LINE
  5
DC
330
1F
100
AcDbEntity
  8
0
  6
Continuous
 62
     7
370
     5
100
AcDbLine
 10
4.854979222905537
 20
7.922963529512771
 30
0.0
 11
7.525558887304124
 21
9.613429418432625
 31
0.0
  0
LINE
  5
DD
330
1F
100
AcDbEntity
  8
0
  6
Continuous
 62
     7
370
     5
100
AcDbLine
 10
4.704515449884051
 20
8.647757220593877
 30
0.0
 11
4.854979222905537
 21
7.922963529512771
 31
0.0
  0
LWPOLYLINE
  5
DE
330
1F
100
AcDbEntity
  8
0
  6
Continuous
 62
     7
370
     5
100
AcDbPolyline
 90
       17
 70
   128
 43
0.0
 10
6.469809493469981
 20
11.13664766489207
 10
6.468329829483846
 20
11.16701044670063
 10
6.475601995298089
 20
11.19814805022149
 10
6.490518869589841
 20
11.22532005758166
 10
6.510809493469984
 20
11.24438977697544
 10
6.533384803387729
 20
11.25245401649254
 10
6.554807913053795
 20
11.24828506876901
 10
6.571817348222495
 20
11.23251761830415
 10
6.581823576580307
 20
11.20755211649894
 10
6.583303240566442
 20
11.17718933469038
 10
6.576031074752199
 20
11.14605173116952
 10
6.561114200460446
 20
11.11887972380934
 10
6.540823576580303
 20
11.09981000441557
 10
6.518248266662559
 20
11.09174576489846
 10
6.496825156996493
 20
11.09591471262199
 10
6.479815721827797
 20
11.11168216308686
 10
6.469809493469981
 20
11.13664766489207
  0
LWPOLYLINE
  5
DF
330
1F
100
AcDbEntity
  8
0
  6
Continuous
 62
     7
370
     5
100
AcDbPolyline
 90
       17
 70
   128
 43
0.0
 10
5.946020166831606
 20
10.86792929273427
 10
5.94454050284547
 20
10.89829207454283
 10
5.951812668659713
 20
10.92942967806368
 10
5.966729542951465
 20
10.95660168542386
 10
5.987020166831609
 20
10.97567140481764
 10
6.009595476749353
 20
10.98373564433474
 10
6.031018586415415
 20
10.97956669661121
 10
6.048028021584119
 20
10.96379924614635
 10
6.05803424994193
 20
10.93883374434113
 10
6.059513913928066
 20
10.90847096253257
 10
6.052241748113823
 20
10.87733335901172
 10
6.03732487382207
 20
10.85016135165154
 10
6.017034249941927
 20
10.83109163225777
 10
5.994458940024183
 20
10.82302739274066
 10
5.973035830358116
 20
10.82719634046419
 10
5.956026395189417
 20
10.84296379092905
 10
5.946020166831606
 20
10.86792929273427
  0
LWPOLYLINE
  5
E0
330
1F
100
AcDbEntity
  8
0
  6
Continuous
 62
     7
370
     5
100
AcDbPolyline
 90
       17
 70
   128
 43
0.0
 10
6.925698783098725
 20
10.80182978655985
 10
6.92421911911259
 20
10.83219256836841
 10
6.931491284926833
 20
10.86333017188926
 10
6.946408159218585
 20
10.89050217924944
 10
6.966698783098729
 20
10.90957189864322
 10
6.989274093016473
 20
10.91763613816032
 10
7.010697202682539
 20
10.91346719043679
 10
7.027706637851239
 20
10.89769973997193
 10
7.037712866209051
 20
10.87273423816672
 10
7.039192530195186
 20
10.84237145635815
 10
7.031920364380943
 20
10.8112338528373
 10
7.017003490089195
 20
10.78406184547712
 10
6.996712866209051
 20
10.76499212608335
 10
6.974137556291307
 20
10.75692788656624
 10
6.952714446625241
 20
10.76109683428977
 10
6.935705011456541
 20
10.77686428475463
 10
6.925698783098725
 20
10.80182978655985
  0
LWPOLYLINE
  5
E1
330
1F
100
AcDbEntity
  8
0
  6
Continuous
 62
     7
370
     5
100
AcDbPolyline
 90
       17
 70
   128
 43
0.0
 10
5.730426554787338
 20
10.04522740660851
 10
5.728946890801203
 20
10.07559018841707
 10
5.736219056615445
 20
10.10672779193792
 10
5.751135930907198
 20
10.1338997992981
 10
5.771426554787341
 20
10.15296951869188
 10
5.794001864705085
 20
10.16103375820898
 10
5.815424974371151
 20
10.15686481048545
 10
5.832434409539851
 20
10.14109736002059
 10
5.842440637897663
 20
10.11613185821538
 10
5.843920301883798
 20
10.08576907640681
 10
5.836648136069555
 20
10.05463147288596
 10
5.821731261777802
 20
10.02745946552578
 10
5.801440637897663
 20
10.008389746132
 10
5.778865327979915
 20
10.0003255066149
 10
5.757442218313853
 20
10.00449445433843
 10
5.740432783145154
 20
10.02026190480329
 10
5.730426554787338
 20
10.04522740660851
  0
LINE
  5
E2
330
1F
100
AcDbEntity
  8
0
  6
Continuous
 62
     7
370
     5
100
AcDbLine
 10
5.808060256682455
 20
7.469356413993425
 30
0.0
 11
5.84977955677246
 21
7.480533475563671
 31
0.0
  0
ARC
  5
E3
330
1F
100
AcDbEntity
  8
0
  6
Continuous
 62
     7
370
     5
100
AcDbCircle
 10
5.952956225047528
 20
7.483963284315906
 30
0.0
 40
0.1032336595516223
100
AcDbArc
 50
181.9039307273686
 51
247.1178665645584
  0
LINE
  5
E4
330
1F
100
AcDbEntity
  8
0
  6
Continuous
 62
     7
370
     5
100
AcDbLine
 10
5.850486663553646
 20
7.538529536333854
 30
0.0
 11
5.850486663553646
 21
7.481686360936012
 31
0.0
  0
ARC
  5
E5
330
1F
100
AcDbEntity
  8
0
  6
Continuous
 62
     7
370
     5
100
AcDbCircle
 10
5.904215856964235
 20
7.197613066655357
 30
0.0
 40
0.289109776292702
100
AcDbArc
 50
77.17006449405878
 51
100.7103184253435
  0
SPLINE
  5
E6
330
1F
100
AcDbEntity
  8
0
  6
Continuous
 62
     7
370
     5
100
AcDbSpline
210
0.0
220
0.0
230
1.0
 70
     8
 71
     3
 72
    11
 73
     7
 74
     0
 42
0.0000000001
 43
0.0000000001
 40
0.0
 40
0.0
 40
0.0
 40
0.0
 40
0.2500000000000005
 40
0.4999999999999984
 40
0.7499999999999986
 40
1.0
 40
1.0
 40
1.0
 40
1.0
 10
5.808060256682455
 20
7.469356413993423
 30
0.0
 10
5.808697992305431
 20
7.477102078887565
 30
0.0
 10
5.809973463551414
 20
7.492593408675836
 30
0.0
 10
5.819784536755993
 20
7.514329588875233
 30
0.0
 10
5.833808370746483
 20
7.531454464159089
 30
0.0
 10
5.844927232617928
 20
7.536171178942264
 30
0.0
 10
5.850486663553646
 20
7.538529536333854
 30
0.0
  0
SPLINE
  5
E7
330
1F
100
AcDbEntity
  8
0
  6
Continuous
 62
     7
370
     5
100
AcDbSpline
210
0.0
220
0.0
230
1.0
 70
     8
 71
     3
 72
    11
 73
     7
 74
     0
 42
0.0000000001
 43
0.0000000001
 40
0.0
 40
0.0
 40
0.0
 40
0.0
 40
0.2500000000000016
 40
0.500000000000002
 40
0.75
 40
1.0
 40
1.0
 40
1.0
 40
1.0
 10
5.579163922676994
 20
7.611219897237408
 30
0.0
 10
5.573604491741281
 20
7.608861539845819
 30
0.0
 10
5.562485629869827
 20
7.604144825062646
 30
0.0
 10
5.548461795879341
 20
7.587019949778789
 30
0.0
 10
5.53865072267477
 20
7.565283769579389
 30
0.0
 10
5.537375251428792
 20
7.549792439791116
 30
0.0
 10
5.536737515805802
 20
7.542046774896978
 30
0.0
  0
LINE
  5
E8
330
1F
100
AcDbEntity
  8
0
  6
Continuous
 62
     7
370
     5
100
AcDbLine
 10
4.662796149794045
 20
8.658934282164125
 30
0.0
 11
4.704515449884051
 21
8.647757220593877
 31
0.0
  0
LINE
  5
E9
330
1F
100
AcDbEntity
  8
0
  6
Continuous
 62
     7
370
     5
100
AcDbLine
 10
5.539845187899723
 20
10.9596056580581
 30
0.0
 11
5.581564487989734
 21
10.94842859648786
 31
0.0
  0
LINE
  5
EA
330
1F
100
AcDbEntity
  8
0
  6
Continuous
 62
     7
370
     5
100
AcDbLine
 10
5.539845187899723
 20
10.9596056580581
 30
0.0
 11
4.662796149794045
 21
8.658934282164125
 31
0.0
  0
LINE
  5
EB
330
1F
100
AcDbEntity
  8
0
  6
Continuous
 62
     7
370
     5
100
AcDbLine
 10
4.844115201064425
 20
7.78071711172017
 30
0.0
 11
4.844115201064425
 21
7.837560287118011
 31
0.0
  0
LINE
  5
EC
330
1F
100
AcDbEntity
  8
0
  6
Continuous
 62
     7
370
     5
100
AcDbLine
 10
4.844115201064425
 20
7.78071711172017
 30
0.0
 11
5.553019039225004
 21
7.590793938766397
 31
0.0
  0
LINE
  5
ED
330
1F
100
AcDbEntity
  8
0
  6
Continuous
 62
     7
370
     5
100
AcDbLine
 10
4.854979222905537
 20
7.922963529512771
 30
0.0
 11
4.813259922815536
 21
7.934140591083017
 31
0.0
  0
LINE
  5
EE
330
1F
100
AcDbEntity
  8
0
  6
Continuous
 62
     7
370
     5
100
AcDbLine
 10
4.662796149794045
 20
8.658934282164125
 30
0.0
 11
4.813259922815536
 21
7.934140591083017
 31
0.0
  0
LINE
  5
EF
330
1F
100
AcDbEntity
  8
0
  6
Continuous
 62
     7
370
     5
100
AcDbLine
 10
4.823122359298203
 20
7.844994336292716
 30
0.0
 11
4.794578837452413
 21
7.844726726433336
 31
0.0
  0
LWPOLYLINE
  5
F0
330
1F
100
AcDbEntity
  8
0
  6
Continuous
 62
     7
370
     5
100
AcDbPolyline
 90
        9
 70
   128
 43
0.0
 10
4.854979222905537
 20
7.922963529512771
 10
4.857145293203838
 20
7.908444699430009
 10
4.857465984156201
 20
7.894739179198313
 10
4.855933958374667
 20
7.882160550221237
 10
4.852584268508597
 20
7.870996610704373
 10
4.847493555242316
 20
7.861502790851297
 10
4.840778293761317
 20
7.853896308637268
 10
4.832592128807621
 20
7.848351199876213
 10
4.823122359298203
 20
7.844994336292716
  0
ARC
  5
F1
330
1F
100
AcDbEntity
  8
0
  6
Continuous
 62
     7
370
     5
100
AcDbCircle
 10
7.464391423730293
 20
9.590610484081423
 30
0.0
 40
0.0652852384921768
100
AcDbArc
 50
310.0943044198452
 51
20.45836906976105
  0
LINE
  5
F2
330
1F
100
AcDbEntity
  8
0
  6
Continuous
 62
     7
370
     5
100
AcDbLine
 10
7.054822885971256
 20
11.88099507280502
 30
0.0
 11
7.013103585881246
 21
11.89217213437527
 31
0.0
  0
LINE
  5
F3
330
1F
100
AcDbEntity
  8
0
  6
Continuous
 62
     7
370
     5
100
AcDbLine
 10
7.013103585881246
 20
11.89217213437527
 30
0.0
 11
5.539845187899723
 21
10.9596056580581
 31
0.0
  0
LINE
  5
F4
330
1F
100
AcDbEntity
  8
0
  6
Continuous
 62
     7
370
     5
100
AcDbLine
 10
4.807330025953356
 20
7.878520617211509
 30
0.0
 11
4.823122359298203
 21
7.844994336292716
 31
0.0
  0
LINE
  5
F5
330
1F
100
AcDbEntity
  8
0
  6
Continuous
 62
     7
370
     5
100
AcDbLine
 10
4.794578837452417
 20
7.844726726433338
 30
0.0
 11
4.789859175705764
 21
7.867461641219255
 31
0.0
  0
ARC
  5
F6
330
1F
100
AcDbEntity
  8
0
  6
Continuous
 62
     7
370
     5
100
AcDbCircle
 10
4.782831266832748
 20
7.66358346569515
 30
0.0
 40
0.1815237899734558
100
AcDbArc
 50
86.2894288279409
 51
100.5041774397215
  0
SPLINE
  5
F7
330
1F
100
AcDbEntity
  8
0
  6
Continuous
 62
     7
370
     5
100
AcDbSpline
210
0.0
220
0.0
230
1.0
 70
     8
 71
     3
 72
    10
 73
     6
 74
     0
 42
0.0000000001
 43
0.0000000001
 40
0.0
 40
0.0
 40
0.0
 40
0.0
 40
0.4156393229817092
 40
0.8392761751955601
 40
1.0
 40
1.0
 40
1.0
 40
1.0
 10
4.683435971207667
 20
7.800096192664445
 30
0.0
 10
4.685910892820212
 20
7.795357856005426
 30
0.0
 10
4.690908357280458
 20
7.785790009923297
 30
0.0
 10
4.700745156860088
 20
7.780388366398788
 30
0.0
 10
4.706955240777602
 20
7.779803570459541
 30
0.0
 10
4.708663275693078
 20
7.779642726919272
 30
0.0
  0
LINE
  5
F8
330
1F
100
AcDbEntity
  8
0
  6
Continuous
 62
     7
370
     5
100
AcDbLine
 10
4.71737534790787
 20
7.780860399764502
 30
0.0
 11
4.71737534790787
 21
7.827396952954597
 31
0.0
  0
LINE
  5
F9
330
1F
100
AcDbEntity
  8
0
  6
Continuous
 62
     7
370
     5
100
AcDbLine
 10
4.708663275693078
 20
7.779642726919272
 30
0.0
 11
4.717375347907948
 21
7.780860399764523
 31
0.0
  0
ARC
  5
FA
330
1F
100
AcDbEntity
  8
0
  6
Continuous
 62
     7
370
     5
100
AcDbCircle
 10
4.77991607487763
 20
7.498825403887455
 30
0.0
 40
0.2891097762926607
100
AcDbArc
 50
77.17006449405818
 51
100.7103184253455
  0
ARC
  5
FB
330
1F
100
AcDbEntity
  8
0
  6
Continuous
 62
     7
370
     5
100
AcDbCircle
 10
4.757213426212884
 20
7.6287061953793
 30
0.0
 40
0.1572831027006085
100
AcDbArc
 50
101.3771037981595
 51
104.6722234277433
  0
ARC
  5
FC
330
1F
100
AcDbEntity
  8
0
  6
Continuous
 62
     7
370
     5
100
AcDbCircle
 10
5.923472844785591
 20
10.92442710071879
 30
0.0
 40
0.0963678553981639
100
AcDbArc
 50
293.3040216667161
 51
36.70005618513393
  0
ARC
  5
FD
330
1F
100
AcDbEntity
  8
0
  6
Continuous
 62
     7
370
     5
100
AcDbCircle
 10
5.70787923274371
 20
10.10172521459239
 30
0.0
 40
0.0963678553960485
100
AcDbArc
 50
293.3040216625977
 51
36.70005618924978
  0
ARC
  5
FE
330
1F
100
AcDbEntity
  8
0
  6
Continuous
 62
     7
370
     5
100
AcDbCircle
 10
6.447262171425201
 20
11.19314547287652
 30
0.0
 40
0.0963678553971523
100
AcDbArc
 50
293.3040216637462
 51
36.70005618595371
  0
LINE
  5
FF
330
1F
100
AcDbEntity
  8
0
  6
Continuous
 62
     7
370
     5
100
AcDbLine
 10
7.366365089556842
 20
8.231398967239076
 30
0.0
 11
7.366365089556842
 21
8.288242142636919
 31
0.0
  0
LINE
  5
100
330
1F
100
AcDbEntity
  8
0
  6
Continuous
 62
     7
370
     5
100
AcDbLine
 10
6.452762810450398
 20
7.986634819656074
 30
0.0
 11
7.366365089556842
 21
8.231398967239076
 31
0.0
  0
ARC
  5
101
330
1F
100
AcDbEntity
  8
0
  6
Continuous
 62
     7
370
     5
100
AcDbCircle
 10
6.9031514610547
 20
10.85832759454384
 30
0.0
 40
0.0963678553964003
100
AcDbArc
 50
293.3040216632798
 51
36.70005618857109
  0
ARC
  5
102
330
1F
100
AcDbEntity
  8
0
  6
Continuous
 62
     7
370
     5
100
AcDbCircle
 10
7.428771073002729
 20
7.960479222011714
 30
0.0
 40
0.2780144153167374
100
AcDbArc
 50
88.7213796772704
 51
102.9717327578489
  0
LINE
  5
103
330
1F
100
AcDbEntity
  8
0
  6
Continuous
 62
     7
370
     5
100
AcDbLine
 10
6.002099035219832
 20
8.588427739509819
 30
0.0
 11
6.017912457834096
 21
8.592664330196017
 31
0.0
  0
ARC
  5
104
330
1F
100
AcDbEntity
  8
0
  6
Continuous
 62
     7
370
     5
100
AcDbCircle
 10
6.080318441280043
 20
8.321744584968065
 30
0.0
 40
0.2780144153173248
100
AcDbArc
 50
88.72137967728482
 51
102.9717327578338
  0
LINE
  5
105
330
1F
100
AcDbEntity
  8
0
  6
Continuous
 62
     7
370
     5
100
AcDbLine
 10
4.093342797883307
 20
9.421430178760733
 30
0.0
 11
2.491981656326422
 21
17.1352899952172
 31
0.0
  0
LINE
  5
106
330
1F
100
AcDbEntity
  8
0
  6
Continuous
 62
     7
370
     5
100
AcDbLine
 10
4.093342797883307
 20
9.421430178760733
 30
0.0
 11
3.695595233465874
 21
9.527991147121131
 31
0.0
  0
LINE
  5
107
330
1F
100
AcDbEntity
  8
0
  6
Continuous
 62
     7
370
     5
100
AcDbLine
 10
3.695595233465874
 20
9.527991147121131
 30
0.0
 11
2.159982636361477
 21
16.92513598787295
 31
0.0
  0
LINE
  5
108
330
1F
100
AcDbEntity
  8
0
  6
Continuous
 62
     7
370
     5
100
AcDbLine
 10
6.248551516733639
 20
19.51318318934998
 30
0.0
 11
2.491981656326422
 21
17.1352899952172
 31
0.0
  0
LINE
  5
109
330
1F
100
AcDbEntity
  8
0
  6
Continuous
 62
     7
370
     5
100
AcDbLine
 10
7.849912658290525
 20
11.79932337289351
 30
0.0
 11
6.248551516733639
 21
19.51318318934998
 31
0.0
  0
LINE
  5
10A
330
1F
100
AcDbEntity
  8
0
  6
Continuous
 62
     7
370
     5
100
AcDbLine
 10
7.849912658290525
 20
11.79932337289351
 30
0.0
 11
7.162153852244402
 21
11.36397489146672
 31
0.0
  0
LINE
  5
10B
330
1F
100
AcDbEntity
  8
0
  6
Continuous
 62
     7
370
     5
100
AcDbLine
 10
5.227039711996829
 20
10.13905563934185
 30
0.0
 11
4.093342797883307
 21
9.421430178760733
 31
0.0
  0
LINE
  5
10C
330
1F
100
AcDbEntity
  8
0
  6
Continuous
 62
     8
370
     5
100
AcDbLine
 10
6.366516100959058
 20
7.393709462655356
 30
0.0
 11
6.366516100959058
 21
7.429692260664792
 31
0.0
  0
LINE
  5
10D
330
1F
100
AcDbEntity
  8
0
  6
Continuous
 62
     8
370
     5
100
AcDbLine
 10
5.571020972124197
 20
7.60683139937615
 30
0.0
 11
5.571020972124197
 21
7.642814197385587
 31
0.0
  0
LINE
  5
10E
330
1F
100
AcDbEntity
  8
0
  6
Continuous
 62
     8
370
     5
100
AcDbLine
 10
4.72618688146704
 20
7.827157342150883
 30
0.0
 11
4.72618688146704
 21
7.782898698168068
 31
0.0
  0
LINE
  5
10F
330
1F
100
AcDbEntity
  8
0
  6
Continuous
 62
     8
370
     5
100
AcDbLine
 10
6.394093265425338
 20
7.993660265658398
 30
0.0
 11
6.394093265425338
 21
8.027759775533725
 31
0.0
  0
LINE
  5
110
330
1F
100
AcDbEntity
  8
0
  6
Continuous
 62
     8
370
     5
100
AcDbLine
 10
6.017912457834096
 20
8.592664330196017
 30
0.0
 11
6.017912457834096
 21
8.598437570661031
 31
0.0
  0
ARC
  5
111
330
1F
100
AcDbEntity
  8
0
  6
HIDDEN
 62
     7
370
     5
100
AcDbCircle
 10
6.665650000338049
 20
7.262338350966179
 30
0.0
 40
0.0011823368027838
100
AcDbArc
 50
113.5918517016197
 51
183.363522755227
  0
LWPOLYLINE
  5
112
330
1F
100
AcDbEntity
  8
0
  6
HIDDEN
 62
     7
370
     5
100
AcDbPolyline
 90
       17
 70
   128
 43
0.0
 10
3.576979849178137
 20
9.097726618732881
 10
3.594755214786762
 20
9.090599457480994
 10
3.600997093120841
 20
9.082192397567455
 10
3.594755214786762
 20
9.073785337653918
 10
3.576979849178133
 20
9.066658176402029
 10
3.550377134574775
 20
9.061895959504511
 10
3.518997093120839
 20
9.060223691314405
 10
3.487617051666902
 20
9.061895959504509
 10
3.461014337063545
 20
9.066658176402029
 10
3.44323897145492
 20
9.073785337653918
 10
3.436997093120841
 20
9.082192397567455
 10
3.443238971454916
 20
9.090599457480994
 10
3.461014337063549
 20
9.097726618732881
 10
3.487617051666907
 20
9.102488835630401
 10
3.518997093120843
 20
9.104161103820505
 10
3.55037713457478
 20
9.102488835630401
 10
3.576979849178137
 20
9.097726618732881
  0
LWPOLYLINE
  5
113
330
1F
100
AcDbEntity
  8
0
  6
HIDDEN
 62
     7
370
     5
100
AcDbPolyline
 90
       17
 70
   128
 43
0.0
 10
4.372474978013003
 20
9.074046403541682
 10
4.390250343621633
 20
9.066919242289792
 10
4.396492221955707
 20
9.058512182376254
 10
4.390250343621628
 20
9.050105122462717
 10
4.372474978013003
 20
9.042977961210828
 10
4.345872263409641
 20
9.03821574431331
 10
4.314492221955705
 20
9.036543476123204
 10
4.283112180501769
 20
9.03821574431331
 10
4.256509465898411
 20
9.042977961210828
 10
4.238734100289781
 20
9.050105122462717
 10
4.232492221955712
 20
9.058512182376256
 10
4.238734100289781
 20
9.066919242289793
 10
4.256509465898416
 20
9.074046403541682
 10
4.283112180501777
 20
9.0788086204392
 10
4.31449222195571
 20
9.080480888629304
 10
4.345872263409646
 20
9.0788086204392
 10
4.372474978013003
 20
9.074046403541682
  0
LWPOLYLINE
  5
114
330
1F
100
AcDbEntity
  8
0
  6
HIDDEN
 62
     7
370
     5
100
AcDbPolyline
 90
       17
 70
   128
 43
0.0
 10
2.781484720343271
 20
8.647802530100094
 10
2.799260085951896
 20
8.640675368848203
 10
2.805501964285975
 20
8.632268308934666
 10
2.799260085951896
 20
8.623861249021128
 10
2.781484720343267
 20
8.616734087769239
 10
2.754882005739909
 20
8.611971870871721
 10
2.723501964285973
 20
8.610299602681616
 10
2.692121922832032
 20
8.611971870871721
 10
2.665519208228679
 20
8.616734087769238
 10
2.647743842620049
 20
8.623861249021128
 10
2.641501964285975
 20
8.632268308934667
 10
2.647743842620049
 20
8.640675368848205
 10
2.665519208228679
 20
8.647802530100094
 10
2.692121922832041
 20
8.652564746997612
 10
2.723501964285977
 20
8.654237015187716
 10
2.754882005739909
 20
8.652564746997612
 10
2.781484720343271
 20
8.647802530100094
  0
ARC
  5
115
330
1F
100
AcDbEntity
  8
0
  6
HIDDEN
 62
     7
370
     5
100
AcDbCircle
 10
6.081863515020899
 20
8.368533013336286
 30
0.0
 40
0.2881603772462656
100
AcDbArc
 50
84.78419131635947
 51
102.8223399754855
  0
LINE
  5
116
330
1F
100
AcDbEntity
  8
0
  6
HIDDEN
 62
     7
370
     5
100
AcDbLine
 10
5.045640633702591
 20
8.389025138490664
 30
0.0
 11
6.017912457834096
 21
8.649507505593858
 31
0.0
  0
LWPOLYLINE
  5
117
330
1F
100
AcDbEntity
  8
0
  6
HIDDEN
 62
     7
370
     5
100
AcDbPolyline
 90
        9
 70
   128
 43
0.0
 10
5.17291985431617
 20
8.354925628615339
 10
5.143721752922239
 20
8.349698805191232
 10
5.109280244009386
 20
8.34786338888502
 10
5.074838735096528
 20
8.349698805191232
 10
5.045640633702595
 20
8.354925628615337
 10
5.026131086083371
 20
8.362748122672289
 10
5.019280244009389
 20
8.371975383552999
 10
5.026131086083371
 20
8.381202644433711
 10
5.045640633702591
 20
8.389025138490664
  0
LINE
  5
118
330
1F
100
AcDbEntity
  8
0
  6
HIDDEN
 62
     7
370
     5
100
AcDbLine
 10
5.97099436064738
 20
8.568738609074335
 30
0.0
 11
5.17291985431617
 21
8.354925628615339
 31
0.0
  0
LWPOLYLINE
  5
119
330
1F
100
AcDbEntity
  8
0
  6
HIDDEN
 62
     7
370
     5
100
AcDbPolyline
 90
        9
 70
   128
 43
0.0
 10
3.963767258487176
 20
8.678870972430948
 10
3.992965359881108
 20
8.684097795855052
 10
4.027406868793966
 20
8.685933212161264
 10
4.061848377706824
 20
8.684097795855052
 10
4.091046479100755
 20
8.678870972430946
 10
4.110556026719981
 20
8.671048478373995
 10
4.117406868793966
 20
8.661821217493283
 10
4.110556026719981
 20
8.652593956612571
 10
4.091046479100755
 20
8.64477146255562
  0
LINE
  5
11A
330
1F
100
AcDbEntity
  8
0
  6
HIDDEN
 62
     7
370
     5
100
AcDbLine
 10
2.991495434355671
 20
8.418388605327754
 30
0.0
 11
3.963767258487176
 21
8.678870972430948
 31
0.0
  0
LWPOLYLINE
  5
11B
330
1F
100
AcDbEntity
  8
0
  6
HIDDEN
 62
     7
370
     5
100
AcDbPolyline
 90
        9
 70
   128
 43
0.0
 10
3.118774654969251
 20
8.384289095452425
 10
3.089576553575319
 20
8.37906227202832
 10
3.055135044662461
 20
8.377226855722108
 10
3.020693535749603
 20
8.37906227202832
 10
2.991495434355671
 20
8.384289095452425
 10
2.971985886736446
 20
8.392111589509378
 10
2.965135044662461
 20
8.401338850390089
 10
2.971985886736446
 20
8.410566111270801
 10
2.991495434355671
 20
8.418388605327754
  0
LINE
  5
11C
330
1F
100
AcDbEntity
  8
0
  6
HIDDEN
 62
     7
370
     5
100
AcDbLine
 10
4.091046479100755
 20
8.64477146255562
 30
0.0
 11
3.118774654969251
 21
8.384289095452425
 31
0.0
  0
ARC
  5
11D
330
1F
100
AcDbEntity
  8
0
  6
HIDDEN
 62
     7
370
     5
100
AcDbCircle
 10
4.77609852898893
 20
7.580392171198046
 30
0.0
 40
0.264108766754625
100
AcDbArc
 50
92.22375979021753
 51
100.8933465104824
  0
LINE
  5
11E
330
1F
100
AcDbEntity
  8
0
  6
HIDDEN
 62
     7
370
     5
100
AcDbLine
 10
4.72618688146704
 20
7.83974187356591
 30
0.0
 11
3.389254221342265
 21
8.197920908814566
 31
0.0
  0
LWPOLYLINE
  5
11F
330
1F
100
AcDbEntity
  8
0
  6
HIDDEN
 62
     7
370
     5
100
AcDbPolyline
 90
        9
 70
   128
 43
0.0
 10
3.381111270789458
 20
8.229515208962746
 10
3.391431074139904
 20
8.226204890721023
 10
3.399384450783134
 20
8.222454961504416
 10
3.404716922188685
 20
8.218385405128508
 10
3.407257869065169
 20
8.214126432291545
 10
3.406925990544275
 20
8.209814314315439
 10
3.403731905506772
 20
8.205587022969279
 10
3.39777781281775
 20
8.201579815884869
 10
3.389254221342265
 20
8.197920908814566
  0
LINE
  5
120
330
1F
100
AcDbEntity
  8
0
  6
HIDDEN
 62
     7
370
     5
100
AcDbLine
 10
2.654205499729691
 20
8.424261298695169
 30
0.0
 11
3.381111270789458
 21
8.229515208962746
 31
0.0
  0
ARC
  5
121
330
1F
100
AcDbEntity
  8
0
  6
HIDDEN
 62
     7
370
     5
100
AcDbCircle
 10
2.590006373542897
 20
8.142369590862456
 30
0.0
 40
0.2891097762926597
100
AcDbArc
 50
77.17006449405831
 51
100.7103184253457
  0
LINE
  5
122
330
1F
100
AcDbEntity
  8
0
  6
HIDDEN
 62
     7
370
     5
100
AcDbLine
 10
2.536277180132306
 20
8.426442885143067
 30
0.0
 11
2.264247332474468
 21
8.499322687768152
 31
0.0
  0
LWPOLYLINE
  5
123
330
1F
100
AcDbEntity
  8
0
  6
HIDDEN
 62
     7
370
     5
100
AcDbPolyline
 90
        9
 70
   128
 43
0.0
 10
2.256104381921665
 20
8.530916987916333
 10
2.266424185272107
 20
8.527606669674609
 10
2.274377561915337
 20
8.523856740458004
 10
2.279710033320887
 20
8.519787184082096
 10
2.282250980197372
 20
8.515528211245131
 10
2.281919101676482
 20
8.511216093269025
 10
2.27872501663898
 20
8.506988801922867
 10
2.272770923949953
 20
8.502981594838455
 10
2.264247332474468
 20
8.499322687768152
  0
LINE
  5
124
330
1F
100
AcDbEntity
  8
0
  6
HIDDEN
 62
     7
370
     5
100
AcDbLine
 10
1.85871037089483
 20
8.637383235415965
 30
0.0
 11
2.256104381921665
 21
8.530916987916333
 31
0.0
  0
ARC
  5
125
330
1F
100
AcDbEntity
  8
0
  6
HIDDEN
 62
     7
370
     5
100
AcDbCircle
 10
1.794511244708031
 20
8.355491527583128
 30
0.0
 40
0.2891097762927819
100
AcDbArc
 50
77.17006449406297
 51
100.7103184253411
  0
LINE
  5
126
330
1F
100
AcDbEntity
  8
0
  6
HIDDEN
 62
     7
370
     5
100
AcDbLine
 10
1.740782051297439
 20
8.639564821863864
 30
0.0
 11
1.450264295779261
 21
8.717397739330623
 31
0.0
  0
LINE
  5
127
330
1F
100
AcDbEntity
  8
0
  6
HIDDEN
 62
     7
370
     5
100
AcDbLine
 10
3.784162136065798
 20
9.342674764670649
 30
0.0
 11
1.450264295779261
 21
8.717397739330623
 31
0.0
  0
LINE
  5
128
330
1F
100
AcDbEntity
  8
0
  6
HIDDEN
 62
     7
370
     5
100
AcDbLine
 10
6.126453348746232
 20
8.715149062103863
 30
0.0
 11
3.784162136065798
 21
9.342674764670649
 31
0.0
  0
LINE
  5
129
330
1F
100
AcDbEntity
  8
0
  6
HIDDEN
 62
     7
370
     5
100
AcDbLine
 10
6.082259174922072
 20
8.703308954508264
 30
0.0
 11
6.126453348746232
 21
8.715149062103863
 31
0.0
  0
LINE
  5
12A
330
1F
100
AcDbEntity
  8
0
  6
HIDDEN
 62
     7
370
     5
100
AcDbLine
 10
6.153454296848794
 20
8.684234994505114
 30
0.0
 11
6.082259174922072
 21
8.703308954508264
 31
0.0
  0
LINE
  5
12B
330
1F
100
AcDbEntity
  8
0
  6
HIDDEN
 62
     7
370
     5
100
AcDbLine
 10
6.664469700248857
 20
7.26226898227967
 30
0.0
 11
6.373951944730679
 21
7.34010189974643
 31
0.0
  0
LINE
  5
12C
330
1F
100
AcDbEntity
  8
0
  6
HIDDEN
 62
     7
370
     5
100
AcDbLine
 10
6.665176807030043
 20
7.26342186765201
 30
0.0
 11
6.374659051511865
 21
7.341254785118771
 31
0.0
  0
LINE
  5
12D
330
1F
100
AcDbEntity
  8
0
  6
HIDDEN
 62
     7
370
     5
100
AcDbLine
 10
5.572146785269018
 20
7.527526377511115
 30
0.0
 11
6.513956101745372
 21
5.989776037173651
 31
0.0
  0
SPLINE
  5
12E
330
1F
100
AcDbEntity
  8
0
  6
HIDDEN
 62
     7
370
     5
100
AcDbSpline
210
0.0
220
0.0
230
1.0
 70
     8
 71
     3
 72
    11
 73
     7
 74
     0
 42
0.0000000001
 43
0.0000000001
 40
0.0
 40
0.0
 40
0.0
 40
0.0
 40
0.2500000000000418
 40
0.4999999999999363
 40
0.7500000000000452
 40
1.0
 40
1.0
 40
1.0
 40
1.0
 10
6.374659051511856
 20
7.341254785118771
 30
0.0
 10
6.374566394329588
 20
7.341215479162247
 30
0.0
 10
6.374381079965057
 20
7.341136867249195
 30
0.0
 10
6.374147349398563
 20
7.340851452661127
 30
0.0
 10
6.373983831511816
 20
7.340489182991141
 30
0.0
 10
6.373962573657718
 20
7.340230994161333
 30
0.0
 10
6.37395194473067
 20
7.340101899746431
 30
0.0
  0
LINE
  5
12F
330
1F
100
AcDbEntity
  8
0
  6
HIDDEN
 62
     7
370
     5
100
AcDbLine
 10
6.373951944730679
 20
7.34010189974643
 30
0.0
 11
6.332232644640673
 21
7.328924838176182
 31
0.0
  0
LWPOLYLINE
  5
130
330
1F
100
AcDbEntity
  8
0
  6
HIDDEN
 62
     7
370
     5
100
AcDbPolyline
 90
        9
 70
   128
 43
0.0
 10
6.373951944730679
 20
7.34010189974643
 10
6.37138515492704
 20
7.325678759393956
 10
6.366883586528911
 20
7.312638783441455
 10
6.360591273015672
 20
7.30139920271634
 10
6.352709545063315
 20
7.292319642081641
 10
6.343490588710142
 20
7.285690613775262
 10
6.33322937633963
 20
7.281724222096729
 10
6.322254228659057
 20
7.280547376856913
 10
6.31091630965558
 20
7.28219773273516
  0
LINE
  5
131
330
1F
100
AcDbEntity
  8
0
  6
HIDDEN
 62
     7
370
     5
100
AcDbLine
 10
6.374659051511865
 20
7.341254785118771
 30
0.0
 11
6.374659051511865
 21
7.398097960516612
 31
0.0
  0
LWPOLYLINE
  5
132
330
1F
100
AcDbEntity
  8
0
  6
HIDDEN
 62
     7
370
     5
100
AcDbPolyline
 90
        9
 70
   128
 43
0.0
 10
6.366516100959058
 20
7.37284908526695
 10
6.376835904309504
 20
7.369538767025226
 10
6.384789280952735
 20
7.365788837808621
 10
6.390121752358285
 20
7.361719281432712
 10
6.392662699234764
 20
7.357460308595751
 10
6.392330820713871
 20
7.353148190619644
 10
6.389136735676372
 20
7.348920899273483
 10
6.383182642987351
 20
7.344913692189074
 10
6.374659051511865
 20
7.341254785118771
  0
LWPOLYLINE
  5
133
330
1F
100
AcDbEntity
  8
0
  6
HIDDEN
 62
     7
370
     5
100
AcDbPolyline
 90
       10
 70
   128
 43
0.0
 10
6.399304657303902
 20
6.822077543726629
 10
6.421493697409893
 20
6.810119156601828
 10
6.440304657303901
 20
6.787953929413531
 10
6.452873738863834
 20
6.758956317072873
 10
6.457287413361195
 20
6.72754094319471
 10
6.452873738863834
 20
6.698490513670916
 10
6.440304657303901
 20
6.676227693053693
 10
6.421493697409893
 20
6.664141793969038
 10
6.399304657303902
 20
6.664072784993644
 10
6.398015636571828
 20
6.664437652664493
  0
LWPOLYLINE
  5
134
330
1F
100
AcDbEntity
  8
0
  6
HIDDEN
 62
     7
370
     5
100
AcDbPolyline
 90
        3
 70
   128
 43
0.0
 10
6.358874377944882
 20
6.810535614485242
 10
6.377115617197911
 20
6.822008534751235
 10
6.399304657303902
 20
6.822077543726629
  0
LINE
  5
135
330
1F
100
AcDbEntity
  8
0
  6
HIDDEN
 62
     7
370
     5
100
AcDbLine
 10
6.513956101745372
 20
5.989776037173651
 30
0.0
 11
6.472236801655362
 21
5.978598975603405
 31
0.0
  0
LINE
  5
136
330
1F
100
AcDbEntity
  8
0
  6
HIDDEN
 62
     7
370
     5
100
AcDbLine
 10
6.513956101745372
 20
5.989776037173651
 30
0.0
 11
6.664469700248861
 21
5.949451780678374
 31
0.0
  0
LINE
  5
137
330
1F
100
AcDbEntity
  8
0
  6
HIDDEN
 62
     7
370
     5
100
AcDbLine
 10
6.348514168059861
 20
7.377672002045603
 30
0.0
 11
6.366516100959058
 21
7.37284908526695
 31
0.0
  0
SPLINE
  5
138
330
1F
100
AcDbEntity
  8
0
  6
HIDDEN
 62
     7
370
     5
100
AcDbSpline
210
0.0
220
0.0
230
1.0
 70
     8
 71
     3
 72
    11
 73
     7
 74
     0
 42
0.0000000001
 43
0.0000000001
 40
0.0
 40
0.0
 40
0.0
 40
0.0
 40
0.2499999999999549
 40
0.5000000000000639
 40
0.7499999999999582
 40
1.0
 40
1.0
 40
1.0
 40
1.0
 10
5.84977955677246
 20
7.480533475563671
 30
0.0
 10
5.849790185699508
 20
7.480662569978574
 30
0.0
 10
5.849811443553611
 20
7.480920758808375
 30
0.0
 10
5.849974961440353
 20
7.481283028478367
 30
0.0
 10
5.850208692006864
 20
7.481568443066429
 30
0.0
 10
5.850394006371374
 20
7.481647054979487
 30
0.0
 10
5.850486663553646
 20
7.481686360936012
 30
0.0
  0
LINE
  5
139
330
1F
100
AcDbEntity
  8
0
  6
HIDDEN
 62
     7
370
     5
100
AcDbLine
 10
5.850486663553646
 20
7.481686360936012
 30
0.0
 11
5.579163922676994
 21
7.554376721839567
 31
0.0
  0
LINE
  5
13A
330
1F
100
AcDbEntity
  8
0
  6
HIDDEN
 62
     7
370
     5
100
AcDbLine
 10
5.84977955677246
 20
7.480533475563671
 30
0.0
 11
5.578456815895808
 21
7.553223836467226
 31
0.0
  0
SPLINE
  5
13B
330
1F
100
AcDbEntity
  8
0
  6
HIDDEN
 62
     7
370
     5
100
AcDbSpline
210
0.0
220
0.0
230
1.0
 70
     8
 71
     3
 72
    11
 73
     7
 74
     0
 42
0.0000000001
 43
0.0000000001
 40
0.0
 40
0.0
 40
0.0
 40
0.0
 40
0.250000000000042
 40
0.4999999999999364
 40
0.7500000000000454
 40
1.0
 40
1.0
 40
1.0
 40
1.0
 10
5.579163922676994
 20
7.554376721839567
 30
0.0
 10
5.57907126549473
 20
7.55433741588304
 30
0.0
 10
5.578885951130216
 20
7.554258803969984
 30
0.0
 10
5.578652220563701
 20
7.553973389381922
 30
0.0
 10
5.578488702676954
 20
7.553611119711933
 30
0.0
 10
5.578467444822864
 20
7.553352930882126
 30
0.0
 10
5.578456815895808
 20
7.553223836467226
 30
0.0
  0
LINE
  5
13C
330
1F
100
AcDbEntity
  8
0
  6
HIDDEN
 62
     7
370
     5
100
AcDbLine
 10
5.578456815895808
 20
7.553223836467226
 30
0.0
 11
5.536737515805802
 21
7.542046774896978
 31
0.0
  0
LINE
  5
13D
330
1F
100
AcDbEntity
  8
0
  6
HIDDEN
 62
     7
370
     5
100
AcDbLine
 10
5.572146785269018
 20
7.527526377511115
 30
0.0
 11
5.530427485179012
 21
7.516349315940868
 31
0.0
  0
ARC
  5
13E
330
1F
100
AcDbEntity
  8
0
  6
HIDDEN
 62
     7
370
     5
100
AcDbCircle
 10
5.486600017369483
 20
7.562155897443215
 30
0.0
 40
0.0922900490236334
100
AcDbArc
 50
337.9617892939551
 51
354.4460780678355
  0
LWPOLYLINE
  5
13F
330
1F
100
AcDbEntity
  8
0
  6
HIDDEN
 62
     7
370
     5
100
AcDbPolyline
 90
       17
 70
   128
 43
0.0
 10
7.200902102759183
 20
7.596390316671873
 10
7.218677468367812
 20
7.589263155419985
 10
7.224919346701886
 20
7.580856095506447
 10
7.218677468367812
 20
7.572449035592907
 10
7.200902102759183
 20
7.56532187434102
 10
7.174299388155825
 20
7.560559657443501
 10
7.142919346701884
 20
7.558887389253396
 10
7.111539305247948
 20
7.560559657443501
 10
7.08493659064459
 20
7.565321874341019
 10
7.067161225035961
 20
7.572449035592909
 10
7.060919346701891
 20
7.580856095506447
 10
7.067161225035961
 20
7.589263155419985
 10
7.08493659064459
 20
7.596390316671873
 10
7.111539305247952
 20
7.601152533569393
 10
7.142919346701889
 20
7.602824801759497
 10
7.174299388155825
 20
7.601152533569393
 10
7.200902102759183
 20
7.596390316671873
  0
LINE
  5
140
330
1F
100
AcDbEntity
  8
0
  6
HIDDEN
 62
     7
370
     5
100
AcDbLine
 10
5.579163922676994
 20
7.554376721839567
 30
0.0
 11
5.579163922676994
 21
7.611219897237408
 31
0.0
  0
LWPOLYLINE
  5
141
330
1F
100
AcDbEntity
  8
0
  6
HIDDEN
 62
     7
370
     5
100
AcDbPolyline
 90
        9
 70
   128
 43
0.0
 10
5.571020972124197
 20
7.585971021987745
 10
5.581340775474638
 20
7.582660703746022
 10
5.589294152117869
 20
7.578910774529416
 10
5.594626623523419
 20
7.574841218153507
 10
5.597167570399903
 20
7.570582245316545
 10
5.596835691879008
 20
7.566270127340438
 10
5.593641606841506
 20
7.562042835994279
 10
5.58768751415248
 20
7.55803562890987
 10
5.579163922676994
 20
7.554376721839567
  0
LWPOLYLINE
  5
142
330
1F
100
AcDbEntity
  8
0
  6
HIDDEN
 62
     7
370
     5
100
AcDbPolyline
 90
       17
 70
   128
 43
0.0
 10
6.40540697392432
 20
7.620070531863073
 10
6.42318233953295
 20
7.612943370611183
 10
6.42942421786702
 20
7.604536310697646
 10
6.42318233953295
 20
7.596129250784108
 10
6.405406973924316
 20
7.589002089532218
 10
6.378804259320963
 20
7.584239872634699
 10
6.347424217867023
 20
7.582567604444597
 10
6.316044176413086
 20
7.584239872634701
 10
6.289441461809729
 20
7.589002089532218
 10
6.271666096201103
 20
7.596129250784108
 10
6.265424217867025
 20
7.604536310697645
 10
6.271666096201099
 20
7.612943370611183
 10
6.289441461809729
 20
7.620070531863073
 10
6.316044176413086
 20
7.624832748760591
 10
6.347424217867027
 20
7.626505016950694
 10
6.378804259320963
 20
7.62483274876059
 10
6.40540697392432
 20
7.620070531863073
  0
LINE
  5
143
330
1F
100
AcDbEntity
  8
0
  6
HIDDEN
 62
     7
370
     5
100
AcDbLine
 10
5.553019039225004
 20
7.590793938766397
 30
0.0
 11
5.571020972124197
 21
7.585971021987745
 31
0.0
  0
ARC
  5
144
330
1F
100
AcDbEntity
  8
0
  6
HIDDEN
 62
     7
370
     5
100
AcDbCircle
 10
7.482347726306621
 20
9.582461745008842
 30
0.0
 40
0.0482395081660391
100
AcDbArc
 50
251.9294828161708
 51
299.9598837681249
  0
LINE
  5
145
330
1F
100
AcDbEntity
  8
0
  6
HIDDEN
 62
     7
370
     5
100
AcDbLine
 10
4.794578837452413
 20
7.844726726433336
 30
0.0
 11
7.467384444502452
 21
9.536601627850789
 31
0.0
  0
LWPOLYLINE
  5
146
330
1F
100
AcDbEntity
  8
0
  6
HIDDEN
 62
     7
370
     5
100
AcDbPolyline
 90
        9
 70
   128
 43
0.0
 10
7.45658669509081
 20
9.588615082613181
 10
7.463577218989192
 20
9.587574102023257
 10
7.469933381048541
 20
9.58833482218524
 10
7.475410917525494
 20
9.590868009049922
 10
7.479799329765085
 20
9.595076313666723
 10
7.482929973545981
 20
9.600798013249262
 10
7.484682539983389
 20
9.607813226091348
 10
7.484989678931946
 20
9.615852361497639
 10
7.483839587214118
 20
9.624606480002867
  0
LWPOLYLINE
  5
147
330
1F
100
AcDbEntity
  8
0
  6
HIDDEN
 62
     7
370
     5
100
AcDbPolyline
 90
        9
 70
   128
 43
0.0
 10
4.813259922815531
 20
7.934140591083015
 10
4.81427465845077
 20
7.927338976990188
 10
4.814424892050075
 20
7.920918372917681
 10
4.813707186278547
 20
7.915025681865357
 10
4.812137962197144
 20
7.909795728217817
 10
4.809753123549877
 20
7.905348172971332
 10
4.806607235288508
 20
7.901784775898094
 10
4.80277227513002
 20
7.899187067289311
 10
4.798335986711191
 20
7.897614482547494
  0
LINE
  5
148
330
1F
100
AcDbEntity
  8
0
  6
HIDDEN
 62
     7
370
     5
100
AcDbLine
 10
4.798335986711196
 20
7.897614482547495
 30
0.0
 11
4.78378108804077
 21
7.896740181195728
 31
0.0
  0
LINE
  5
149
330
1F
100
AcDbEntity
  8
0
  6
HIDDEN
 62
     7
370
     5
100
AcDbLine
 10
4.783781088040774
 20
7.89674018119573
 30
0.0
 11
7.456586695090814
 21
9.588615082613181
 31
0.0
  0
LINE
  5
14A
330
1F
100
AcDbEntity
  8
0
  6
HIDDEN
 62
     7
370
     5
100
AcDbLine
 10
4.813259922815536
 20
7.934140591083017
 30
0.0
 11
7.483839587214118
 21
9.624606480002867
 31
0.0
  0
LINE
  5
14B
330
1F
100
AcDbEntity
  8
0
  6
HIDDEN
 62
     7
370
     5
100
AcDbLine
 10
3.363475701877401
 20
8.249728471462164
 30
0.0
 11
4.713913649847514
 21
7.887931220341104
 31
0.0
  0
ARC
  5
14C
330
1F
100
AcDbEntity
  8
0
  6
HIDDEN
 62
     7
370
     5
100
AcDbCircle
 10
3.346353495965658
 20
8.260929420127972
 30
0.0
 40
0.0204604786429395
100
AcDbArc
 50
326.8082221214198
 51
65.86885696683954
  0
LINE
  5
14D
330
1F
100
AcDbEntity
  8
0
  6
HIDDEN
 62
     7
370
     5
100
AcDbLine
 10
6.027523890312804
 20
9.971476801824495
 30
0.0
 11
3.354718283262764
 21
8.279601900407044
 31
0.0
  0
LINE
  5
14E
330
1F
100
AcDbEntity
  8
0
  6
HIDDEN
 62
     7
370
     5
100
AcDbLine
 10
6.027523890312804
 20
9.971476801824495
 30
0.0
 11
6.476890249756854
 21
9.851086587792439
 31
0.0
  0
LINE
  5
14F
330
1F
100
AcDbEntity
  8
0
  6
HIDDEN
 62
     7
370
     5
100
AcDbLine
 10
6.476890249756854
 20
9.851086587792439
 30
0.0
 11
6.434201955888587
 21
9.824065074222746
 31
0.0
  0
LINE
  5
150
330
1F
100
AcDbEntity
  8
0
  6
HIDDEN
 62
     7
370
     5
100
AcDbLine
 10
6.434201955888587
 20
9.824065074222746
 30
0.0
 11
6.964532041778498
 21
9.681983783075549
 31
0.0
  0
LINE
  5
151
330
1F
100
AcDbEntity
  8
0
  6
HIDDEN
 62
     7
370
     5
100
AcDbLine
 10
6.964532041778498
 20
9.681983783075549
 30
0.0
 11
7.00722033564676
 21
9.709005296645241
 31
0.0
  0
LINE
  5
152
330
1F
100
AcDbEntity
  8
0
  6
HIDDEN
 62
     7
370
     5
100
AcDbLine
 10
7.00722033564676
 20
9.709005296645241
 30
0.0
 11
7.45658669509081
 21
9.588615082613181
 31
0.0
  0
ARC
  5
153
330
1F
100
AcDbEntity
  8
0
  6
HIDDEN
 62
     7
370
     5
100
AcDbCircle
 10
4.772335965679431
 20
7.706038121776766
 30
0.0
 40
0.1910451943716464
100
AcDbArc
 50
86.56547189224763
 51
107.8065193348708
  0
LINE
  5
154
330
1F
100
AcDbEntity
  8
0
  6
HIDDEN
 62
     7
370
     5
100
AcDbLine
 10
4.798335986711196
 20
7.897614482547495
 30
0.0
 11
4.807330025953356
 21
7.878520617211509
 31
0.0
  0
LINE
  5
155
330
1F
100
AcDbEntity
  8
0
  6
HIDDEN
 62
     7
370
     5
100
AcDbLine
 10
4.713913649847514
 20
7.887931220341104
 30
0.0
 11
4.724711399259152
 21
7.835917765578713
 31
0.0
  0
LINE
  5
156
330
1F
100
AcDbEntity
  8
0
  6
HIDDEN
 62
     7
370
     5
100
AcDbLine
 10
4.789859175705764
 20
7.867461641219255
 30
0.0
 11
4.783781088040774
 21
7.89674018119573
 31
0.0
  0
ARC
  5
157
330
1F
100
AcDbEntity
  8
0
  6
HIDDEN
 62
     7
370
     5
100
AcDbCircle
 10
4.785011321554212
 20
7.64405065990513
 30
0.0
 40
0.2011195337811499
100
AcDbArc
 50
103.4186780161953
 51
107.4468709707051
  0
LWPOLYLINE
  5
158
330
1F
100
AcDbEntity
  8
0
  6
HIDDEN
 62
     7
370
     5
100
AcDbPolyline
 90
        3
 70
   128
 43
0.0
 10
4.749738170371812
 20
7.842065210680329
 10
4.745548854996335
 20
7.841266369779921
 10
4.738338515100021
 20
7.839679686396693
  0
SPLINE
  5
159
330
1F
100
AcDbEntity
  8
0
  6
HIDDEN
 62
     7
370
     5
100
AcDbSpline
210
0.0
220
0.0
230
1.0
 70
     8
 71
     3
 72
    13
 73
     9
 74
     0
 42
0.0000000001
 43
0.0000000001
 40
0.0
 40
0.0
 40
0.0
 40
0.0
 40
0.1992477097425421
 40
0.3984954194850847
 40
0.5977431292276264
 40
0.7969908389701676
 40
0.9962385487127093
 40
1.0
 40
1.0
 40
1.0
 40
1.0
 10
4.713913649847584
 20
7.887931220341148
 30
0.0
 10
4.708898461229133
 20
7.884288540775554
 30
0.0
 10
4.698868083992249
 20
7.877003181644361
 30
0.0
 10
4.68742595754785
 20
7.85908148776204
 30
0.0
 10
4.680292015751373
 20
7.838552561164989
 30
0.0
 10
4.67904691251943
 20
7.818275600129036
 30
0.0
 10
4.68052312866733
 20
7.80465765513541
 30
0.0
 10
4.683382982462316
 20
7.800179172149253
 30
0.0
 10
4.683435971207671
 20
7.800096192664444
 30
0.0
  0
LINE
  5
15A
330
1F
100
AcDbEntity
  8
0
  6
HIDDEN
 62
     7
370
     5
100
AcDbLine
 10
3.371789960081326
 20
8.137805902523655
 30
0.0
 11
4.708663439589975
 21
7.779642722416117
 31
0.0
  0
SPLINE
  5
15B
330
1F
100
AcDbEntity
  8
0
  6
HIDDEN
 62
     7
370
     5
100
AcDbSpline
210
0.0
220
0.0
230
1.0
 70
     8
 71
     3
 72
    15
 73
    11
 74
     0
 42
0.0000000001
 43
0.0000000001
 40
0.0
 40
0.0
 40
0.0
 40
0.0
 40
0.0514121812439204
 40
0.1869247267805034
 40
0.3224372723170851
 40
0.4579498178536694
 40
0.5934623633902518
 40
0.7289749089268342
 40
0.8644874544634156
 40
1.0
 40
1.0
 40
1.0
 40
1.0
 10
3.371789774265833
 20
8.137805912899045
 30
0.0
 10
3.369846459451249
 20
8.138024598079807
 30
0.0
 10
3.362780943420324
 20
8.13881969501357
 30
0.0
 10
3.351652350184665
 20
8.144912182643953
 30
0.0
 10
3.341227707510991
 20
8.158866781619115
 30
0.0
 10
3.335633162654801
 20
8.177702573274849
 30
0.0
 10
3.335458266492716
 20
8.198979211676615
 30
0.0
 10
3.340641603423046
 20
8.219865013736317
 30
0.0
 10
3.350274619793864
 20
8.238314996922134
 30
0.0
 10
3.359075341182939
 20
8.245923979948848
 30
0.0
 10
3.363475701877471
 20
8.249728471462209
 30
0.0
  0
LINE
  5
15C
330
1F
100
AcDbEntity
  8
0
  6
HIDDEN
 62
     7
370
     5
100
AcDbLine
 10
4.724711399259152
 20
7.835917765578713
 30
0.0
 11
4.71737534790787
 21
7.837703575162343
 31
0.0
  0
LINE
  5
15D
330
1F
100
AcDbEntity
  8
0
  6
HIDDEN
 62
     7
370
     5
100
AcDbLine
 10
4.71737534790787
 20
7.827396952954597
 30
0.0
 11
4.71737534790787
 21
7.837703575162343
 31
0.0
  0
LINE
  5
15E
330
1F
100
AcDbEntity
  8
0
  6
HIDDEN
 62
     7
370
     5
100
AcDbLine
 10
3.377102587709283
 20
8.204369835542365
 30
0.0
 11
4.738338515100021
 21
7.839679686396693
 31
0.0
  0
LINE
  5
15F
330
1F
100
AcDbEntity
  8
0
  6
HIDDEN
 62
     7
370
     5
100
AcDbLine
 10
3.3816461051807
 20
8.195560201590174
 30
0.0
 11
3.374273451289039
 21
8.197715016699772
 31
0.0
  0
LINE
  5
160
330
1F
100
AcDbEntity
  8
0
  6
HIDDEN
 62
     7
370
     5
100
AcDbLine
 10
3.3816461051807
 20
8.195560201590174
 30
0.0
 11
4.717375347907865
 21
7.837703575162344
 31
0.0
  0
LINE
  5
161
330
1F
100
AcDbEntity
  8
0
  6
HIDDEN
 62
     7
370
     5
100
AcDbLine
 10
3.374273451289039
 20
8.197715016699772
 30
0.0
 11
4.724711399259152
 21
7.835917765578713
 31
0.0
  0
ARC
  5
162
330
1F
100
AcDbEntity
  8
0
  6
HIDDEN
 62
     7
370
     5
100
AcDbCircle
 10
4.757213426213099
 20
7.685549370776214
 30
0.0
 40
0.1572831027015608
100
AcDbArc
 50
101.3771037981695
 51
104.6722234277334
  0
ARC
  5
163
330
1F
100
AcDbEntity
  8
0
  6
HIDDEN
 62
     7
370
     5
100
AcDbCircle
 10
3.35362924719572
 20
8.299293393307086
 30
0.0
 40
0.10745007861853
100
AcDbArc
 50
285.1141548732337
 51
289.362825015355
  0
LINE
  5
164
330
1F
100
AcDbEntity
  8
0
  6
HIDDEN
 62
     7
370
     5
100
AcDbLine
 10
3.3816461051807
 20
8.138717026192331
 30
0.0
 11
4.71737534790787
 21
7.780860399764502
 31
0.0
  0
LINE
  5
165
330
1F
100
AcDbEntity
  8
0
  6
HIDDEN
 62
     7
370
     5
100
AcDbLine
 10
4.72618688146704
 20
7.782898698168068
 30
0.0
 11
3.389254221342265
 21
8.141077733416725
 31
0.0
  0
LWPOLYLINE
  5
166
330
1F
100
AcDbEntity
  8
0
  6
HIDDEN
 62
     7
370
     5
100
AcDbPolyline
 90
        8
 70
   128
 43
0.0
 10
5.9043008667416
 20
10.87910635430451
 10
5.902821202755464
 20
10.90946913611307
 10
5.910093368569707
 20
10.94060673963393
 10
5.92501024286146
 20
10.96777874699411
 10
5.945300866741598
 20
10.98684846638788
 10
5.967876176659347
 20
10.99491270590499
 10
5.989299286325413
 20
10.99074375818146
 10
6.000738187656337
 20
10.98201903023246
  0
ARC
  5
167
330
1F
100
AcDbEntity
  8
0
  6
HIDDEN
 62
     7
370
     5
100
AcDbCircle
 10
5.950568779539767
 20
10.88089088290926
 30
0.0
 40
0.0463023141650616
100
AcDbArc
 50
182.208772689616
 51
283.7789744583858
  0
LWPOLYLINE
  5
168
330
1F
100
AcDbEntity
  8
0
  6
HIDDEN
 62
     7
370
     5
100
AcDbPolyline
 90
        8
 70
   128
 43
0.0
 10
5.688707254697332
 20
10.05640446817875
 10
5.687227590711197
 20
10.08676724998731
 10
5.69449975652544
 20
10.11790485350817
 10
5.709416630817192
 20
10.14507686086835
 10
5.729707254697335
 20
10.16414658026212
 10
5.75228256461508
 20
10.17221081977923
 10
5.773705674281146
 20
10.1680418720557
 10
5.785144575608621
 20
10.15931714411035
  0
ARC
  5
169
330
1F
100
AcDbEntity
  8
0
  6
HIDDEN
 62
     7
370
     5
100
AcDbCircle
 10
5.734975167495805
 20
10.05818899678364
 30
0.0
 40
0.046302314165373
100
AcDbArc
 50
182.2087726897706
 51
283.7789744517709
  0
LWPOLYLINE
  5
16A
330
1F
100
AcDbEntity
  8
0
  6
HIDDEN
 62
     7
370
     5
100
AcDbPolyline
 90
       17
 70
   128
 43
0.0
 10
4.913958483139365
 20
11.60592817539119
 10
4.92396471149718
 20
11.58096267358597
 10
4.94097414666588
 20
11.56519522312111
 10
4.962397256331942
 20
11.56102627539759
 10
4.98497256624969
 20
11.56909051491469
 10
5.005263190129829
 20
11.58816023430846
 10
5.020180064421582
 20
11.61533224166864
 10
5.027452230235825
 20
11.6464698451895
 10
5.025972566249689
 20
11.67683262699806
 10
5.015966337891874
 20
11.70179812880327
 10
4.998956902723174
 20
11.71756557926813
 10
4.977533793057112
 20
11.72173452699166
 10
4.954958483139363
 20
11.71367028747456
 10
4.934667859259224
 20
11.69460056808078
 10
4.919750984967472
 20
11.6674285607206
 10
4.912478819153228
 20
11.63629095719975
 10
4.913958483139365
 20
11.60592817539119
  0
LWPOLYLINE
  5
16B
330
1F
100
AcDbEntity
  8
0
  6
HIDDEN
 62
     7
370
     5
100
AcDbPolyline
 90
       17
 70
   128
 43
0.0
 10
4.413228756939407
 20
11.22613022187642
 10
4.423234985297222
 20
11.2011647200712
 10
4.440244420465922
 20
11.18539726960634
 10
4.461667530131988
 20
11.18122832188281
 10
4.484242840049732
 20
11.18929256139991
 10
4.504533463929876
 20
11.20836228079369
 10
4.519450338221624
 20
11.23553428815387
 10
4.526722504035867
 20
11.26667189167472
 10
4.525242840049731
 20
11.29703467348328
 10
4.51523661169192
 20
11.3220001752885
 10
4.49822717652322
 20
11.33776762575336
 10
4.476804066857154
 20
11.34193657347689
 10
4.45422875693941
 20
11.33387233395978
 10
4.433938133059267
 20
11.31480261456601
 10
4.419021258767513
 20
11.28763060720583
 10
4.411749092953271
 20
11.25649300368497
 10
4.413228756939407
 20
11.22613022187642
  0
LWPOLYLINE
  5
16C
330
1F
100
AcDbEntity
  8
0
  6
HIDDEN
 62
     7
370
     5
100
AcDbPolyline
 90
       17
 70
   128
 43
0.0
 10
5.381377572987318
 20
11.21557050638048
 10
5.391383801345133
 20
11.19060500457527
 10
5.408393236513833
 20
11.17483755411041
 10
5.429816346179899
 20
11.17066860638687
 10
5.452391656097644
 20
11.17873284590398
 10
5.472682279977787
 20
11.19780256529776
 10
5.487599154269535
 20
11.22497457265794
 10
5.494871320083778
 20
11.25611217617879
 10
5.493391656097642
 20
11.28647495798735
 10
5.483385427739832
 20
11.31144045979256
 10
5.466375992571132
 20
11.32720791025743
 10
5.444952882905066
 20
11.33137685798096
 10
5.422377572987321
 20
11.32331261846385
 10
5.402086949107178
 20
11.30424289907008
 10
5.387170074815425
 20
11.2770708917099
 10
5.379897909001182
 20
11.24593328818904
 10
5.381377572987318
 20
11.21557050638048
  0
LWPOLYLINE
  5
16D
330
1F
100
AcDbEntity
  8
0
  6
HIDDEN
 62
     7
370
     5
100
AcDbPolyline
 90
       17
 70
   128
 43
0.0
 10
4.186105344675929
 20
10.45896812642914
 10
4.196111573033745
 20
10.43400262462393
 10
4.213121008202445
 20
10.41823517415906
 10
4.234544117868511
 20
10.41406622643553
 10
4.257119427786256
 20
10.42213046595264
 10
4.277410051666399
 20
10.44120018534641
 10
4.292326925958147
 20
10.4683721927066
 10
4.29959909177239
 20
10.49950979622745
 10
4.298119427786255
 20
10.52987257803601
 10
4.288113199428443
 20
10.55483807984122
 10
4.271103764259744
 20
10.57060553030609
 10
4.249680654593677
 20
10.57477447802962
 10
4.227105344675929
 20
10.56671023851251
 10
4.20681472079579
 20
10.54764051911873
 10
4.191897846504037
 20
10.52046851175856
 10
4.184625680689794
 20
10.4893309082377
 10
4.186105344675929
 20
10.45896812642914
  0
LINE
  5
16E
330
1F
100
AcDbEntity
  8
0
  6
HIDDEN
 62
     7
370
     5
100
AcDbLine
 10
3.31065801279412
 20
8.336704249333408
 30
0.0
 11
3.160194239772639
 21
9.061497940414515
 31
0.0
  0
LINE
  5
16F
330
1F
100
AcDbEntity
  8
0
  6
HIDDEN
 62
     7
370
     5
100
AcDbLine
 10
3.160194239772639
 20
9.061497940414515
 30
0.0
 11
4.037243277878326
 21
11.36216931630849
 31
0.0
  0
LINE
  5
170
330
1F
100
AcDbEntity
  8
0
  6
HIDDEN
 62
     7
370
     5
100
AcDbLine
 10
4.037243277878326
 20
11.36216931630849
 30
0.0
 11
5.510501675859849
 21
12.29473579262566
 31
0.0
  0
LINE
  5
171
330
1F
100
AcDbEntity
  8
0
  6
HIDDEN
 62
     7
370
     5
100
AcDbLine
 10
5.510501675859849
 20
12.29473579262566
 30
0.0
 11
5.981237677192707
 21
10.02717013825326
 31
0.0
  0
LINE
  5
172
330
1F
100
AcDbEntity
  8
0
  6
HIDDEN
 62
     7
370
     5
100
AcDbLine
 10
5.981237677192707
 20
10.02717013825326
 30
0.0
 11
3.31065801279412
 21
8.336704249333408
 31
0.0
  0
LINE
  5
173
330
1F
100
AcDbEntity
  8
0
  6
HIDDEN
 62
     7
370
     5
100
AcDbLine
 10
8.999074647316581
 20
7.888698892992037
 30
0.0
 11
6.656783434636143
 21
8.516224595558824
 31
0.0
  0
LINE
  5
174
330
1F
100
AcDbEntity
  8
0
  6
HIDDEN
 62
     7
370
     5
100
AcDbLine
 10
3.160194239772639
 20
9.061497940414515
 30
0.0
 11
3.118474939682629
 21
9.072675001984761
 31
0.0
  0
LINE
  5
175
330
1F
100
AcDbEntity
  8
0
  6
HIDDEN
 62
     7
370
     5
100
AcDbLine
 10
4.037243277878326
 20
11.36216931630849
 30
0.0
 11
3.99552397778832
 21
11.37334637787874
 31
0.0
  0
LINE
  5
176
330
1F
100
AcDbEntity
  8
0
  6
HIDDEN
 62
     7
370
     5
100
AcDbLine
 10
3.118474939682629
 20
9.072675001984761
 30
0.0
 11
3.99552397778832
 21
11.37334637787874
 31
0.0
  0
LINE
  5
177
330
1F
100
AcDbEntity
  8
0
  6
HIDDEN
 62
     7
370
     5
100
AcDbLine
 10
6.521372486038917
 20
7.936817090260556
 30
0.0
 11
6.521372486038917
 21
7.993660265658398
 31
0.0
  0
LWPOLYLINE
  5
178
330
1F
100
AcDbEntity
  8
0
  6
HIDDEN
 62
     7
370
     5
100
AcDbPolyline
 90
        9
 70
   128
 43
0.0
 10
6.521372486038917
 20
7.936817090260556
 10
6.492174384644985
 20
7.931590266836449
 10
6.457732875732128
 20
7.929754850530238
 10
6.42329136681927
 20
7.931590266836451
 10
6.394093265425338
 20
7.936817090260556
 10
6.374583717806113
 20
7.944639584317508
 10
6.367732875732127
 20
7.95386684519822
 10
6.374583717806113
 20
7.963094106078931
 10
6.394093265425338
 20
7.970916600135883
  0
LINE
  5
179
330
1F
100
AcDbEntity
  8
0
  6
HIDDEN
 62
     7
370
     5
100
AcDbLine
 10
7.493644310170422
 20
8.197299457363749
 30
0.0
 11
6.521372486038917
 21
7.936817090260556
 31
0.0
  0
LWPOLYLINE
  5
17A
330
1F
100
AcDbEntity
  8
0
  6
HIDDEN
 62
     7
370
     5
100
AcDbPolyline
 90
        8
 70
   128
 43
0.0
 10
6.428090193379976
 20
11.14782472646232
 10
6.42661052939384
 20
11.17818750827088
 10
6.433882695208083
 20
11.20932511179173
 10
6.448799569499835
 20
11.23649711915191
 10
6.469090193379979
 20
11.25556683854568
 10
6.491665503297723
 20
11.26363107806279
 10
6.513088612963789
 20
11.25946213033926
 10
6.524527514294311
 20
11.25073740239069
  0
ARC
  5
17B
330
1F
100
AcDbEntity
  8
0
  6
HIDDEN
 62
     7
370
     5
100
AcDbCircle
 10
6.474358106178375
 20
11.14960925506716
 30
0.0
 40
0.0463023141652958
100
AcDbArc
 50
182.2087726897236
 51
283.7789744532355
  0
LINE
  5
17C
330
1F
100
AcDbEntity
  8
0
  6
HIDDEN
 62
     7
370
     5
100
AcDbLine
 10
6.394093265425338
 20
7.970916600135883
 30
0.0
 11
6.452762810450398
 21
7.986634819656074
 31
0.0
  0
LWPOLYLINE
  5
17D
330
1F
100
AcDbEntity
  8
0
  6
HIDDEN
 62
     7
370
     5
100
AcDbPolyline
 90
       17
 70
   128
 43
0.0
 10
7.996397231594053
 20
8.046314405304661
 10
8.014172597202687
 20
8.039187244052772
 10
8.020414475536757
 20
8.030780184139235
 10
8.014172597202682
 20
8.022373124225698
 10
7.996397231594053
 20
8.015245962973807
 10
7.969794516990695
 20
8.010483746076289
 10
7.938414475536755
 20
8.008811477886187
 10
7.907034434082823
 20
8.010483746076289
 10
7.880431719479461
 20
8.015245962973807
 10
7.862656353870836
 20
8.022373124225698
 10
7.856414475536761
 20
8.030780184139233
 10
7.862656353870831
 20
8.039187244052772
 10
7.880431719479465
 20
8.046314405304661
 10
7.907034434082823
 20
8.051076622202181
 10
7.93841447553676
 20
8.052748890392283
 10
7.9697945169907
 20
8.051076622202179
 10
7.996397231594053
 20
8.046314405304661
  0
LINE
  5
17E
330
1F
100
AcDbEntity
  8
0
  6
HIDDEN
 62
     7
370
     5
100
AcDbLine
 10
3.31065801279412
 20
8.336704249333408
 30
0.0
 11
3.268938712704114
 21
8.347881310903655
 31
0.0
  0
LINE
  5
17F
330
1F
100
AcDbEntity
  8
0
  6
HIDDEN
 62
     7
370
     5
100
AcDbLine
 10
3.268938712704114
 20
8.347881310903655
 30
0.0
 11
3.118474939682629
 21
9.072675001984761
 31
0.0
  0
ARC
  5
180
330
1F
100
AcDbEntity
  8
0
  6
HIDDEN
 62
     7
370
     5
100
AcDbCircle
 10
3.390974270797831
 20
8.354526607152893
 30
0.0
 40
0.0822699078519263
100
AcDbArc
 50
192.5113358308205
 51
234.6694517042684
  0
ARC
  5
181
330
1F
100
AcDbEntity
  8
0
  6
HIDDEN
 62
     7
370
     5
100
AcDbCircle
 10
6.055050884315669
 20
10.04143491862252
 30
0.0
 40
0.0751789432272134
100
AcDbArc
 50
190.9378656442881
 51
248.52144377845
  0
LINE
  5
182
330
1F
100
AcDbEntity
  8
0
  6
HIDDEN
 62
     7
370
     5
100
AcDbLine
 10
3.354718283262764
 20
8.279601900407044
 30
0.0
 11
3.343398185224232
 21
8.287408399344144
 31
0.0
  0
LINE
  5
183
330
1F
100
AcDbEntity
  8
0
  6
HIDDEN
 62
     7
370
     5
100
AcDbLine
 10
5.939518377102701
 20
10.0383471998235
 30
0.0
 11
3.268938712704114
 21
8.347881310903655
 31
0.0
  0
LINE
  5
184
330
1F
100
AcDbEntity
  8
0
  6
HIDDEN
 62
     7
370
     5
100
AcDbLine
 10
6.038321639724451
 20
9.919463347062109
 30
0.0
 11
3.365516032674407
 21
8.227588445644652
 31
0.0
  0
LINE
  5
185
330
1F
100
AcDbEntity
  8
0
  6
HIDDEN
 62
     7
370
     5
100
AcDbLine
 10
7.483839587214118
 20
9.624606480002867
 30
0.0
 11
7.013103585881246
 21
11.89217213437527
 31
0.0
  0
LINE
  5
186
330
1F
100
AcDbEntity
  8
0
  6
HIDDEN
 62
     7
370
     5
100
AcDbLine
 10
5.468782375769843
 20
12.3059128541959
 30
0.0
 11
5.510501675859849
 21
12.29473579262566
 31
0.0
  0
LINE
  5
187
330
1F
100
AcDbEntity
  8
0
  6
HIDDEN
 62
     7
370
     5
100
AcDbLine
 10
3.99552397778832
 20
11.37334637787874
 30
0.0
 11
5.468782375769843
 21
12.3059128541959
 31
0.0
  0
LWPOLYLINE
  5
188
330
1F
100
AcDbEntity
  8
0
  6
HIDDEN
 62
     7
370
     5
100
AcDbPolyline
 90
        8
 70
   128
 43
0.0
 10
6.88397948300872
 20
10.8130068481301
 10
6.882499819022585
 20
10.84336962993865
 10
6.889771984836827
 20
10.87450723345951
 10
6.904688859128579
 20
10.90167924081969
 10
6.924979483008724
 20
10.92074896021346
 10
6.947554792926467
 20
10.92881319973057
 10
6.968977902592533
 20
10.92464425200704
 10
6.980416803920577
 20
10.91591952406109
  0
ARC
  5
189
330
1F
100
AcDbEntity
  8
0
  6
HIDDEN
 62
     7
370
     5
100
AcDbCircle
 10
6.930247395807142
 20
10.81479137673496
 30
0.0
 40
0.0463023141653208
100
AcDbArc
 50
182.2087726897423
 51
283.778974452864
  0
LINE
  5
18A
330
1F
100
AcDbEntity
  8
0
  6
HIDDEN
 62
     7
370
     5
100
AcDbLine
 10
3.374273451289039
 20
8.197715016699772
 30
0.0
 11
3.363475701877401
 21
8.249728471462164
 31
0.0
  0
LINE
  5
18B
330
1F
100
AcDbEntity
  8
0
  6
HIDDEN
 62
     7
370
     5
100
AcDbLine
 10
3.3816461051807
 20
8.195560201590174
 30
0.0
 11
3.3816461051807
 21
8.138717026192331
 31
0.0
  0
LINE
  5
18C
330
1F
100
AcDbEntity
  8
0
  6
HIDDEN
 62
     7
370
     5
100
AcDbLine
 10
3.381646105180778
 20
8.138717026192352
 30
0.0
 11
3.371789774265833
 21
8.137805912899045
 31
0.0
  0
LINE
  5
18D
330
1F
100
AcDbEntity
  8
0
  6
HIDDEN
 62
     7
370
     5
100
AcDbLine
 10
3.354718283262764
 20
8.279601900407044
 30
0.0
 11
3.365516032674407
 21
8.227588445644652
 31
0.0
  0
ARC
  5
18E
330
1F
100
AcDbEntity
  8
0
  6
HIDDEN
 62
     7
370
     5
100
AcDbCircle
 10
3.351042576369477
 20
8.211519844425076
 30
0.0
 40
0.0270230793592005
100
AcDbArc
 50
329.2793194461772
 51
344.6574689071032
  0
ARC
  5
18F
330
1F
100
AcDbEntity
  8
0
  6
HIDDEN
 62
     7
370
     5
100
AcDbCircle
 10
3.35710563106957
 20
8.208891218055383
 30
0.0
 40
0.0205017358942994
100
AcDbArc
 50
347.2594497235586
 51
65.78079431693919
  0
ARC
  5
190
330
1F
100
AcDbEntity
  8
0
  6
HIDDEN
 62
     7
370
     5
100
AcDbCircle
 10
3.353629247195833
 20
8.242450217908803
 30
0.0
 40
0.1074500786180752
100
AcDbArc
 50
285.1141548732366
 51
289.3628250153762
  0
LINE
  5
191
330
1F
100
AcDbEntity
  8
0
  6
HIDDEN
 62
     7
370
     5
100
AcDbLine
 10
3.381111270789458
 20
8.172672033564904
 30
0.0
 11
3.381111270789458
 21
8.229515208962746
 31
0.0
  0
LINE
  5
192
330
1F
100
AcDbEntity
  8
0
  6
HIDDEN
 62
     7
370
     5
100
AcDbLine
 10
3.389254221342265
 20
8.141077733416725
 30
0.0
 11
3.389254221342265
 21
8.197920908814566
 31
0.0
  0
LWPOLYLINE
  5
193
330
1F
100
AcDbEntity
  8
0
  6
HIDDEN
 62
     7
370
     5
100
AcDbPolyline
 90
        9
 70
   128
 43
0.0
 10
3.381111270789458
 20
8.172672033564904
 10
3.391431074139904
 20
8.16936171532318
 10
3.399384450783134
 20
8.165611786106575
 10
3.404716922188685
 20
8.161542229730667
 10
3.407257869065169
 20
8.157283256893702
 10
3.406925990544275
 20
8.152971138917596
 10
3.403731905506772
 20
8.148743847571438
 10
3.39777781281775
 20
8.144736640487028
 10
3.389254221342265
 20
8.141077733416725
  0
LINE
  5
194
330
1F
100
AcDbEntity
  8
0
  6
HIDDEN
 62
     7
370
     5
100
AcDbLine
 10
3.343398185224237
 20
8.287408399344144
 30
0.0
 11
3.338826388468399
 21
8.24265363111888
 31
0.0
  0
ARC
  5
195
330
1F
100
AcDbEntity
  8
0
  6
HIDDEN
 62
     7
370
     5
100
AcDbCircle
 10
3.440383032673569
 20
8.385925190095244
 30
0.0
 40
0.1756146109916064
100
AcDbArc
 50
192.5113358308208
 51
234.6694517042684
  0
LINE
  5
196
330
1F
100
AcDbEntity
  8
0
  6
HIDDEN
 62
     7
370
     5
100
AcDbLine
 10
3.365516032674402
 20
8.227588445644652
 30
0.0
 11
3.338826388468399
 21
8.24265363111888
 31
0.0
  0
LINE
  5
197
330
1F
100
AcDbEntity
  8
0
  6
HIDDEN
 62
     7
370
     5
100
AcDbLine
 10
2.654205499729691
 20
8.367418123297328
 30
0.0
 11
2.654205499729691
 21
8.424261298695169
 31
0.0
  0
LINE
  5
198
330
1F
100
AcDbEntity
  8
0
  6
HIDDEN
 62
     7
370
     5
100
AcDbLine
 10
2.654205499729691
 20
8.367418123297328
 30
0.0
 11
3.381111270789458
 21
8.172672033564904
 31
0.0
  0
LINE
  5
199
330
1F
100
AcDbEntity
  8
0
  6
HIDDEN
 62
     7
370
     5
100
AcDbLine
 10
7.493644310170422
 20
8.197299457363749
 30
0.0
 11
7.493644310170422
 21
8.25414263276159
 31
0.0
  0
LWPOLYLINE
  5
19A
330
1F
100
AcDbEntity
  8
0
  6
HIDDEN
 62
     7
370
     5
100
AcDbPolyline
 90
        7
 70
   128
 43
0.0
 10
7.434974765145359
 20
8.2384244132414
 10
7.46444620877649
 20
8.236625790663183
 10
7.493644310170422
 20
8.231398967239076
 10
7.513153857789648
 20
8.223576473182125
 10
7.520004699863632
 20
8.214349212301414
 10
7.513153857789648
 20
8.2051219514207
 10
7.493644310170422
 20
8.197299457363749
  0
LWPOLYLINE
  5
19B
330
1F
100
AcDbEntity
  8
0
  6
HIDDEN
 62
     7
370
     5
100
AcDbPolyline
 90
       17
 70
   128
 43
0.0
 10
4.144386044585925
 20
10.47014518799939
 10
4.15439227294374
 20
10.44517968619417
 10
4.17140170811244
 20
10.42941223572931
 10
4.192824817778506
 20
10.42524328800578
 10
4.21540012769625
 20
10.43330752752289
 10
4.235690751576393
 20
10.45237724691666
 10
4.250607625868141
 20
10.47954925427684
 10
4.257879791682385
 20
10.5106868577977
 10
4.256400127696249
 20
10.54104963960626
 10
4.246393899338437
 20
10.56601514141147
 10
4.229384464169738
 20
10.58178259187633
 10
4.207961354503671
 20
10.58595153959986
 10
4.185386044585928
 20
10.57788730008276
 10
4.165095420705784
 20
10.55881758068898
 10
4.150178546414031
 20
10.5316455733288
 10
4.142906380599788
 20
10.50050796980795
 10
4.144386044585925
 20
10.47014518799939
  0
LWPOLYLINE
  5
19C
330
1F
100
AcDbEntity
  8
0
  6
HIDDEN
 62
     7
370
     5
100
AcDbPolyline
 90
       17
 70
   128
 43
0.0
 10
4.371509456849401
 20
11.23730728344666
 10
4.381515685207216
 20
11.21234178164145
 10
4.398525120375916
 20
11.19657433117658
 10
4.419948230041982
 20
11.19240538345305
 10
4.442523539959727
 20
11.20046962297016
 10
4.46281416383987
 20
11.21953934236394
 10
4.477731038131619
 20
11.24671134972411
 10
4.485003203945861
 20
11.27784895324497
 10
4.483523539959725
 20
11.30821173505353
 10
4.473517311601915
 20
11.33317723685874
 10
4.456507876433215
 20
11.34894468732361
 10
4.435084766767149
 20
11.35311363504714
 10
4.412509456849404
 20
11.34504939553003
 10
4.392218832969261
 20
11.32597967613625
 10
4.377301958677508
 20
11.29880766877608
 10
4.370029792863265
 20
11.26767006525522
 10
4.371509456849401
 20
11.23730728344666
  0
LINE
  5
19D
330
1F
100
AcDbEntity
  8
0
  6
HIDDEN
 62
     7
370
     5
100
AcDbLine
 10
5.045640633702591
 20
8.332181963092823
 30
0.0
 11
5.045640633702591
 21
8.389025138490664
 31
0.0
  0
LINE
  5
19E
330
1F
100
AcDbEntity
  8
0
  6
HIDDEN
 62
     7
370
     5
100
AcDbLine
 10
5.17291985431617
 20
8.298082453217496
 30
0.0
 11
5.17291985431617
 21
8.354925628615339
 31
0.0
  0
LWPOLYLINE
  5
19F
330
1F
100
AcDbEntity
  8
0
  6
HIDDEN
 62
     7
370
     5
100
AcDbPolyline
 90
        9
 70
   128
 43
0.0
 10
5.17291985431617
 20
8.298082453217496
 10
5.143721752922239
 20
8.29285562979339
 10
5.109280244009381
 20
8.291020213487177
 10
5.074838735096523
 20
8.29285562979339
 10
5.045640633702591
 20
8.298082453217496
 10
5.026131086083366
 20
8.305904947274447
 10
5.01928024400938
 20
8.315132208155159
 10
5.026131086083366
 20
8.32435946903587
 10
5.045640633702591
 20
8.332181963092823
  0
LINE
  5
1A0
330
1F
100
AcDbEntity
  8
0
  6
HIDDEN
 62
     7
370
     5
100
AcDbLine
 10
6.145191678447675
 20
8.558564820320688
 30
0.0
 11
5.17291985431617
 21
8.298082453217496
 31
0.0
  0
LINE
  5
1A1
330
1F
100
AcDbEntity
  8
0
  6
HIDDEN
 62
     7
370
     5
100
AcDbLine
 10
2.991495434355671
 20
8.361545429929911
 30
0.0
 11
2.991495434355671
 21
8.418388605327754
 31
0.0
  0
LINE
  5
1A2
330
1F
100
AcDbEntity
  8
0
  6
HIDDEN
 62
     7
370
     5
100
AcDbLine
 10
3.118774654969251
 20
8.327445920054584
 30
0.0
 11
3.118774654969251
 21
8.384289095452425
 31
0.0
  0
LWPOLYLINE
  5
1A3
330
1F
100
AcDbEntity
  8
0
  6
HIDDEN
 62
     7
370
     5
100
AcDbPolyline
 90
        9
 70
   128
 43
0.0
 10
3.118774654969251
 20
8.327445920054584
 10
3.089576553575319
 20
8.322219096630478
 10
3.055135044662461
 20
8.320383680324267
 10
3.020693535749603
 20
8.322219096630478
 10
2.991495434355671
 20
8.327445920054584
 10
2.971985886736446
 20
8.335268414111535
 10
2.965135044662461
 20
8.344495674992248
 10
2.971985886736446
 20
8.35372293587296
 10
2.991495434355671
 20
8.361545429929911
  0
LINE
  5
1A4
330
1F
100
AcDbEntity
  8
0
  6
HIDDEN
 62
     7
370
     5
100
AcDbLine
 10
4.091046479100755
 20
8.587928287157778
 30
0.0
 11
3.118774654969251
 21
8.327445920054584
 31
0.0
  0
LINE
  5
1A5
330
1F
100
AcDbEntity
  8
0
  6
HIDDEN
 62
     7
370
     5
100
AcDbLine
 10
5.045640633702591
 20
8.332181963092823
 30
0.0
 11
6.002099035219832
 21
8.588427739509819
 31
0.0
  0
LINE
  5
1A6
330
1F
100
AcDbEntity
  8
0
  6
HIDDEN
 62
     7
370
     5
100
AcDbLine
 10
2.536277180132306
 20
8.426442885143067
 30
0.0
 11
2.536277180132306
 21
8.369599709745227
 31
0.0
  0
ARC
  5
1A7
330
1F
100
AcDbEntity
  8
0
  6
HIDDEN
 62
     7
370
     5
100
AcDbCircle
 10
2.590006373542897
 20
8.085526415464613
 30
0.0
 40
0.2891097762926614
100
AcDbArc
 50
77.1700644940584
 51
100.7103184253456
  0
LWPOLYLINE
  5
1A8
330
1F
100
AcDbEntity
  8
0
  6
HIDDEN
 62
     7
370
     5
100
AcDbPolyline
 90
       17
 70
   128
 43
0.0
 10
4.872239183049359
 20
11.61710523696144
 10
4.882245411407174
 20
11.59213973515622
 10
4.899254846575874
 20
11.57637228469136
 10
4.920677956241936
 20
11.57220333696783
 10
4.943253266159684
 20
11.58026757648493
 10
4.963543890039823
 20
11.59933729587871
 10
4.978460764331576
 20
11.62650930323889
 10
4.985732930145819
 20
11.65764690675974
 10
4.984253266159683
 20
11.68800968856831
 10
4.974247037801868
 20
11.71297519037352
 10
4.957237602633168
 20
11.72874264083838
 10
4.935814492967106
 20
11.73291158856191
 10
4.913239183049357
 20
11.72484734904481
 10
4.892948559169219
 20
11.70577762965103
 10
4.878031684877466
 20
11.67860562229085
 10
4.870759519063223
 20
11.64746801876999
 10
4.872239183049359
 20
11.61710523696144
  0
SPLINE
  5
1A9
330
1F
100
AcDbEntity
  8
0
  6
HIDDEN
 62
     7
370
     5
100
AcDbSpline
210
0.0
220
0.0
230
1.0
 70
     8
 71
     3
 72
    11
 73
     7
 74
     0
 42
0.0000000001
 43
0.0000000001
 40
0.0
 40
0.0
 40
0.0
 40
0.0
 40
0.2499999999999997
 40
0.4999999999999975
 40
0.7499999999999982
 40
1.0
 40
1.0
 40
1.0
 40
1.0
 10
2.493850773261114
 20
8.357269762802639
 30
0.0
 10
2.494488508884103
 20
8.365015427696777
 30
0.0
 10
2.495763980130077
 20
8.380506757485051
 30
0.0
 10
2.505575053334648
 20
8.40224293768445
 30
0.0
 10
2.519598887325138
 20
8.419367812968307
 30
0.0
 10
2.530717749196583
 20
8.424084527751482
 30
0.0
 10
2.536277180132306
 20
8.426442885143067
 30
0.0
  0
LINE
  5
1AA
330
1F
100
AcDbEntity
  8
0
  6
HIDDEN
 62
     7
370
     5
100
AcDbLine
 10
2.493850773261114
 20
8.357269762802639
 30
0.0
 11
2.221820925603276
 21
8.430149565427724
 31
0.0
  0
SPLINE
  5
1AB
330
1F
100
AcDbEntity
  8
0
  6
HIDDEN
 62
     7
370
     5
100
AcDbSpline
210
0.0
220
0.0
230
1.0
 70
     8
 71
     3
 72
    11
 73
     7
 74
     0
 42
0.0000000001
 43
0.0000000001
 40
0.0
 40
0.0
 40
0.0
 40
0.0
 40
0.2500000000000015
 40
0.5000000000000019
 40
0.7499999999999999
 40
1.0
 40
1.0
 40
1.0
 40
1.0
 10
2.264247332474468
 20
8.499322687768152
 30
0.0
 10
2.258687901538741
 20
8.496964330376567
 30
0.0
 10
2.2475690396673
 20
8.492247615593392
 30
0.0
 10
2.23354520567681
 20
8.475122740309533
 30
0.0
 10
2.223734132472244
 20
8.453386560110134
 30
0.0
 10
2.222458661226274
 20
8.43789523032186
 30
0.0
 10
2.221820925603276
 20
8.430149565427724
 30
0.0
  0
SPLINE
  5
1AC
330
1F
100
AcDbEntity
  8
0
  6
HIDDEN
 62
     7
370
     5
100
AcDbSpline
210
0.0
220
0.0
230
1.0
 70
     8
 71
     3
 72
    11
 73
     7
 74
     0
 42
0.0000000001
 43
0.0000000001
 40
0.0
 40
0.0
 40
0.0
 40
0.0
 40
0.2499999999999542
 40
0.500000000000063
 40
0.7499999999999575
 40
1.0
 40
1.0
 40
1.0
 40
1.0
 10
2.53557007335112
 20
8.368446824372886
 30
0.0
 10
2.535580702278167
 20
8.368575918787788
 30
0.0
 10
2.535601960132266
 20
8.368834107617592
 30
0.0
 10
2.535765478019017
 20
8.369196377287581
 30
0.0
 10
2.535999208585514
 20
8.369481791875649
 30
0.0
 10
2.536184522950046
 20
8.369560403788698
 30
0.0
 10
2.536277180132306
 20
8.369599709745227
 30
0.0
  0
LINE
  5
1AD
330
1F
100
AcDbEntity
  8
0
  6
HIDDEN
 62
     7
370
     5
100
AcDbLine
 10
2.493850773261114
 20
8.357269762802639
 30
0.0
 11
2.53557007335112
 21
8.368446824372886
 31
0.0
  0
ARC
  5
1AE
330
1F
100
AcDbEntity
  8
0
  6
HIDDEN
 62
     7
370
     5
100
AcDbCircle
 10
2.665933471851182
 20
8.381511757969748
 30
0.0
 40
0.1310164423207124
100
AcDbArc
 50
185.7230356250456
 51
198.7636665886793
  0
LINE
  5
1AF
330
1F
100
AcDbEntity
  8
0
  6
HIDDEN
 62
     7
370
     5
100
AcDbLine
 10
2.541880103977914
 20
8.339368311531707
 30
0.0
 11
2.500160803887908
 21
8.328191249961461
 31
0.0
  0
ARC
  5
1B0
330
1F
100
AcDbEntity
  8
0
  6
HIDDEN
 62
     7
370
     5
100
AcDbCircle
 10
2.624214171761177
 20
8.370334696399504
 30
0.0
 40
0.1310164423207132
100
AcDbArc
 50
185.7230356250472
 51
198.76366658868
  0
LINE
  5
1B1
330
1F
100
AcDbEntity
  8
0
  6
HIDDEN
 62
     7
370
     5
100
AcDbLine
 10
1.558351487411559
 20
7.295083158893623
 30
0.0
 11
2.500160803887908
 21
8.328191249961461
 31
0.0
  0
LINE
  5
1B2
330
1F
100
AcDbEntity
  8
0
  6
HIDDEN
 62
     7
370
     5
100
AcDbLine
 10
1.407837888908069
 20
7.335407415388899
 30
0.0
 11
1.558351487411559
 21
7.295083158893623
 31
0.0
  0
LINE
  5
1B3
330
1F
100
AcDbEntity
  8
0
  6
HIDDEN
 62
     7
370
     5
100
AcDbLine
 10
1.407837888908069
 20
8.648224616990193
 30
0.0
 11
1.407837888908069
 21
7.335407415388899
 31
0.0
  0
LINE
  5
1B4
330
1F
100
AcDbEntity
  8
0
  6
HIDDEN
 62
     7
370
     5
100
AcDbLine
 10
1.698355644426248
 20
8.570391699523435
 30
0.0
 11
1.407837888908069
 21
8.648224616990193
 31
0.0
  0
ARC
  5
1B5
330
1F
100
AcDbEntity
  8
0
  6
HIDDEN
 62
     7
370
     5
100
AcDbCircle
 10
1.801532312701308
 20
8.573821508275667
 30
0.0
 40
0.1032336595516146
100
AcDbArc
 50
181.9039307273673
 51
247.1178665645614
  0
LINE
  5
1B6
330
1F
100
AcDbEntity
  8
0
  6
HIDDEN
 62
     7
370
     5
100
AcDbLine
 10
2.158785290528182
 20
8.372245398416454
 30
0.0
 11
1.761391279501346
 21
8.478711645916087
 31
0.0
  0
LWPOLYLINE
  5
1B7
330
1F
100
AcDbEntity
  8
0
  6
HIDDEN
 62
     7
370
     5
100
AcDbPolyline
 90
        9
 70
   128
 43
0.0
 10
2.221820925603276
 20
8.430149565427724
 10
2.219254135799641
 20
8.41572642507525
 10
2.214752567401513
 20
8.402686449122748
 10
2.208460253888273
 20
8.391446868397638
 10
2.200578525935911
 20
8.382367307762937
 10
2.191359569582744
 20
8.375738279456559
 10
2.181098357212227
 20
8.371771887778026
 10
2.170123209531662
 20
8.370595042538207
 10
2.158785290528182
 20
8.372245398416454
  0
LWPOLYLINE
  5
1B8
330
1F
100
AcDbEntity
  8
0
  6
HIDDEN
 62
     7
370
     5
100
AcDbPolyline
 90
       17
 70
   128
 43
0.0
 10
1.673002931853025
 20
8.065951887289955
 10
1.69519197195902
 20
8.053993500165153
 10
1.714002931853028
 20
8.031828272976856
 10
1.726572013412957
 20
8.002830660636199
 10
1.730985687910323
 20
7.971415286758036
 10
1.726572013412957
 20
7.942364857234243
 10
1.714002931853028
 20
7.920102036617019
 10
1.69519197195902
 20
7.908016137532365
 10
1.673002931853025
 20
7.90794712855697
 10
1.650813891747034
 20
7.919905515681774
 10
1.632002931853026
 20
7.942070742870069
 10
1.619433850293093
 20
7.971068355210727
 10
1.615020175795726
 20
8.002483729088892
 10
1.619433850293097
 20
8.031534158612684
 10
1.632002931853026
 20
8.053796979229908
 10
1.650813891747034
 20
8.065882878314562
 10
1.673002931853025
 20
8.065951887289955
  0
LINE
  5
1B9
330
1F
100
AcDbEntity
  8
0
  6
HIDDEN
 62
     7
370
     5
100
AcDbLine
 10
3.963767258487176
 20
8.622027797033105
 30
0.0
 11
3.963767258487176
 21
8.678870972430948
 31
0.0
  0
LINE
  5
1BA
330
1F
100
AcDbEntity
  8
0
  6
HIDDEN
 62
     7
370
     5
100
AcDbLine
 10
2.991495434355671
 20
8.361545429929911
 30
0.0
 11
3.963767258487176
 21
8.622027797033105
 31
0.0
  0
LINE
  5
1BB
330
1F
100
AcDbEntity
  8
0
  6
HIDDEN
 62
     7
370
     5
100
AcDbLine
 10
1.600070787501569
 20
7.30626022046387
 30
0.0
 11
2.541880103977914
 21
8.339368311531707
 31
0.0
  0
LINE
  5
1BC
330
1F
100
AcDbEntity
  8
0
  6
HIDDEN
 62
     7
370
     5
100
AcDbLine
 10
1.600070787501569
 20
7.30626022046387
 30
0.0
 11
1.558351487411559
 21
7.295083158893623
 31
0.0
  0
LINE
  5
1BD
330
1F
100
AcDbEntity
  8
0
  6
HIDDEN
 62
     7
370
     5
100
AcDbLine
 10
2.53557007335112
 20
8.368446824372886
 30
0.0
 11
2.263540225693282
 21
8.441326626997971
 31
0.0
  0
LINE
  5
1BE
330
1F
100
AcDbEntity
  8
0
  6
HIDDEN
 62
     7
370
     5
100
AcDbLine
 10
2.536277180132306
 20
8.369599709745227
 30
0.0
 11
2.264247332474468
 21
8.442479512370312
 31
0.0
  0
LINE
  5
1BF
330
1F
100
AcDbEntity
  8
0
  6
HIDDEN
 62
     7
370
     5
100
AcDbLine
 10
7.525558887304124
 20
9.613429418432625
 30
0.0
 11
7.483839587214118
 21
9.624606480002867
 31
0.0
  0
LINE
  5
1C0
330
1F
100
AcDbEntity
  8
0
  6
HIDDEN
 62
     7
370
     5
100
AcDbLine
 10
7.467384444502452
 20
9.536601627850789
 30
0.0
 11
7.45658669509081
 21
9.588615082613181
 31
0.0
  0
LINE
  5
1C1
330
1F
100
AcDbEntity
  8
0
  6
HIDDEN
 62
     7
370
     5
100
AcDbLine
 10
7.018018085058403
 20
9.656991841882847
 30
0.0
 11
7.467384444502452
 21
9.536601627850789
 31
0.0
  0
SPLINE
  5
1C2
330
1F
100
AcDbEntity
  8
0
  6
HIDDEN
 62
     7
370
     5
100
AcDbSpline
210
0.0
220
0.0
230
1.0
 70
     8
 71
     3
 72
    11
 73
     7
 74
     0
 42
0.0000000001
 43
0.0000000001
 40
0.0
 40
0.0
 40
0.0
 40
0.0
 40
0.2500000000000418
 40
0.4999999999999362
 40
0.7500000000000452
 40
1.0
 40
1.0
 40
1.0
 40
1.0
 10
2.264247332474468
 20
8.442479512370312
 30
0.0
 10
2.264154675292199
 20
8.442440206413786
 30
0.0
 10
2.263969360927676
 20
8.442361594500733
 30
0.0
 10
2.263735630361179
 20
8.442076179912666
 30
0.0
 10
2.263572112474432
 20
8.441713910242677
 30
0.0
 10
2.263550854620329
 20
8.441455721412873
 30
0.0
 10
2.263540225693282
 20
8.441326626997971
 30
0.0
  0
LINE
  5
1C3
330
1F
100
AcDbEntity
  8
0
  6
HIDDEN
 62
     7
370
     5
100
AcDbLine
 10
2.200504590618188
 20
8.383422459986702
 30
0.0
 11
2.158785290528182
 21
8.372245398416454
 31
0.0
  0
LINE
  5
1C4
330
1F
100
AcDbEntity
  8
0
  6
HIDDEN
 62
     7
370
     5
100
AcDbLine
 10
2.263540225693282
 20
8.441326626997971
 30
0.0
 11
2.221820925603276
 21
8.430149565427724
 31
0.0
  0
LWPOLYLINE
  5
1C5
330
1F
100
AcDbEntity
  8
0
  6
HIDDEN
 62
     7
370
     5
100
AcDbPolyline
 90
        9
 70
   128
 43
0.0
 10
2.263540225693282
 20
8.441326626997971
 10
2.260973435889647
 20
8.426903486645498
 10
2.256471867491518
 20
8.413863510692996
 10
2.250179553978279
 20
8.402623929967884
 10
2.242297826025917
 20
8.393544369333184
 10
2.23307886967275
 20
8.386915341026806
 10
2.222817657302238
 20
8.382948949348271
 10
2.211842509621668
 20
8.381772104108454
 10
2.200504590618188
 20
8.383422459986702
  0
LINE
  5
1C6
330
1F
100
AcDbEntity
  8
0
  6
HIDDEN
 62
     7
370
     5
100
AcDbLine
 10
2.256104381921665
 20
8.474073812518492
 30
0.0
 11
2.256104381921665
 21
8.530916987916333
 31
0.0
  0
LINE
  5
1C7
330
1F
100
AcDbEntity
  8
0
  6
HIDDEN
 62
     7
370
     5
100
AcDbLine
 10
2.264247332474468
 20
8.442479512370312
 30
0.0
 11
2.264247332474468
 21
8.499322687768152
 31
0.0
  0
LWPOLYLINE
  5
1C8
330
1F
100
AcDbEntity
  8
0
  6
HIDDEN
 62
     7
370
     5
100
AcDbPolyline
 90
        9
 70
   128
 43
0.0
 10
2.256104381921665
 20
8.474073812518492
 10
2.266424185272107
 20
8.470763494276766
 10
2.274377561915337
 20
8.467013565060163
 10
2.279710033320887
 20
8.462944008684253
 10
2.282250980197372
 20
8.45868503584729
 10
2.281919101676482
 20
8.454372917871184
 10
2.27872501663898
 20
8.450145626525024
 10
2.272770923949953
 20
8.446138419440615
 10
2.264247332474468
 20
8.442479512370312
  0
LINE
  5
1C9
330
1F
100
AcDbEntity
  8
0
  6
HIDDEN
 62
     7
370
     5
100
AcDbLine
 10
1.803110579591352
 20
8.489888707486333
 30
0.0
 11
1.761391279501346
 21
8.478711645916087
 31
0.0
  0
LINE
  5
1CA
330
1F
100
AcDbEntity
  8
0
  6
HIDDEN
 62
     7
370
     5
100
AcDbLine
 10
2.200504590618188
 20
8.383422459986702
 30
0.0
 11
1.803110579591352
 21
8.489888707486333
 31
0.0
  0
LINE
  5
1CB
330
1F
100
AcDbEntity
  8
0
  6
HIDDEN
 62
     7
370
     5
100
AcDbLine
 10
1.85871037089483
 20
8.580540060018124
 30
0.0
 11
1.85871037089483
 21
8.637383235415965
 31
0.0
  0
LINE
  5
1CC
330
1F
100
AcDbEntity
  8
0
  6
HIDDEN
 62
     7
370
     5
100
AcDbLine
 10
1.85871037089483
 20
8.580540060018124
 30
0.0
 11
2.256104381921665
 21
8.474073812518492
 31
0.0
  0
LINE
  5
1CD
330
1F
100
AcDbEntity
  8
0
  6
HIDDEN
 62
     7
370
     5
100
AcDbLine
 10
5.468782375769843
 20
12.3059128541959
 30
0.0
 11
5.939518377102701
 21
10.0383471998235
 31
0.0
  0
LINE
  5
1CE
330
1F
100
AcDbEntity
  8
0
  6
HIDDEN
 62
     7
370
     5
100
AcDbLine
 10
6.656783434636143
 20
8.516224595558824
 30
0.0
 11
6.656783434636139
 21
8.573067770956667
 31
0.0
  0
LINE
  5
1CF
330
1F
100
AcDbEntity
  8
0
  6
HIDDEN
 62
     7
370
     5
100
AcDbLine
 10
6.656783434636143
 20
8.516224595558824
 30
0.0
 11
6.612589260811982
 21
8.504384487963225
 31
0.0
  0
LINE
  5
1D0
330
1F
100
AcDbEntity
  8
0
  6
HIDDEN
 62
     7
370
     5
100
AcDbLine
 10
6.612589260811982
 20
8.504384487963225
 30
0.0
 11
6.612589260811982
 21
8.561227663361066
 31
0.0
  0
LINE
  5
1D1
330
1F
100
AcDbEntity
  8
0
  6
HIDDEN
 62
     7
370
     5
100
AcDbLine
 10
6.612589260811982
 20
8.504384487963225
 30
0.0
 11
6.082259174922072
 21
8.646465779110421
 31
0.0
  0
LINE
  5
1D2
330
1F
100
AcDbEntity
  8
0
  6
HIDDEN
 62
     7
370
     5
100
AcDbLine
 10
7.00722033564676
 20
9.709005296645241
 30
0.0
 11
7.018018085058403
 21
9.656991841882847
 31
0.0
  0
LINE
  5
1D3
330
1F
100
AcDbEntity
  8
0
  6
HIDDEN
 62
     7
370
     5
100
AcDbLine
 10
6.97532979119014
 20
9.629970328313156
 30
0.0
 11
7.018018085058403
 21
9.656991841882847
 31
0.0
  0
LINE
  5
1D4
330
1F
100
AcDbEntity
  8
0
  6
HIDDEN
 62
     7
370
     5
100
AcDbLine
 10
6.964532041778498
 20
9.681983783075549
 30
0.0
 11
6.97532979119014
 21
9.629970328313156
 31
0.0
  0
LINE
  5
1D5
330
1F
100
AcDbEntity
  8
0
  6
HIDDEN
 62
     7
370
     5
100
AcDbLine
 10
6.444999705300229
 20
9.772051619460354
 30
0.0
 11
6.97532979119014
 21
9.629970328313156
 31
0.0
  0
LWPOLYLINE
  5
1D6
330
1F
100
AcDbEntity
  8
0
  6
HIDDEN
 62
     7
370
     5
100
AcDbPolyline
 90
       17
 70
   128
 43
0.0
 10
5.339658272897312
 20
11.22674756795073
 10
5.349664501255127
 20
11.20178206614551
 10
5.366673936423827
 20
11.18601461568065
 10
5.388097046089893
 20
11.18184566795712
 10
5.410672356007638
 20
11.18990990747423
 10
5.430962979887781
 20
11.208979626868
 10
5.445879854179529
 20
11.23615163422818
 10
5.453152019993773
 20
11.26728923774904
 10
5.451672356007636
 20
11.2976520195576
 10
5.441666127649826
 20
11.32261752136281
 10
5.424656692481126
 20
11.33838497182767
 10
5.40323358281506
 20
11.34255391955121
 10
5.380658272897315
 20
11.3344896800341
 10
5.360367649017172
 20
11.31541996064032
 10
5.345450774725419
 20
11.28824795328014
 10
5.338178608911176
 20
11.25711034975929
 10
5.339658272897312
 20
11.22674756795073
  0
LWPOLYLINE
  5
1D7
330
1F
100
AcDbEntity
  8
0
  6
HIDDEN
 62
     7
370
     5
100
AcDbPolyline
 90
       17
 70
   128
 43
0.0
 10
2.781484720343271
 20
8.590959354702251
 10
2.799260085951896
 20
8.583832193450362
 10
2.805501964285975
 20
8.575425133536823
 10
2.799260085951896
 20
8.567018073623287
 10
2.781484720343267
 20
8.559890912371399
 10
2.754882005739909
 20
8.555128695473879
 10
2.723501964285973
 20
8.553456427283775
 10
2.692121922832032
 20
8.555128695473879
 10
2.665519208228679
 20
8.559890912371397
 10
2.647743842620049
 20
8.567018073623287
 10
2.641501964285975
 20
8.575425133536825
 10
2.647743842620049
 20
8.583832193450362
 10
2.665519208228679
 20
8.590959354702251
 10
2.692121922832041
 20
8.595721571599769
 10
2.723501964285977
 20
8.597393839789873
 10
2.754882005739909
 20
8.595721571599769
 10
2.781484720343271
 20
8.590959354702251
  0
LINE
  5
1D8
330
1F
100
AcDbEntity
  8
0
  6
HIDDEN
 62
     7
370
     5
100
AcDbLine
 10
6.145191678447675
 20
8.558564820320688
 30
0.0
 11
6.145191678447675
 21
8.61540799571853
 31
0.0
  0
LWPOLYLINE
  5
1D9
330
1F
100
AcDbEntity
  8
0
  6
HIDDEN
 62
     7
370
     5
100
AcDbPolyline
 90
        7
 70
   128
 43
0.0
 10
6.086522133422616
 20
8.59968977619834
 10
6.115993577053743
 20
8.597891153620121
 10
6.145191678447675
 20
8.592664330196017
 10
6.164701226066901
 20
8.584841836139064
 10
6.171552068140886
 20
8.575614575258352
 10
6.164701226066901
 20
8.566387314377641
 10
6.145191678447675
 20
8.558564820320688
  0
LINE
  5
1DA
330
1F
100
AcDbEntity
  8
0
  6
HIDDEN
 62
     7
370
     5
100
AcDbLine
 10
1.698355644426248
 20
8.570391699523435
 30
0.0
 11
1.740074944516253
 21
8.581568761093681
 31
0.0
  0
ARC
  5
1DB
330
1F
100
AcDbEntity
  8
0
  6
HIDDEN
 62
     7
370
     5
100
AcDbCircle
 10
1.843251612791319
 20
8.584998569845916
 30
0.0
 40
0.1032336595516201
100
AcDbArc
 50
181.9039307273691
 51
247.1178665645594
  0
LINE
  5
1DC
330
1F
100
AcDbEntity
  8
0
  6
HIDDEN
 62
     7
370
     5
100
AcDbLine
 10
1.740782051297439
 20
8.639564821863864
 30
0.0
 11
1.740782051297439
 21
8.582721646466021
 31
0.0
  0
ARC
  5
1DD
330
1F
100
AcDbEntity
  8
0
  6
HIDDEN
 62
     7
370
     5
100
AcDbCircle
 10
1.794511244708036
 20
8.298648352185338
 30
0.0
 40
0.2891097762927305
100
AcDbArc
 50
77.17006449406174
 51
100.7103184253441
  0
SPLINE
  5
1DE
330
1F
100
AcDbEntity
  8
0
  6
HIDDEN
 62
     7
370
     5
100
AcDbSpline
210
0.0
220
0.0
230
1.0
 70
     8
 71
     3
 72
    11
 73
     7
 74
     0
 42
0.0000000001
 43
0.0000000001
 40
0.0
 40
0.0
 40
0.0
 40
0.0
 40
0.2500000000000005
 40
0.4999999999999982
 40
0.7499999999999987
 40
1.0
 40
1.0
 40
1.0
 40
1.0
 10
1.698355644426248
 20
8.570391699523435
 30
0.0
 10
1.698993380049233
 20
8.578137364417573
 30
0.0
 10
1.700268851295211
 20
8.593628694205847
 30
0.0
 10
1.710079924499781
 20
8.615364874405244
 30
0.0
 10
1.724103758490268
 20
8.632489749689105
 30
0.0
 10
1.735222620361712
 20
8.637206464472278
 30
0.0
 10
1.740782051297439
 20
8.639564821863864
 30
0.0
  0
ARC
  5
1DF
330
1F
100
AcDbEntity
  8
0
  6
HIDDEN
 62
     7
370
     5
100
AcDbCircle
 10
1.478655894259376
 20
8.652386738180913
 30
0.0
 40
0.0709402081667653
100
AcDbArc
 50
113.5918517014755
 51
183.3635227553956
  0
SPLINE
  5
1E0
330
1F
100
AcDbEntity
  8
0
  6
HIDDEN
 62
     7
370
     5
100
AcDbSpline
210
0.0
220
0.0
230
1.0
 70
     8
 71
     3
 72
    11
 73
     7
 74
     0
 42
0.0000000001
 43
0.0000000001
 40
0.0
 40
0.0
 40
0.0
 40
0.0
 40
0.249999999999955
 40
0.5000000000000639
 40
0.7499999999999582
 40
1.0
 40
1.0
 40
1.0
 40
1.0
 10
1.740074944516253
 20
8.581568761093683
 30
0.0
 10
1.740085573443301
 20
8.581697855508584
 30
0.0
 10
1.740106831297409
 20
8.581956044338387
 30
0.0
 10
1.740270349184146
 20
8.582318314008377
 30
0.0
 10
1.740504079750653
 20
8.582603728596442
 30
0.0
 10
1.740689394115176
 20
8.582682340509496
 30
0.0
 10
1.740782051297439
 20
8.582721646466023
 30
0.0
  0
LINE
  5
1E1
330
1F
100
AcDbEntity
  8
0
  6
HIDDEN
 62
     7
370
     5
100
AcDbLine
 10
1.740074944516253
 20
8.581568761093681
 30
0.0
 11
1.449557188998075
 21
8.65940167856044
 31
0.0
  0
LINE
  5
1E2
330
1F
100
AcDbEntity
  8
0
  6
HIDDEN
 62
     7
370
     5
100
AcDbLine
 10
1.740782051297439
 20
8.582721646466021
 30
0.0
 11
1.450264295779261
 21
8.66055456393278
 31
0.0
  0
LINE
  5
1E3
330
1F
100
AcDbEntity
  8
0
  6
HIDDEN
 62
     7
370
     5
100
AcDbLine
 10
4.091046479100755
 20
8.587928287157778
 30
0.0
 11
4.091046479100755
 21
8.64477146255562
 31
0.0
  0
LWPOLYLINE
  5
1E4
330
1F
100
AcDbEntity
  8
0
  6
HIDDEN
 62
     7
370
     5
100
AcDbPolyline
 90
        9
 70
   128
 43
0.0
 10
3.963767258487176
 20
8.622027797033105
 10
3.992965359881108
 20
8.627254620457211
 10
4.027406868793966
 20
8.629090036763424
 10
4.061848377706824
 20
8.627254620457211
 10
4.091046479100755
 20
8.622027797033105
 10
4.110556026719981
 20
8.614205302976154
 10
4.117406868793966
 20
8.604978042095442
 10
4.110556026719981
 20
8.59575078121473
 10
4.091046479100755
 20
8.587928287157778
  0
LWPOLYLINE
  5
1E5
330
1F
100
AcDbEntity
  8
0
  6
HIDDEN
 62
     7
370
     5
100
AcDbPolyline
 90
       17
 70
   128
 43
0.0
 10
1.714722231943031
 20
8.077128948860202
 10
1.736911272049026
 20
8.065170561735401
 10
1.755722231943034
 20
8.043005334547103
 10
1.768291313502962
 20
8.014007722206445
 10
1.772704988000329
 20
7.982592348328283
 10
1.768291313502962
 20
7.953541918804489
 10
1.755722231943034
 20
7.931279098187264
 10
1.736911272049026
 20
7.91919319910261
 10
1.714722231943031
 20
7.919124190127217
 10
1.692533191837039
 20
7.93108257725202
 10
1.673722231943032
 20
7.953247804440316
 10
1.661153150383098
 20
7.982245416780973
 10
1.656739475885732
 20
8.013660790659137
 10
1.661153150383103
 20
8.04271122018293
 10
1.673722231943032
 20
8.064974040800155
 10
1.692533191837039
 20
8.077059939884808
 10
1.714722231943031
 20
8.077128948860202
  0
LINE
  5
1E6
330
1F
100
AcDbEntity
  8
0
  6
HIDDEN
 62
     7
370
     5
100
AcDbLine
 10
6.126453348746232
 20
8.65830588670602
 30
0.0
 11
6.126453348746232
 21
8.715149062103863
 31
0.0
  0
LINE
  5
1E7
330
1F
100
AcDbEntity
  8
0
  6
HIDDEN
 62
     7
370
     5
100
AcDbLine
 10
6.082259174922072
 20
8.646465779110421
 30
0.0
 11
6.082259174922072
 21
8.703308954508264
 31
0.0
  0
LINE
  5
1E8
330
1F
100
AcDbEntity
  8
0
  6
HIDDEN
 62
     7
370
     5
100
AcDbLine
 10
6.082259174922072
 20
8.646465779110421
 30
0.0
 11
6.126453348746232
 21
8.65830588670602
 31
0.0
  0
ARC
  5
1E9
330
1F
100
AcDbEntity
  8
0
  6
HIDDEN
 62
     7
370
     5
100
AcDbCircle
 10
1.450737489087253
 20
8.659471047246958
 30
0.0
 40
0.00118233680277
100
AcDbArc
 50
113.5918517011609
 51
183.363522755697
  0
LINE
  5
1EA
330
1F
100
AcDbEntity
  8
0
  6
HIDDEN
 62
     7
370
     5
100
AcDbLine
 10
1.407837888908069
 20
8.648224616990193
 30
0.0
 11
1.449557188998075
 21
8.65940167856044
 31
0.0
  0
LINE
  5
1EB
330
1F
100
AcDbEntity
  8
0
  6
HIDDEN
 62
     7
370
     5
100
AcDbLine
 10
1.449557188998075
 20
8.65940167856044
 30
0.0
 11
1.44955718899808
 21
7.346584476959145
 31
0.0
  0
LINE
  5
1EC
330
1F
100
AcDbEntity
  8
0
  6
HIDDEN
 62
     7
370
     5
100
AcDbLine
 10
6.126453348746232
 20
8.65830588670602
 30
0.0
 11
3.784162136065798
 21
9.285831589272808
 31
0.0
  0
LINE
  5
1ED
330
1F
100
AcDbEntity
  8
0
  6
HIDDEN
 62
     7
370
     5
100
AcDbLine
 10
6.476890249756854
 20
9.851086587792439
 30
0.0
 11
6.487687999168492
 21
9.799073133030045
 31
0.0
  0
LINE
  5
1EE
330
1F
100
AcDbEntity
  8
0
  6
HIDDEN
 62
     7
370
     5
100
AcDbLine
 10
6.434201955888587
 20
9.824065074222746
 30
0.0
 11
6.444999705300229
 21
9.772051619460354
 31
0.0
  0
LINE
  5
1EF
330
1F
100
AcDbEntity
  8
0
  6
HIDDEN
 62
     7
370
     5
100
AcDbLine
 10
6.487687999168492
 20
9.799073133030045
 30
0.0
 11
6.444999705300229
 21
9.772051619460354
 31
0.0
  0
LINE
  5
1F0
330
1F
100
AcDbEntity
  8
0
  6
HIDDEN
 62
     7
370
     5
100
AcDbLine
 10
3.784162136065798
 20
9.342674764670649
 30
0.0
 11
3.784162136065798
 21
9.285831589272808
 31
0.0
  0
LINE
  5
1F1
330
1F
100
AcDbEntity
  8
0
  6
HIDDEN
 62
     7
370
     5
100
AcDbLine
 10
1.450264295779261
 20
8.717397739330623
 30
0.0
 11
1.450264295779261
 21
8.66055456393278
 31
0.0
  0
LINE
  5
1F2
330
1F
100
AcDbEntity
  8
0
  6
HIDDEN
 62
     7
370
     5
100
AcDbLine
 10
3.784162136065798
 20
9.285831589272808
 30
0.0
 11
1.450264295779261
 21
8.66055456393278
 31
0.0
  0
LINE
  5
1F3
330
1F
100
AcDbEntity
  8
0
  6
HIDDEN
 62
     7
370
     5
100
AcDbLine
 10
6.038321639724451
 20
9.919463347062105
 30
0.0
 11
6.487687999168492
 21
9.799073133030045
 31
0.0
  0
LINE
  5
1F4
330
1F
100
AcDbEntity
  8
0
  6
HIDDEN
 62
     7
370
     5
100
AcDbLine
 10
1.44955718899808
 20
7.346584476959145
 30
0.0
 11
1.407837888908069
 21
7.335407415388899
 31
0.0
  0
LINE
  5
1F5
330
1F
100
AcDbEntity
  8
0
  6
HIDDEN
 62
     7
370
     5
100
AcDbLine
 10
1.44955718899808
 20
7.346584476959145
 30
0.0
 11
1.600070787501569
 21
7.30626022046387
 31
0.0
  0
LINE
  5
1F6
330
1F
100
AcDbEntity
  8
0
  6
HIDDEN
 62
     7
370
     5
100
AcDbLine
 10
6.027523890312804
 20
9.971476801824495
 30
0.0
 11
6.038321639724451
 21
9.919463347062105
 31
0.0
  0
LINE
  5
1F7
330
1F
100
AcDbEntity
  8
0
  6
HIDDEN
 62
     7
370
     5
100
AcDbLine
 10
5.981237677192707
 20
10.02717013825326
 30
0.0
 11
5.939518377102701
 21
10.0383471998235
 31
0.0
  0
ARC
  5
1F8
330
1F
100
AcDbEntity
  8
0
  6
HIDDEN
 62
     7
370
     5
100
AcDbCircle
 10
6.097081184615198
 20
10.06879701945792
 30
0.0
 40
0.1604781288119637
100
AcDbArc
 50
190.9378656442969
 51
248.5214437784477
  0
LWPOLYLINE
  5
1F9
330
1F
100
AcDbEntity
  8
0
  6
HIDDEN
 62
     7
370
     5
100
AcDbPolyline
 90
       17
 70
   128
 43
0.0
 10
4.372474978013003
 20
9.01720322814384
 10
4.390250343621633
 20
9.010076066891951
 10
4.396492221955707
 20
9.001669006978412
 10
4.390250343621628
 20
8.993261947064876
 10
4.372474978013003
 20
8.986134785812987
 10
4.345872263409641
 20
8.981372568915467
 10
4.314492221955705
 20
8.979700300725363
 10
4.283112180501769
 20
8.981372568915467
 10
4.256509465898411
 20
8.986134785812986
 10
4.238734100289781
 20
8.993261947064876
 10
4.232492221955712
 20
9.001669006978415
 10
4.238734100289781
 20
9.010076066891953
 10
4.256509465898416
 20
9.01720322814384
 10
4.283112180501777
 20
9.021965445041359
 10
4.31449222195571
 20
9.023637713231464
 10
4.345872263409646
 20
9.021965445041359
 10
4.372474978013003
 20
9.01720322814384
  0
LWPOLYLINE
  5
1FA
330
1F
100
AcDbEntity
  8
0
  6
HIDDEN
 62
     7
370
     5
100
AcDbPolyline
 90
       17
 70
   128
 43
0.0
 10
3.576979849178137
 20
9.04088344333504
 10
3.594755214786762
 20
9.033756282083151
 10
3.600997093120841
 20
9.025349222169614
 10
3.594755214786762
 20
9.016942162256077
 10
3.576979849178133
 20
9.009815001004188
 10
3.550377134574775
 20
9.00505278410667
 10
3.518997093120839
 20
9.003380515916564
 10
3.487617051666902
 20
9.005052784106668
 10
3.461014337063545
 20
9.009815001004186
 10
3.44323897145492
 20
9.016942162256077
 10
3.436997093120841
 20
9.025349222169614
 10
3.443238971454916
 20
9.033756282083151
 10
3.461014337063549
 20
9.04088344333504
 10
3.487617051666907
 20
9.04564566023256
 10
3.518997093120843
 20
9.047317928422664
 10
3.55037713457478
 20
9.04564566023256
 10
3.576979849178137
 20
9.04088344333504
  0
LINE
  5
1FB
330
1F
100
AcDbEntity
  8
0
  6
HIDDEN
 62
     7
370
     5
100
AcDbLine
 10
6.292487630003326
 20
7.270796446497499
 30
0.0
 11
6.334206930093332
 21
7.281973508067745
 31
0.0
  0
LINE
  5
1FC
330
1F
100
AcDbEntity
  8
0
  6
HIDDEN
 62
     7
370
     5
100
AcDbLine
 10
6.39287649065227
 20
7.355799330329286
 30
0.0
 11
6.39287649065227
 21
7.412642505727128
 31
0.0
  0
LINE
  5
1FD
330
1F
100
AcDbEntity
  8
0
  6
HIDDEN
 62
     7
370
     5
100
AcDbLine
 10
6.378084314238393
 20
6.822281837312496
 30
0.0
 11
6.336365014148388
 21
6.81110477574225
 31
0.0
  0
LINE
  5
1FE
330
1F
100
AcDbEntity
  8
0
  6
HIDDEN
 62
     7
370
     5
100
AcDbLine
 10
6.378805700279405
 20
6.65269142983753
 30
0.0
 11
6.420525000369411
 21
6.663868491407777
 31
0.0
  0
LINE
  5
1FF
330
1F
100
AcDbEntity
  8
0
  6
HIDDEN
 62
     7
370
     5
100
AcDbLine
 10
7.224919346701886
 20
7.580856095506447
 30
0.0
 11
7.224919346701886
 21
7.637699270904289
 31
0.0
  0
LINE
  5
200
330
1F
100
AcDbEntity
  8
0
  6
HIDDEN
 62
     7
370
     5
100
AcDbLine
 10
7.060919346701886
 20
7.637699270904287
 30
0.0
 11
7.060919346701886
 21
7.580856095506447
 31
0.0
  0
LINE
  5
201
330
1F
100
AcDbEntity
  8
0
  6
HIDDEN
 62
     7
370
     5
100
AcDbLine
 10
5.597381361817403
 20
7.568921267050082
 30
0.0
 11
5.597381361817403
 21
7.625764442447924
 31
0.0
  0
LINE
  5
202
330
1F
100
AcDbEntity
  8
0
  6
HIDDEN
 62
     7
370
     5
100
AcDbLine
 10
6.429424217867024
 20
7.604536310697646
 30
0.0
 11
6.429424217867024
 21
7.661379486095488
 31
0.0
  0
LINE
  5
203
330
1F
100
AcDbEntity
  8
0
  6
HIDDEN
 62
     7
370
     5
100
AcDbLine
 10
6.265424217867025
 20
7.661379486095487
 30
0.0
 11
6.265424217867025
 21
7.604536310697645
 31
0.0
  0
LINE
  5
204
330
1F
100
AcDbEntity
  8
0
  6
HIDDEN
 62
     7
370
     5
100
AcDbLine
 10
4.804302495024246
 20
7.900054267645235
 30
0.0
 11
7.474882159422833
 21
9.590520156565089
 31
0.0
  0
LINE
  5
205
330
1F
100
AcDbEntity
  8
0
  6
HIDDEN
 62
     7
370
     5
100
AcDbLine
 10
3.365395434054296
 20
8.138826041455207
 30
0.0
 11
4.667465644389059
 21
7.789987041800434
 31
0.0
  0
SPLINE
  5
206
330
1F
100
AcDbEntity
  8
0
  6
HIDDEN
 62
     7
370
     5
100
AcDbSpline
210
0.0
220
0.0
230
1.0
 70
     8
 71
     3
 72
    16
 73
    12
 74
     0
 42
0.0000000001
 43
0.0000000001
 40
0.0
 40
0.0
 40
0.0
 40
0.0
 40
0.1700281586415435
 40
0.324562489682432
 40
0.4644418491761668
 40
0.5908018813553576
 40
0.7051328040296864
 40
0.809474339146063
 40
0.9065083266073175
 40
0.9535271091828008
 40
1.0
 40
1.0
 40
1.0
 40
1.0
 10
4.717375347907882
 20
7.827396952954602
 30
0.0
 10
4.717011491198627
 20
7.827665686189665
 30
0.0
 10
4.716316934247658
 20
7.828178664325345
 30
0.0
 10
4.715848722763285
 20
7.829708545121627
 30
0.0
 10
4.715929980875012
 20
7.831475268598374
 30
0.0
 10
4.716556228435802
 20
7.833280609522454
 30
0.0
 10
4.717643073966099
 20
7.834871232733928
 30
0.0
 10
4.719069926088407
 20
7.836049257073398
 30
0.0
 10
4.720434275811033
 20
7.836552394981785
 30
0.0
 10
4.721512701144258
 20
7.836630685149978
 30
0.0
 10
4.722027307760379
 20
7.836533563661692
 30
0.0
 10
4.722283108691276
 20
7.836485286460552
 30
0.0
  0
LINE
  5
207
330
1F
100
AcDbEntity
  8
0
  6
HIDDEN
 62
     7
370
     5
100
AcDbLine
 10
3.386514209722766
 20
8.194248800315836
 30
0.0
 11
4.712455486431495
 21
7.839014478159641
 31
0.0
  0
LINE
  5
208
330
1F
100
AcDbEntity
  8
0
  6
HIDDEN
 62
     7
370
     5
100
AcDbLine
 10
5.939087565231253
 20
10.83535190715559
 30
0.0
 11
5.980806865321259
 21
10.82417484558534
 31
0.0
  0
LINE
  5
209
330
1F
100
AcDbEntity
  8
0
  6
HIDDEN
 62
     7
370
     5
100
AcDbLine
 10
6.023247551452277
 20
10.98258819149006
 30
0.0
 11
5.981528251362271
 21
10.99376525306031
 31
0.0
  0
LINE
  5
20A
330
1F
100
AcDbEntity
  8
0
  6
HIDDEN
 62
     7
370
     5
100
AcDbLine
 10
5.723493953186985
 20
10.01265002102983
 30
0.0
 11
5.765213253276991
 21
10.00147295945958
 31
0.0
  0
LINE
  5
20B
330
1F
100
AcDbEntity
  8
0
  6
HIDDEN
 62
     7
370
     5
100
AcDbLine
 10
5.807653939408009
 20
10.1598863053643
 30
0.0
 11
5.765934639318003
 21
10.17106336693454
 31
0.0
  0
LINE
  5
20C
330
1F
100
AcDbEntity
  8
0
  6
HIDDEN
 62
     7
370
     5
100
AcDbLine
 10
6.367732875732127
 20
8.010710020596061
 30
0.0
 11
6.367732875732127
 21
7.953866845198219
 31
0.0
  0
LINE
  5
20D
330
1F
100
AcDbEntity
  8
0
  6
HIDDEN
 62
     7
370
     5
100
AcDbLine
 10
6.462876891869629
 20
11.10407027931339
 30
0.0
 11
6.504596191959635
 21
11.09289321774314
 31
0.0
  0
LINE
  5
20E
330
1F
100
AcDbEntity
  8
0
  6
HIDDEN
 62
     7
370
     5
100
AcDbLine
 10
6.547036878090652
 20
11.25130656364786
 30
0.0
 11
6.505317578000647
 21
11.26248362521811
 31
0.0
  0
LINE
  5
20F
330
1F
100
AcDbEntity
  8
0
  6
HIDDEN
 62
     7
370
     5
100
AcDbLine
 10
8.020414475536757
 20
8.030780184139235
 30
0.0
 11
8.020414475536757
 21
8.087623359537078
 31
0.0
  0
LINE
  5
210
330
1F
100
AcDbEntity
  8
0
  6
HIDDEN
 62
     7
370
     5
100
AcDbLine
 10
7.856414475536757
 20
8.087623359537076
 30
0.0
 11
7.856414475536757
 21
8.030780184139233
 31
0.0
  0
LINE
  5
211
330
1F
100
AcDbEntity
  8
0
  6
HIDDEN
 62
     7
370
     5
100
AcDbLine
 10
6.918766181498374
 20
10.76925240098117
 30
0.0
 11
6.96048548158838
 21
10.75807533941092
 31
0.0
  0
LINE
  5
212
330
1F
100
AcDbEntity
  8
0
  6
HIDDEN
 62
     7
370
     5
100
AcDbLine
 10
7.002926167719397
 20
10.91648868531564
 30
0.0
 11
6.961206867629392
 21
10.92766574688589
 31
0.0
  0
LINE
  5
213
330
1F
100
AcDbEntity
  8
0
  6
HIDDEN
 62
     7
370
     5
100
AcDbLine
 10
3.377421470545256
 20
8.212926628233931
 30
0.0
 11
3.366623721133613
 21
8.264940082996323
 31
0.0
  0
LINE
  5
214
330
1F
100
AcDbEntity
  8
0
  6
HIDDEN
 62
     7
370
     5
100
AcDbLine
 10
3.407471660482669
 20
8.155622278627241
 30
0.0
 11
3.407471660482669
 21
8.212465454025082
 31
0.0
  0
LINE
  5
215
330
1F
100
AcDbEntity
  8
0
  6
HIDDEN
 62
     7
370
     5
100
AcDbLine
 10
7.520004699863632
 20
8.214349212301414
 30
0.0
 11
7.520004699863632
 21
8.271192387699255
 31
0.0
  0
LINE
  5
216
330
1F
100
AcDbEntity
  8
0
  6
HIDDEN
 62
     7
370
     5
100
AcDbLine
 10
4.263332729296601
 20
10.57362702518493
 30
0.0
 11
4.221613429206596
 21
10.58480408675518
 31
0.0
  0
LINE
  5
217
330
1F
100
AcDbEntity
  8
0
  6
HIDDEN
 62
     7
370
     5
100
AcDbLine
 10
4.179172743075578
 20
10.42639074085046
 30
0.0
 11
4.220892043165584
 21
10.41521367928021
 31
0.0
  0
LINE
  5
218
330
1F
100
AcDbEntity
  8
0
  6
HIDDEN
 62
     7
370
     5
100
AcDbLine
 10
4.490456141560078
 20
11.34078912063221
 30
0.0
 11
4.448736841470072
 21
11.35196618220246
 31
0.0
  0
LINE
  5
219
330
1F
100
AcDbEntity
  8
0
  6
HIDDEN
 62
     7
370
     5
100
AcDbLine
 10
4.406296155339054
 20
11.19355283629774
 30
0.0
 11
4.44801545542906
 21
11.18237577472749
 31
0.0
  0
LINE
  5
21A
330
1F
100
AcDbEntity
  8
0
  6
HIDDEN
 62
     7
370
     5
100
AcDbLine
 10
5.01928024400938
 20
8.371975383553001
 30
0.0
 11
5.01928024400938
 21
8.315132208155159
 31
0.0
  0
LINE
  5
21B
330
1F
100
AcDbEntity
  8
0
  6
HIDDEN
 62
     7
370
     5
100
AcDbLine
 10
2.965135044662461
 20
8.401338850390089
 30
0.0
 11
2.965135044662461
 21
8.344495674992248
 31
0.0
  0
LINE
  5
21C
330
1F
100
AcDbEntity
  8
0
  6
HIDDEN
 62
     7
370
     5
100
AcDbLine
 10
4.991185867760036
 20
11.72058707414699
 30
0.0
 11
4.94946656767003
 21
11.73176413571723
 31
0.0
  0
LINE
  5
21D
330
1F
100
AcDbEntity
  8
0
  6
HIDDEN
 62
     7
370
     5
100
AcDbLine
 10
4.907025881539012
 20
11.57335078981251
 30
0.0
 11
4.948745181629018
 21
11.56217372824227
 31
0.0
  0
LINE
  5
21E
330
1F
100
AcDbEntity
  8
0
  6
HIDDEN
 62
     7
370
     5
100
AcDbLine
 10
2.182075910965938
 20
8.372021173749038
 30
0.0
 11
2.223795211055943
 21
8.383198235319284
 31
0.0
  0
LINE
  5
21F
330
1F
100
AcDbEntity
  8
0
  6
HIDDEN
 62
     7
370
     5
100
AcDbLine
 10
2.282464771614876
 20
8.457024057580829
 30
0.0
 11
2.282464771614876
 21
8.51386723297867
 31
0.0
  0
LINE
  5
220
330
1F
100
AcDbEntity
  8
0
  6
HIDDEN
 62
     7
370
     5
100
AcDbLine
 10
5.458604957607994
 20
11.33022940513628
 30
0.0
 11
5.416885657517988
 21
11.34140646670652
 31
0.0
  0
LINE
  5
221
330
1F
100
AcDbEntity
  8
0
  6
HIDDEN
 62
     7
370
     5
100
AcDbLine
 10
5.374444971386965
 20
11.1829931208018
 30
0.0
 11
5.416164271476971
 21
11.17181605923156
 31
0.0
  0
LINE
  5
222
330
1F
100
AcDbEntity
  8
0
  6
HIDDEN
 62
     7
370
     5
100
AcDbLine
 10
2.805501964285975
 20
8.575425133536823
 30
0.0
 11
2.805501964285975
 21
8.632268308934666
 31
0.0
  0
LINE
  5
223
330
1F
100
AcDbEntity
  8
0
  6
HIDDEN
 62
     7
370
     5
100
AcDbLine
 10
2.641501964285975
 20
8.632268308934667
 30
0.0
 11
2.641501964285975
 21
8.575425133536825
 31
0.0
  0
LINE
  5
224
330
1F
100
AcDbEntity
  8
0
  6
HIDDEN
 62
     7
370
     5
100
AcDbLine
 10
6.171552068140886
 20
8.575614575258352
 30
0.0
 11
6.171552068140886
 21
8.632457750656193
 31
0.0
  0
LINE
  5
225
330
1F
100
AcDbEntity
  8
0
  6
HIDDEN
 62
     7
370
     5
100
AcDbLine
 10
4.117406868793966
 20
8.604978042095442
 30
0.0
 11
4.117406868793966
 21
8.661821217493283
 31
0.0
  0
LINE
  5
226
330
1F
100
AcDbEntity
  8
0
  6
HIDDEN
 62
     7
370
     5
100
AcDbLine
 10
1.693501888877522
 20
8.077333242446069
 30
0.0
 11
1.651782588787516
 21
8.066156180875822
 31
0.0
  0
LINE
  5
227
330
1F
100
AcDbEntity
  8
0
  6
HIDDEN
 62
     7
370
     5
100
AcDbLine
 10
1.694223274918534
 20
7.907742834971105
 30
0.0
 11
1.735942575008539
 21
7.918919896541351
 31
0.0
  0
LINE
  5
228
330
1F
100
AcDbEntity
  8
0
  6
HIDDEN
 62
     7
370
     5
100
AcDbLine
 10
4.396492221955707
 20
9.001669006978412
 30
0.0
 11
4.396492221955707
 21
9.058512182376254
 31
0.0
  0
LINE
  5
229
330
1F
100
AcDbEntity
  8
0
  6
HIDDEN
 62
     7
370
     5
100
AcDbLine
 10
4.232492221955707
 20
9.058512182376256
 30
0.0
 11
4.232492221955707
 21
9.001669006978415
 31
0.0
  0
LINE
  5
22A
330
1F
100
AcDbEntity
  8
0
  6
HIDDEN
 62
     7
370
     5
100
AcDbLine
 10
3.600997093120841
 20
9.025349222169614
 30
0.0
 11
3.600997093120841
 21
9.082192397567455
 31
0.0
  0
LINE
  5
22B
330
1F
100
AcDbEntity
  8
0
  6
HIDDEN
 62
     7
370
     5
100
AcDbLine
 10
3.436997093120841
 20
9.082192397567455
 30
0.0
 11
3.436997093120841
 21
9.025349222169614
 31
0.0
  0
LINE
  5
22C
330
1F
100
AcDbEntity
  8
0
  6
HIDDEN
 62
     7
370
     5
100
AcDbLine
 10
6.366516100959058
 20
7.37284908526695
 30
0.0
 11
6.366516100959058
 21
7.393709462655356
 31
0.0
  0
LINE
  5
22D
330
1F
100
AcDbEntity
  8
0
  6
HIDDEN
 62
     7
370
     5
100
AcDbLine
 10
5.571020972124197
 20
7.585971021987745
 30
0.0
 11
5.571020972124197
 21
7.60683139937615
 31
0.0
  0
LINE
  5
22E
330
1F
100
AcDbEntity
  8
0
  6
HIDDEN
 62
     7
370
     5
100
AcDbLine
 10
4.72618688146704
 20
7.83974187356591
 30
0.0
 11
4.72618688146704
 21
7.827157342150883
 31
0.0
  0
LINE
  5
22F
330
1F
100
AcDbEntity
  8
0
  6
HIDDEN
 62
     7
370
     5
100
AcDbLine
 10
6.394093265425338
 20
7.970916600135883
 30
0.0
 11
6.394093265425338
 21
7.993660265658398
 31
0.0
  0
LINE
  5
230
330
1F
100
AcDbEntity
  8
0
  6
HIDDEN
 62
     7
370
     5
100
AcDbLine
 10
6.017912457834096
 20
8.598437570661031
 30
0.0
 11
6.017912457834096
 21
8.649507505593858
 31
0.0
  0
ENDSEC
  0
SECTION
  2
OBJECTS
  0
DICTIONARY
  5
C
330
0
100
AcDbDictionary
281
     1
  3
ACAD_COLOR
350
233
  3
ACAD_GROUP
350
D
  3
ACAD_LAYOUT
350
1A
  3
ACAD_MATERIAL
350
232
  3
ACAD_MLINESTYLE
350
17
  3
ACAD_PLOTSETTINGS
350
19
  3
ACAD_PLOTSTYLENAME
350
E
  3
ACAD_SCALELIST
350
47
  0
DICTIONARY
  5
233
102
{ACAD_REACTORS
330
C
102
}
330
C
100
AcDbDictionary
281
     1
  0
DICTIONARY
  5
D
102
{ACAD_REACTORS
330
C
102
}
330
C
100
AcDbDictionary
281
     1
  0
DICTIONARY
  5
1A
102
{ACAD_REACTORS
330
C
102
}
330
C
100
AcDbDictionary
281
     1
  3
Layout1
350
1E
  3
Layout2
350
26
  3
Model
350
22
  0
DICTIONARY
  5
232
102
{ACAD_REACTORS
330
C
102
}
330
C
100
AcDbDictionary
281
     1
  0
DICTIONARY
  5
17
102
{ACAD_REACTORS
330
C
102
}
330
C
100
AcDbDictionary
281
     1
  3
Standard
350
18
  0
DICTIONARY
  5
19
102
{ACAD_REACTORS
330
C
102
}
330
C
100
AcDbDictionary
281
     1
  0
ACDBDICTIONARYWDFLT
  5
E
102
{ACAD_REACTORS
330
C
102
}
330
C
100
AcDbDictionary
281
     1
  3
Normal
350
F
100
AcDbDictionaryWithDefault
340
F
  0
DICTIONARY
  5
47
102
{ACAD_REACTORS
330
C
102
}
330
C
100
AcDbDictionary
281
     1
  3
A0
350
48
  3
A1
350
49
  3
A2
350
4A
  3
A3
350
4B
  3
A4
350
4C
  3
A5
350
4D
  3
A6
350
4E
  3
A7
350
4F
  3
A8
350
50
  3
A9
350
51
  3
B0
350
52
  3
B1
350
53
  3
B2
350
54
  3
B3
350
55
  3
B4
350
56
  3
B5
350
57
  3
B6
350
58
  3
B7
350
59
  3
B8
350
5A
  3
B9
350
5B
  3
C0
350
5C
  3
C1
350
5D
  3
C2
350
5E
  3
C3
350
5F
  3
C4
350
60
  3
C5
350
61
  3
C6
350
62
  3
C7
350
63
  3
C8
350
64
  3
C9
350
65
  3
D0
350
66
  3
D1
350
67
  3
D2
350
68
  0
LAYOUT
  5
1E
102
{ACAD_REACTORS
330
1A
102
}
330
1A
100
AcDbPlotSettings
  1

  2
none_device
  4

  6

 40
0.0
 41
0.0
 42
0.0
 43
0.0
 44
0.0
 45
0.0
 46
0.0
 47
0.0
 48
0.0
 49
0.0
140
0.0
141
0.0
142
1.0
143
1.0
 70
   688
 72
     0
 73
     0
 74
     5
  7

 75
    16
147
1.0
 76
     0
 77
     2
 78
   300
148
0.0
149
0.0
100
AcDbLayout
  1
Layout1
 70
     1
 71
     1
 10
0.0
 20
0.0
 11
12.0
 21
9.0
 12
0.0
 22
0.0
 32
0.0
 14
1.000000000000000E+20
 24
1.000000000000000E+20
 34
1.000000000000000E+20
 15
-1.000000000000000E+20
 25
-1.000000000000000E+20
 35
-1.000000000000000E+20
146
0.0
 13
0.0
 23
0.0
 33
0.0
 16
1.0
 26
0.0
 36
0.0
 17
0.0
 27
1.0
 37
0.0
 76
     0
330
1B
  0
LAYOUT
  5
26
102
{ACAD_REACTORS
330
1A
102
}
330
1A
100
AcDbPlotSettings
  1

  2
none_device
  4

  6

 40
0.0
 41
0.0
 42
0.0
 43
0.0
 44
0.0
 45
0.0
 46
0.0
 47
0.0
 48
0.0
 49
0.0
140
0.0
141
0.0
142
1.0
143
1.0
 70
   688
 72
     0
 73
     0
 74
     5
  7

 75
    16
147
1.0
 76
     0
 77
     2
 78
   300
148
0.0
149
0.0
100
AcDbLayout
  1
Layout2
 70
     1
 71
     2
 10
0.0
 20
0.0
 11
0.0
 21
0.0
 12
0.0
 22
0.0
 32
0.0
 14
0.0
 24
0.0
 34
0.0
 15
0.0
 25
0.0
 35
0.0
146
0.0
 13
0.0
 23
0.0
 33
0.0
 16
1.0
 26
0.0
 36
0.0
 17
0.0
 27
1.0
 37
0.0
 76
     0
330
23
  0
LAYOUT
  5
22
102
{ACAD_REACTORS
330
1A
102
}
330
1A
100
AcDbPlotSettings
  1

  2
none_device
  4
Letter_(8.50_x_11.00_Inches)
  6

 40
6.349999999999999
 41
6.349999999999999
 42
6.350005079999999
 43
6.350005079999999
 44
215.9
 45
279.4
 46
0.0
 47
0.0
 48
0.0
 49
0.0
140
0.0
141
0.0
142
1.0
143
1.0
 70
  1712
 72
     0
 73
     0
 74
     0
  7

 75
     0
147
1.0
 76
     0
 77
     2
 78
   300
148
0.0
149
0.0
100
AcDbLayout
  1
Model
 70
     1
 71
     0
 10
0.0
 20
0.0
 11
11.0
 21
8.5
 12
0.0
 22
0.0
 32
0.0
 14
0.0
 24
0.0
 34
0.0
 15
11.0
 25
8.5
 35
0.0
146
0.0
 13
0.0
 23
0.0
 33
0.0
 16
1.0
 26
0.0
 36
0.0
 17
0.0
 27
1.0
 37
0.0
 76
     0
330
1F
  0
MLINESTYLE
  5
18
102
{ACAD_REACTORS
330
17
102
}
330
17
100
AcDbMlineStyle
  2
STANDARD
 70
     0
  3

 62
   256
 51
90.0
 52
90.0
 71
     2
 49
0.5
 62
   256
  6
BYLAYER
 49
-0.5
 62
   256
  6
BYLAYER
  0
ACDBPLACEHOLDER
  5
F
102
{ACAD_REACTORS
330
E
102
}
330
E
  0
ACAD_PROXY_OBJECT
  5
48
102
{ACAD_REACTORS
330
47
102
}
330
47
100
AcDbProxyObject
 90
      499
 91
      503
 95
   393239
 70
     0
 93
       41
310
903313A31580
 94
        0
  0
ACAD_PROXY_OBJECT
  5
49
102
{ACAD_REACTORS
330
47
102
}
330
47
100
AcDbProxyObject
 90
      499
 91
      503
 95
   393239
 70
     0
 93
      105
310
903313A324000000000000004000
 94
        0
  0
ACAD_PROXY_OBJECT
  5
4A
102
{ACAD_REACTORS
330
47
102
}
330
47
100
AcDbProxyObject
 90
      499
 91
      503
 95
   393239
 70
     0
 93
      105
310
903313A344000000000000104000
 94
        0
  0
ACAD_PROXY_OBJECT
  5
4B
102
{ACAD_REACTORS
330
47
102
}
330
47
100
AcDbProxyObject
 90
      499
 91
      503
 95
   393239
 70
     0
 93
      105
310
903313A354000000000000144000
 94
        0
  0
ACAD_PROXY_OBJECT
  5
4C
102
{ACAD_REACTORS
330
47
102
}
330
47
100
AcDbProxyObject
 90
      499
 91
      503
 95
   393239
 70
     0
 93
      105
310
903313A384000000000000204000
 94
        0
  0
ACAD_PROXY_OBJECT
  5
4D
102
{ACAD_REACTORS
330
47
102
}
330
47
100
AcDbProxyObject
 90
      499
 91
      503
 95
   393239
 70
     0
 93
      113
310
904313A31304000000000000244000
 94
        0
  0
ACAD_PROXY_OBJECT
  5
4E
102
{ACAD_REACTORS
330
47
102
}
330
47
100
AcDbProxyObject
 90
      499
 91
      503
 95
   393239
 70
     0
 93
      113
310
904313A31364000000000000304000
 94
        0
  0
ACAD_PROXY_OBJECT
  5
4F
102
{ACAD_REACTORS
330
47
102
}
330
47
100
AcDbProxyObject
 90
      499
 91
      503
 95
   393239
 70
     0
 93
      113
310
904313A32304000000000000344000
 94
        0
  0
ACAD_PROXY_OBJECT
  5
50
102
{ACAD_REACTORS
330
47
102
}
330
47
100
AcDbProxyObject
 90
      499
 91
      503
 95
   393239
 70
     0
 93
      113
310
904313A333040000000000003E4000
 94
        0
  0
ACAD_PROXY_OBJECT
  5
51
102
{ACAD_REACTORS
330
47
102
}
330
47
100
AcDbProxyObject
 90
      499
 91
      503
 95
   393239
 70
     0
 93
      113
310
904313A34304000000000000444000
 94
        0
  0
ACAD_PROXY_OBJECT
  5
52
102
{ACAD_REACTORS
330
47
102
}
330
47
100
AcDbProxyObject
 90
      499
 91
      503
 95
   393239
 70
     0
 93
      113
310
904313A35304000000000000494000
 94
        0
  0
ACAD_PROXY_OBJECT
  5
53
102
{ACAD_REACTORS
330
47
102
}
330
47
100
AcDbProxyObject
 90
      499
 91
      503
 95
   393239
 70
     0
 93
      121
310
905313A3130304000000000000594000
 94
        0
  0
ACAD_PROXY_OBJECT
  5
54
102
{ACAD_REACTORS
330
47
102
}
330
47
100
AcDbProxyObject
 90
      499
 91
      503
 95
   393239
 70
     0
 93
      105
310
903323A310000000000000010140
 94
        0
  0
ACAD_PROXY_OBJECT
  5
55
102
{ACAD_REACTORS
330
47
102
}
330
47
100
AcDbProxyObject
 90
      499
 91
      503
 95
   393239
 70
     0
 93
      105
310
903343A310000000000000410159
 94
        0
  0
ACAD_PROXY_OBJECT
  5
56
102
{ACAD_REACTORS
330
47
102
}
330
47
100
AcDbProxyObject
 90
      499
 91
      503
 95
   393239
 70
     0
 93
      105
310
903383A310000000000000810140
 94
        0
  0
ACAD_PROXY_OBJECT
  5
57
102
{ACAD_REACTORS
330
47
102
}
330
47
100
AcDbProxyObject
 90
      499
 91
      503
 95
   393239
 70
     0
 93
      113
310
90431303A310000000000000910140
 94
        0
  0
ACAD_PROXY_OBJECT
  5
58
102
{ACAD_REACTORS
330
47
102
}
330
47
100
AcDbProxyObject
 90
      499
 91
      503
 95
   393239
 70
     0
 93
      121
310
9053130303A310000000000001650100
 94
        0
  0
ACAD_PROXY_OBJECT
  5
59
102
{ACAD_REACTORS
330
47
102
}
330
47
100
AcDbProxyObject
 90
      499
 91
      503
 95
   393239
 70
     0
 93
      257
310
90E312F31323822203D2031272D3022000000000000200FC000000000000284000
 94
        0
  0
ACAD_PROXY_OBJECT
  5
5A
102
{ACAD_REACTORS
330
47
102
}
330
47
100
AcDbProxyObject
 90
      499
 91
      503
 95
   393239
 70
     0
 93
      249
310
90D312F363422203D2031272D3022000000000000240FC000000000000284000
 94
        0
  0
ACAD_PROXY_OBJECT
  5
5B
102
{ACAD_REACTORS
330
47
102
}
330
47
100
AcDbProxyObject
 90
      499
 91
      503
 95
   393239
 70
     0
 93
      249
310
90D312F333222203D2031272D3022000000000000280FC000000000000284040
 94
        0
  0
ACAD_PROXY_OBJECT
  5
5C
102
{ACAD_REACTORS
330
47
102
}
330
47
100
AcDbProxyObject
 90
      499
 91
      503
 95
   393239
 70
     0
 93
      249
310
90D312F313622203D2031272D30220000000000002C0FC000000000000284000
 94
        0
  0
ACAD_PROXY_OBJECT
  5
5D
102
{ACAD_REACTORS
330
47
102
}
330
47
100
AcDbProxyObject
 90
      499
 91
      503
 95
   393239
 70
     0
 93
      249
310
90D332F333222203D2031272D30220000000000002E0FC000000000000284040
 94
        0
  0
ACAD_PROXY_OBJECT
  5
5E
102
{ACAD_REACTORS
330
47
102
}
330
47
100
AcDbProxyObject
 90
      499
 91
      503
 95
   393239
 70
     0
 93
      241
310
90C312F3822203D2031272D3022000000000000300FC000000000000284040
 94
        0
  0
ACAD_PROXY_OBJECT
  5
5F
102
{ACAD_REACTORS
330
47
102
}
330
47
100
AcDbProxyObject
 90
      499
 91
      503
 95
   393239
 70
     0
 93
      249
310
90D332F313622203D2031272D3022000000000000320FC000000000000284040
 94
        0
  0
ACAD_PROXY_OBJECT
  5
60
102
{ACAD_REACTORS
330
47
102
}
330
47
100
AcDbProxyObject
 90
      499
 91
      503
 95
   393239
 70
     0
 93
      241
310
90C312F3422203D2031272D3022000000000000340FC000000000000284040
 94
        0
  0
ACAD_PROXY_OBJECT
  5
61
102
{ACAD_REACTORS
330
47
102
}
330
47
100
AcDbProxyObject
 90
      499
 91
      503
 95
   393239
 70
     0
 93
      241
310
90C332F3822203D2031272D3022000000000000360FC000000000000284040
 94
        0
  0
ACAD_PROXY_OBJECT
  5
62
102
{ACAD_REACTORS
330
47
102
}
330
47
100
AcDbProxyObject
 90
      499
 91
      503
 95
   393239
 70
     0
 93
      241
310
90C312F3222203D2031272D3022000000000000380FC000000000000284040
 94
        0
  0
ACAD_PROXY_OBJECT
  5
63
102
{ACAD_REACTORS
330
47
102
}
330
47
100
AcDbProxyObject
 90
      499
 91
      503
 95
   393239
 70
     0
 93
      241
310
90C332F3422203D2031272D30220000000000003A0FC000000000000284040
 94
        0
  0
ACAD_PROXY_OBJECT
  5
64
102
{ACAD_REACTORS
330
47
102
}
330
47
100
AcDbProxyObject
 90
      499
 91
      503
 95
   393239
 70
     0
 93
      161
310
90A3122203D2031272D30224000000000000284000
 94
        0
  0
ACAD_PROXY_OBJECT
  5
65
102
{ACAD_REACTORS
330
47
102
}
330
47
100
AcDbProxyObject
 90
      499
 91
      503
 95
   393239
 70
     0
 93
      257
310
90E312D312F3222203D2031272D30220000000000003E0FC000000000000284000
 94
        0
  0
ACAD_PROXY_OBJECT
  5
66
102
{ACAD_REACTORS
330
47
102
}
330
47
100
AcDbProxyObject
 90
      499
 91
      503
 95
   393239
 70
     0
 93
      225
310
90A3322203D2031272D302200000000000002100000000000000284028
 94
        0
  0
ACAD_PROXY_OBJECT
  5
67
102
{ACAD_REACTORS
330
47
102
}
330
47
100
AcDbProxyObject
 90
      499
 91
      503
 95
   393239
 70
     0
 93
      225
310
90A3622203D2031272D302200000000000006100000000000000284000
 94
        0
  0
ACAD_PROXY_OBJECT
  5
68
102
{ACAD_REACTORS
330
47
102
}
330
47
100
AcDbProxyObject
 90
      499
 91
      503
 95
   393239
 70
     0
 93
      249
310
90D31272D3022203D2031272D30220000000000000A100000000000000284000
 94
        0
  0
ENDSEC
  0
EOF
