  0
SECTION
  2
HEADER
  9
$ACADVER
  1
AC1018
  9
$ACADMAINTVER
 70
     0
  9
$DWGCODEPAGE
  3
ANSI_1252
  9
$INSBASE
 10
0.0
 20
0.0
 30
0.0
  9
$EXTMIN
 10
-11.80954741143969
 20
-7.907557237829805
 30
0.0
  9
$EXTMAX
 10
20.90601457449424
 20
21.05702438254462
 30
0.0
  9
$LIMMIN
 10
-100.0
 20
-100.0
  9
$LIMMAX
 10
100.0
 20
100.0
  9
$ORTHOMODE
 70
     0
  9
$REGENMODE
 70
     1
  9
$FILLMODE
 70
     1
  9
$QTEXTMODE
 70
     0
  9
$MIRRTEXT
 70
     1
  9
$LTSCALE
 40
1.0
  9
$ATTMODE
 70
     1
  9
$TEXTSIZE
 40
0.1377952755905512
  9
$TRACEWID
 40
0.05
  9
$TEXTSTYLE
  7
Standard
  9
$CLAYER
  8
0
  9
$CELTYPE
  6
ByLayer
  9
$CECOLOR
 62
   256
  9
$CELTSCALE
 40
1.0
  9
$DISPSILH
 70
     0
  9
$DIMSCALE
 40
1.0
  9
$DIMASZ
 40
0.13
  9
$DIMEXO
 40
0.0393700787401575
  9
$DIMDLI
 40
0.38
  9
$DIMRND
 40
0.0
  9
$DIMDLE
 40
0.0
  9
$DIMEXE
 40
0.0393700787401575
  9
$DIMTP
 40
0.0
  9
$DIMTM
 40
0.0
  9
$DIMTXT
 40
0.1377952755905512
  9
$DIMCEN
 40
0.09
  9
$DIMTSZ
 40
0.0
  9
$DIMTOL
 70
     0
  9
$DIMLIM
 70
     0
  9
$DIMTIH
 70
     1
  9
$DIMTOH
 70
     1
  9
$DIMSE1
 70
     0
  9
$DIMSE2
 70
     0
  9
$DIMTAD
 70
     1
  9
$DIMZIN
 70
     0
  9
$DIMBLK
  1

  9
$DIMASO
 70
     1
  9
$DIMSHO
 70
     1
  9
$DIMPOST
  1

  9
$DIMAPOST
  1

  9
$DIMALT
 70
     0
  9
$DIMALTD
 70
     2
  9
$DIMALTF
 40
25.4
  9
$DIMLFAC
 40
1.0
  9
$DIMTOFL
 70
     0
  9
$DIMTVP
 40
0.0
  9
$DIMTIX
 70
     0
  9
$DIMSOXD
 70
     0
  9
$DIMSAH
 70
     0
  9
$DIMBLK1
  1

  9
$DIMBLK2
  1

  9
$DIMSTYLE
  2
Standard
  9
$DIMCLRD
 70
     0
  9
$DIMCLRE
 70
     0
  9
$DIMCLRT
 70
     0
  9
$DIMTFAC
 40
1.0
  9
$DIMGAP
 40
0.06
  9
$DIMJUST
 70
     0
  9
$DIMSD1
 70
     0
  9
$DIMSD2
 70
     0
  9
$DIMTOLJ
 70
     1
  9
$DIMTZIN
 70
     0
  9
$DIMALTZ
 70
     0
  9
$DIMALTTZ
 70
     0
  9
$DIMUPT
 70
     0
  9
$DIMDEC
 70
     2
  9
$DIMTDEC
 70
     2
  9
$DIMALTU
 70
     2
  9
$DIMALTTD
 70
     2
  9
$DIMTXSTY
  7
Standard
  9
$DIMAUNIT
 70
     0
  9
$DIMADEC
 70
     2
  9
$DIMALTRND
 40
0.0
  9
$DIMAZIN
 70
     0
  9
$DIMDSEP
 70
    46
  9
$DIMATFIT
 70
     3
  9
$DIMFRAC
 70
     0
  9
$DIMLDRBLK
  1

  9
$DIMLUNIT
 70
     2
  9
$DIMLWD
 70
    -2
  9
$DIMLWE
 70
    -2
  9
$DIMTMOVE
 70
     0
  9
$LUNITS
 70
     2
  9
$LUPREC
 70
     2
  9
$SKETCHINC
 40
0.1
  9
$FILLETRAD
 40
0.5
  9
$AUNITS
 70
     0
  9
$AUPREC
 70
     2
  9
$MENU
  1
.
  9
$ELEVATION
 40
0.0
  9
$PELEVATION
 40
0.0
  9
$THICKNESS
 40
0.0
  9
$LIMCHECK
 70
     0
  9
$CHAMFERA
 40
0.0
  9
$CHAMFERB
 40
0.0
  9
$CHAMFERC
 40
0.0
  9
$CHAMFERD
 40
0.0
  9
$SKPOLY
 70
     0
  9
$TDCREATE
 40
2457060.552704630
  9
$TDUCREATE
 40
2457060.802704630
  9
$TDUPDATE
 40
2457064.334193229
  9
$TDUUPDATE
 40
2457064.584193229
  9
$TDINDWG
 40
0.0003550579
  9
$TDUSRTIMER
 40
0.0003550579
  9
$USRTIMER
 70
     1
  9
$ANGBASE
 50
0.0
  9
$ANGDIR
 70
     0
  9
$PDMODE
 70
     0
  9
$PDSIZE
 40
-1.0
  9
$PLINEWID
 40
0.0
  9
$SPLFRAME
 70
     0
  9
$SPLINETYPE
 70
     6
  9
$SPLINESEGS
 70
     8
  9
$HANDSEED
  5
138
  9
$SURFTAB1
 70
     6
  9
$SURFTAB2
 70
     6
  9
$SURFTYPE
 70
     6
  9
$SURFU
 70
     6
  9
$SURFV
 70
     6
  9
$UCSBASE
  2

  9
$UCSNAME
  2

  9
$UCSORG
 10
0.0
 20
0.0
 30
0.0
  9
$UCSXDIR
 10
1.0
 20
0.0
 30
0.0
  9
$UCSYDIR
 10
0.0
 20
1.0
 30
0.0
  9
$UCSORTHOREF
  2

  9
$UCSORTHOVIEW
 70
     0
  9
$UCSORGTOP
 10
0.0
 20
0.0
 30
0.0
  9
$UCSORGBOTTOM
 10
0.0
 20
0.0
 30
0.0
  9
$UCSORGLEFT
 10
0.0
 20
0.0
 30
0.0
  9
$UCSORGRIGHT
 10
0.0
 20
0.0
 30
0.0
  9
$UCSORGFRONT
 10
0.0
 20
0.0
 30
0.0
  9
$UCSORGBACK
 10
0.0
 20
0.0
 30
0.0
  9
$PUCSBASE
  2

  9
$PUCSNAME
  2

  9
$PUCSORG
 10
0.0
 20
0.0
 30
0.0
  9
$PUCSXDIR
 10
1.0
 20
0.0
 30
0.0
  9
$PUCSYDIR
 10
0.0
 20
1.0
 30
0.0
  9
$PUCSORTHOREF
  2

  9
$PUCSORTHOVIEW
 70
     0
  9
$PUCSORGTOP
 10
0.0
 20
0.0
 30
0.0
  9
$PUCSORGBOTTOM
 10
0.0
 20
0.0
 30
0.0
  9
$PUCSORGLEFT
 10
0.0
 20
0.0
 30
0.0
  9
$PUCSORGRIGHT
 10
0.0
 20
0.0
 30
0.0
  9
$PUCSORGFRONT
 10
0.0
 20
0.0
 30
0.0
  9
$PUCSORGBACK
 10
0.0
 20
0.0
 30
0.0
  9
$USERI1
 70
     0
  9
$USERI2
 70
     0
  9
$USERI3
 70
     0
  9
$USERI4
 70
     0
  9
$USERI5
 70
     0
  9
$USERR1
 40
0.0
  9
$USERR2
 40
0.0
  9
$USERR3
 40
0.0
  9
$USERR4
 40
0.0
  9
$USERR5
 40
0.0
  9
$WORLDVIEW
 70
     1
  9
$SHADEDGE
 70
     3
  9
$SHADEDIF
 70
    70
  9
$TILEMODE
 70
     1
  9
$MAXACTVP
 70
    64
  9
$PINSBASE
 10
0.0
 20
0.0
 30
0.0
  9
$PLIMCHECK
 70
     0
  9
$PEXTMIN
 10
1.000000000000000E+20
 20
1.000000000000000E+20
 30
1.000000000000000E+20
  9
$PEXTMAX
 10
-1.000000000000000E+20
 20
-1.000000000000000E+20
 30
-1.000000000000000E+20
  9
$PLIMMIN
 10
0.0
 20
0.0
  9
$PLIMMAX
 10
12.0
 20
9.0
  9
$UNITMODE
 70
     0
  9
$VISRETAIN
 70
     1
  9
$PLINEGEN
 70
     0
  9
$PSLTSCALE
 70
     1
  9
$TREEDEPTH
 70
  3020
  9
$CMLSTYLE
  2
Standard
  9
$CMLJUST
 70
     0
  9
$CMLSCALE
 40
1.0
  9
$PROXYGRAPHICS
 70
     1
  9
$MEASUREMENT
 70
     0
  9
$CELWEIGHT
370
    -1
  9
$ENDCAPS
280
     0
  9
$JOINSTYLE
280
     0
  9
$LWDISPLAY
290
     1
  9
$INSUNITS
 70
     1
  9
$HYPERLINKBASE
  1

  9
$STYLESHEET
  1

  9
$XEDIT
290
     1
  9
$CEPSNTYPE
380
     0
  9
$PSTYLEMODE
290
     1
  9
$FINGERPRINTGUID
  2
{8577B869-31A3-43C7-B612-1C1070999A03}
  9
$VERSIONGUID
  2
{75C25A17-AE07-4D6A-A1AD-E0D5DE9878B3}
  9
$EXTNAMES
290
     1
  9
$PSVPSCALE
 40
0.0
  9
$OLESTARTUP
290
     0
  9
$SORTENTS
280
   127
  9
$INDEXCTL
280
     0
  9
$HIDETEXT
280
     0
  9
$XCLIPFRAME
290
     0
  9
$HALOGAP
280
     0
  9
$OBSCOLOR
 70
   257
  9
$OBSLTYPE
280
     0
  9
$INTERSECTIONDISPLAY
280
     0
  9
$INTERSECTIONCOLOR
 70
   257
  9
$DIMASSOC
280
     1
  9
$PROJECTNAME
  1

  0
ENDSEC
  0
SECTION
  2
CLASSES
  0
CLASS
  1
ACDBDICTIONARYWDFLT
  2
AcDbDictionaryWithDefault
  3
ObjectDBX Classes
 90
        0
 91
        1
280
     0
281
     0
  0
CLASS
  1
VISUALSTYLE
  2
AcDbVisualStyle
  3
ObjectDBX Classes
 90
     4095
 91
        0
280
     0
281
     0
  0
CLASS
  1
MATERIAL
  2
AcDbMaterial
  3
ObjectDBX Classes
 90
        0
 91
        0
280
     0
281
     0
  0
CLASS
  1
SCALE
  2
AcDbScale
  3
ObjectDBX Classes
 90
     1153
 91
       33
280
     0
281
     0
  0
CLASS
  1
SUN
  2
AcDbSun
  3
SCENEOE
 90
     1153
 91
        1
280
     0
281
     0
  0
CLASS
  1
ACDBPLACEHOLDER
  2
AcDbPlaceHolder
  3
ObjectDBX Classes
 90
        0
 91
        1
280
     0
281
     0
  0
CLASS
  1
LAYOUT
  2
AcDbLayout
  3
ObjectDBX Classes
 90
        0
 91
        3
280
     0
281
     0
  0
ENDSEC
  0
SECTION
  2
TABLES
  0
TABLE
  2
VPORT
  5
8
330
0
100
AcDbSymbolTable
 70
     3
  0
VPORT
  5
137
330
8
100
AcDbSymbolTableRecord
100
AcDbViewportTableRecord
  2
*Active
 70
     0
 10
0.0
 20
0.0
 11
1.0
 21
1.0
 12
5.288945638104323
 22
5.716706707906265
 13
0.0
 23
0.0
 14
0.5
 24
0.5
 15
0.5
 25
0.5
 16
0.0
 26
0.0
 36
1.0
 17
0.0
 27
0.0
 37
0.0
 40
38.96336296542378
 41
2.240490797546012
 42
50.0
 43
0.0
 44
0.0
 50
0.0
 51
0.0
 71
     0
 72
  2000
 73
     1
 74
     3
 75
     0
 76
     0
 77
     0
 78
     0
281
     0
 65
     1
110
0.0
120
0.0
130
0.0
111
1.0
121
0.0
131
0.0
112
0.0
122
1.0
132
0.0
 79
     0
146
0.0
  0
ENDTAB
  0
TABLE
  2
LTYPE
  5
5
330
0
100
AcDbSymbolTable
 70
     6
  0
LTYPE
  5
14
330
5
100
AcDbSymbolTableRecord
100
AcDbLinetypeTableRecord
  2
ByBlock
 70
     0
  3

 72
    65
 73
     0
 40
0.0
  0
LTYPE
  5
15
330
5
100
AcDbSymbolTableRecord
100
AcDbLinetypeTableRecord
  2
ByLayer
 70
     0
  3

 72
    65
 73
     0
 40
0.0
  0
LTYPE
  5
16
330
5
100
AcDbSymbolTableRecord
100
AcDbLinetypeTableRecord
  2
Continuous
 70
     0
  3
Solid line
 72
    65
 73
     0
 40
0.0
  0
LTYPE
  5
6A
330
5
100
AcDbSymbolTableRecord
100
AcDbLinetypeTableRecord
  2
HIDDEN
 70
     0
  3
Hidden __ __ __ __ __ __ __ __ __ __ __ __ __ __
 72
    65
 73
     2
 40
0.075
 49
0.05
 74
     0
 49
-0.025
 74
     0
  0
LTYPE
  5
6B
330
5
100
AcDbSymbolTableRecord
100
AcDbLinetypeTableRecord
  2
PHANTOM
 70
     0
  3
Phantom ______  __  __  ______  __  __  ______
 72
    65
 73
     6
 40
0.5
 49
0.25
 74
     0
 49
-0.05
 74
     0
 49
0.05
 74
     0
 49
-0.05
 74
     0
 49
0.05
 74
     0
 49
-0.05
 74
     0
  0
LTYPE
  5
6C
330
5
100
AcDbSymbolTableRecord
100
AcDbLinetypeTableRecord
  2
CENTER
 70
     0
  3
Center ____ _ ____ _ ____ _ ____ _ ____ _ ____
 72
    65
 73
     4
 40
0.4
 49
0.25
 74
     0
 49
-0.05
 74
     0
 49
0.05
 74
     0
 49
-0.05
 74
     0
  0
LTYPE
  5
6D
330
5
100
AcDbSymbolTableRecord
100
AcDbLinetypeTableRecord
  2
CENTERX2
 70
     0
  3
Center (2x) ________  __  ________  __  _____
 72
    65
 73
     4
 40
0.8
 49
0.5
 74
     0
 49
-0.1
 74
     0
 49
0.1
 74
     0
 49
-0.1
 74
     0
  0
LTYPE
  5
6E
330
5
100
AcDbSymbolTableRecord
100
AcDbLinetypeTableRecord
  2
DOT2
 70
     0
  3
Dot (.5x) ........................................
 72
    65
 73
     2
 40
0.025
 49
0.0
 74
     0
 49
-0.025
 74
     0
  0
ENDTAB
  0
TABLE
  2
LAYER
  5
2
330
0
100
AcDbSymbolTable
 70
     1
  0
LAYER
  5
10
330
2
100
AcDbSymbolTableRecord
100
AcDbLayerTableRecord
  2
0
 70
     0
 62
     7
  6
Continuous
370
    -3
390
F
  0
ENDTAB
  0
TABLE
  2
STYLE
  5
3
330
0
100
AcDbSymbolTable
 70
     1
  0
STYLE
  5
11
330
3
100
AcDbSymbolTableRecord
100
AcDbTextStyleTableRecord
  2
Standard
 70
     0
 40
0.0
 41
1.0
 50
0.0
 71
     0
 42
0.1377952755905512
  3
txt
  4

  0
ENDTAB
  0
TABLE
  2
VIEW
  5
6
330
0
100
AcDbSymbolTable
 70
     0
  0
ENDTAB
  0
TABLE
  2
UCS
  5
7
330
0
100
AcDbSymbolTable
 70
     0
  0
ENDTAB
  0
TABLE
  2
APPID
  5
9
330
0
100
AcDbSymbolTable
 70
     1
  0
APPID
  5
12
330
9
100
AcDbSymbolTableRecord
100
AcDbRegAppTableRecord
  2
ACAD
 70
     0
  0
ENDTAB
  0
TABLE
  2
DIMSTYLE
  5
A
330
0
100
AcDbSymbolTable
 70
     1
100
AcDbDimStyleTable
 71
     0
  0
DIMSTYLE
105
27
330
A
100
AcDbSymbolTableRecord
100
AcDbDimStyleTableRecord
  2
Standard
 70
     0
340
11
  0
ENDTAB
  0
TABLE
  2
BLOCK_RECORD
  5
1
330
0
100
AcDbSymbolTable
 70
     1
  0
BLOCK_RECORD
  5
1F
330
1
100
AcDbSymbolTableRecord
100
AcDbBlockTableRecord
  2
*Model_Space
340
22
  0
BLOCK_RECORD
  5
1B
330
1
100
AcDbSymbolTableRecord
100
AcDbBlockTableRecord
  2
*Paper_Space
340
1E
  0
BLOCK_RECORD
  5
23
330
1
100
AcDbSymbolTableRecord
100
AcDbBlockTableRecord
  2
*Paper_Space0
340
26
  0
ENDTAB
  0
ENDSEC
  0
SECTION
  2
BLOCKS
  0
BLOCK
  5
20
330
1F
100
AcDbEntity
  8
0
100
AcDbBlockBegin
  2
*Model_Space
 70
     0
 10
0.0
 20
0.0
 30
0.0
  3
*Model_Space
  1

  0
ENDBLK
  5
21
330
1F
100
AcDbEntity
  8
0
100
AcDbBlockEnd
  0
BLOCK
  5
1C
330
1B
100
AcDbEntity
 67
     1
  8
0
100
AcDbBlockBegin
  2
*Paper_Space
 70
     0
 10
0.0
 20
0.0
 30
0.0
  3
*Paper_Space
  1

  0
ENDBLK
  5
1D
330
1B
100
AcDbEntity
 67
     1
  8
0
100
AcDbBlockEnd
  0
BLOCK
  5
24
330
23
100
AcDbEntity
  8
0
100
AcDbBlockBegin
  2
*Paper_Space0
 70
     0
 10
0.0
 20
0.0
 30
0.0
  3
*Paper_Space0
  1

  0
ENDBLK
  5
25
330
23
100
AcDbEntity
  8
0
100
AcDbBlockEnd
  0
ENDSEC
  0
SECTION
  2
ENTITIES
  0
LINE
  5
6F
330
1F
100
AcDbEntity
  8
0
  6
Continuous
 62
     7
370
     5
100
AcDbLine
 10
10.87711371101491
 20
20.68330938824258
 30
0.0
 11
9.550486382389882
 21
21.04385826997773
 31
0.0
  0
LINE
  5
70
330
1F
100
AcDbEntity
  8
0
  6
Continuous
 62
     7
370
     5
100
AcDbLine
 10
4.028359350094524
 20
-7.538169439829805
 30
0.0
 11
5.354986678719559
 21
-7.898718321564953
 31
0.0
  0
LINE
  5
71
330
1F
100
AcDbEntity
  8
0
  6
Continuous
 62
     7
370
     5
100
AcDbLine
 10
-11.80954741143969
 20
12.76380866813306
 30
0.0
 11
-11.80954741143969
 21
11.4780577011893
 31
0.0
  0
LINE
  5
72
330
1F
100
AcDbEntity
  8
0
  6
Continuous
 62
     7
370
     5
100
AcDbLine
 10
-11.80954741143969
 20
11.4780577011893
 30
0.0
 11
-11.80954741143969
 21
10.19230673424554
 31
0.0
  0
LINE
  5
73
330
1F
100
AcDbEntity
  8
0
  6
Continuous
 62
     7
370
     5
100
AcDbLine
 10
5.056300819353872
 20
8.997534902743357
 30
0.0
 11
5.056300819353872
 21
7.648867519856415
 31
0.0
  0
LINE
  5
74
330
1F
100
AcDbEntity
  8
0
  6
Continuous
 62
     7
370
     5
100
AcDbLine
 10
5.056300819353872
 20
5.122856952011852
 30
0.0
 11
5.056300819353872
 21
3.777707491663319
 31
0.0
  0
LINE
  5
75
330
1F
100
AcDbEntity
  8
0
  6
Continuous
 62
     7
370
     5
100
AcDbLine
 10
7.666130801807281
 20
10.22919858971285
 30
0.0
 11
11.65076324283507
 21
16.07930013168372
 31
0.0
  0
LINE
  5
76
330
1F
100
AcDbEntity
  8
0
  6
Continuous
 62
     7
370
     5
100
AcDbLine
 10
7.666130801807281
 20
10.22919858971285
 30
0.0
 11
5.712778460752439
 21
8.322666822059085
 31
0.0
  0
LINE
  5
77
330
1F
100
AcDbEntity
  8
0
  6
Continuous
 62
     7
370
     5
100
AcDbLine
 10
5.52774416508375
 20
8.142067676997886
 30
0.0
 11
5.416427810762562
 21
8.03341950261981
 31
0.0
  0
LINE
  5
78
330
1F
100
AcDbEntity
  8
0
  6
Continuous
 62
     7
370
     5
100
AcDbLine
 10
5.056301956487912
 20
7.681925628679334
 30
0.0
 11
5.053534472356559
 21
7.679224479325986
 31
0.0
  0
LINE
  5
79
330
1F
100
AcDbEntity
  8
0
  6
Continuous
 62
     7
370
     5
100
AcDbLine
 10
5.053534472356559
 20
7.679224479325986
 30
0.0
 11
5.053534472356559
 21
6.393473512382227
 31
0.0
  0
LINE
  5
7A
330
1F
100
AcDbEntity
  8
0
  6
Continuous
 62
     7
370
     5
100
AcDbLine
 10
0.4801256688999662
 20
-0.3210496733824012
 30
0.0
 11
5.053534472356559
 21
6.393473512382227
 31
0.0
  0
SPLINE
  5
7B
330
1F
100
AcDbEntity
  8
0
  6
Continuous
 62
     7
370
     5
100
AcDbSpline
210
0.0
220
0.0
230
1.0
 70
     8
 71
     3
 72
    36
 73
    32
 74
     0
 42
0.0000000001
 43
0.0000000001
 40
0.0
 40
0.0
 40
0.0
 40
0.0
 40
0.039610630132878
 40
0.0755382003719138
 40
0.1085773787650203
 40
0.1395269761773712
 40
0.1691448795252114
 40
0.1980968112419058
 40
0.2326910446055888
 40
0.2677217816333639
 40
0.303522629336172
 40
0.3401792806395731
 40
0.3775907874557502
 40
0.4307760352605174
 40
0.4840874066628176
 40
0.5364984320592834
 40
0.5870175823752673
 40
0.6174512381123222
 40
0.6467283063073226
 40
0.6748611616090134
 40
0.7020211971169075
 40
0.7285873275943715
 40
0.7537598658411132
 40
0.779677877307628
 40
0.8072038215874291
 40
0.8372609413154869
 40
0.8637481920135668
 40
0.8928749998983239
 40
0.9250474686372863
 40
0.9606403556455015
 40
1.0
 40
1.0
 40
1.0
 40
1.0
 10
0.4801256688999662
 20
-0.3210496733824012
 30
0.0
 10
0.5139992638650916
 20
-0.2106290549028113
 30
0.0
 10
0.5785968326290645
 20
-0.0000549040771159
 30
0.0
 10
0.6540602240445638
 20
0.3085580329063984
 30
0.0
 10
0.7081899497453677
 20
0.5916733468957828
 30
0.0
 10
0.7416603997156474
 20
0.8513561663112188
 30
0.0
 10
0.756363932945331
 20
1.088950544634966
 30
0.0
 10
0.7538923893256236
 20
1.320427613031056
 30
0.0
 10
0.7323254868516824
 20
1.543854714228667
 30
0.0
 10
0.6908566201738778
 20
1.756721687315932
 30
0.0
 10
0.6339658398787153
 20
1.949606627987475
 30
0.0
 10
0.5646890739696535
 20
2.126109613571268
 30
0.0
 10
0.4752648693243166
 20
2.311969929360785
 30
0.0
 10
0.365827951783263
 20
2.504292352834029
 30
0.0
 10
0.2405230803677251
 20
2.706485281812775
 30
0.0
 10
0.1183534257640454
 20
2.907644613229752
 30
0.0
 10
0.0198947467901015
 20
3.09247739643849
 30
0.0
 10
-0.0530949835763003
 20
3.262632650499092
 30
0.0
 10
-0.1039055219408671
 20
3.412430416301281
 30
0.0
 10
-0.1431150821278071
 20
3.57365912459107
 30
0.0
 10
-0.1686056295774559
 20
3.748881780939334
 30
0.0
 10
-0.1779489760929409
 20
3.937348254452055
 30
0.0
 10
-0.1699399860543864
 20
4.139904178668012
 30
0.0
 10
-0.1437756557193073
 20
4.357303605945353
 30
0.0
 10
-0.0976021915641126
 20
4.594483109413152
 30
0.0
 10
-0.0351216649930901
 20
4.832852063042645
 30
0.0
 10
0.0400858775395072
 20
5.070797939920501
 30
0.0
 10
0.1257224652914777
 20
5.308344084765629
 30
0.0
 10
0.2277538212775358
 20
5.562296264058208
 30
0.0
 10
0.3467440086727076
 20
5.834349068571509
 30
0.0
 10
0.4342000736865168
 20
6.01681695709035
 30
0.0
 10
0.4801256688999662
 20
6.112635884985698
 30
0.0
  0
LINE
  5
7C
330
1F
100
AcDbEntity
  8
0
  6
Continuous
 62
     7
370
     5
100
AcDbLine
 10
10.27067656701202
 20
20.4867892978283
 30
0.0
 11
0.4801256688999662
 21
6.112635884985698
 31
0.0
  0
SPLINE
  5
7D
330
1F
100
AcDbEntity
  8
0
  6
Continuous
 62
     7
370
     5
100
AcDbSpline
210
0.0
220
0.0
230
1.0
 70
     8
 71
     3
 72
    31
 73
    27
 74
     0
 42
0.0000000001
 43
0.0000000001
 40
0.0
 40
0.0
 40
0.0
 40
0.0
 40
0.0436137268628175
 40
0.0832279138258611
 40
0.1193621272668501
 40
0.1525694615456875
 40
0.1834288680395117
 40
0.2125287526147116
 40
0.2404415469163783
 40
0.2676935147401765
 40
0.304045426652604
 40
0.3408484267980404
 40
0.378624701608089
 40
0.4176220055625681
 40
0.4578741290597074
 40
0.512267650527909
 40
0.5680837838529776
 40
0.6246562115521379
 40
0.6787244849417134
 40
0.7323133264281364
 40
0.7850486020919178
 40
0.8368277073867428
 40
0.8770292049485052
 40
0.9171875451869395
 40
0.9579018374312258
 40
1.0
 40
1.0
 40
1.0
 40
1.0
 10
10.27067656701202
 20
20.4867892978283
 30
0.0
 10
10.32488234382008
 20
20.52218618209838
 30
0.0
 10
10.42832302742033
 20
20.58973392556457
 30
0.0
 10
10.57355493953542
 20
20.65687349260356
 30
0.0
 10
10.70231425274895
 20
20.69330317751586
 30
0.0
 10
10.81543137136895
 20
20.69909128683678
 30
0.0
 10
10.91385765016797
 20
20.67631496417289
 30
0.0
 10
10.99848879300572
 20
20.62664076006426
 30
0.0
 10
11.07023726769012
 20
20.55193640781332
 30
0.0
 10
11.13683225206543
 20
20.44314261733219
 30
0.0
 10
11.19489675554066
 20
20.29206187861465
 30
0.0
 10
11.24102022960671
 20
20.09374845995549
 30
0.0
 10
11.27247314621052
 20
19.86729286061073
 30
0.0
 10
11.29186928678072
 20
19.61720052732299
 30
0.0
 10
11.30278737981055
 20
19.31874529253255
 30
0.0
 10
11.30475556049852
 20
18.97198683580497
 30
0.0
 10
11.30022786340248
 20
18.58127857631851
 30
0.0
 10
11.29446544080596
 20
18.19018364518452
 30
0.0
 10
11.29260094283006
 20
17.80787320309436
 30
0.0
 10
11.29911689674142
 20
17.44268699479566
 30
0.0
 10
11.31871645902823
 20
17.0969478357329
 30
0.0
 10
11.35371151437648
 20
16.80138665292626
 30
0.0
 10
11.40350175135445
 20
16.55717522924486
 30
0.0
 10
11.46599785859393
 20
16.36168120535636
 30
0.0
 10
11.54647835746894
 20
16.19509311115049
 30
0.0
 10
11.61561649430697
 20
16.11832541052782
 30
0.0
 10
11.65076324283507
 20
16.07930013168372
 30
0.0
  0
SPLINE
  5
7E
330
1F
100
AcDbEntity
  8
0
  6
Continuous
 62
     7
370
     5
100
AcDbSpline
210
0.0
220
0.0
230
1.0
 70
     8
 71
     3
 72
    36
 73
    32
 74
     0
 42
0.0000000001
 43
0.0000000001
 40
0.0
 40
0.0
 40
0.0
 40
0.0
 40
0.039610630132878
 40
0.0755382003719138
 40
0.1085773787650203
 40
0.1395269761773712
 40
0.1691448795252114
 40
0.1980968112419058
 40
0.2326910446055888
 40
0.2677217816333639
 40
0.303522629336172
 40
0.3401792806395731
 40
0.3775907874557502
 40
0.4307760352605174
 40
0.4840874066628176
 40
0.5364984320592834
 40
0.5870175823752673
 40
0.6174512381123222
 40
0.6467283063073226
 40
0.6748611616090134
 40
0.7020211971169075
 40
0.7285873275943715
 40
0.7537598658411132
 40
0.779677877307628
 40
0.8072038215874291
 40
0.8372609413154869
 40
0.8637481920135668
 40
0.8928749998983239
 40
0.9250474686372863
 40
0.9606403556455015
 40
1.0
 40
1.0
 40
1.0
 40
1.0
 10
-0.8465016597250672
 20
0.0394992083527508
 30
0.0
 10
-0.8126280647599417
 20
0.1499198268323385
 30
0.0
 10
-0.7480304959959733
 20
0.3604939776580362
 30
0.0
 10
-0.6725671045804739
 20
0.6691069146415504
 30
0.0
 10
-0.6184373788796701
 20
0.9522222286309347
 30
0.0
 10
-0.5849669289093729
 20
1.211905048046366
 30
0.0
 10
-0.5702633956797069
 20
1.449499426370118
 30
0.0
 10
-0.5727349392994187
 20
1.680976494766208
 30
0.0
 10
-0.5943018417733467
 20
1.904403595963815
 30
0.0
 10
-0.6357707084511644
 20
2.117270569051084
 30
0.0
 10
-0.6926614887463138
 20
2.310155509722623
 30
0.0
 10
-0.7619382546553887
 20
2.486658495306423
 30
0.0
 10
-0.8513624593007079
 20
2.672518811095932
 30
0.0
 10
-0.960799376841779
 20
2.864841234569183
 30
0.0
 10
-1.086104248257312
 20
3.067034163547925
 30
0.0
 10
-1.208273902860983
 20
3.268193494964902
 30
0.0
 10
-1.306732581834927
 20
3.453026278173642
 30
0.0
 10
-1.379722312201333
 20
3.623181532234244
 30
0.0
 10
-1.4305328505659
 20
3.77297929803643
 30
0.0
 10
-1.469742410752844
 20
3.934208006326223
 30
0.0
 10
-1.495232958202498
 20
4.109430662674489
 30
0.0
 10
-1.504576304717974
 20
4.297897136187205
 30
0.0
 10
-1.496567314679415
 20
4.50045306040316
 30
0.0
 10
-1.47040298434434
 20
4.717852487680502
 30
0.0
 10
-1.424229520189141
 20
4.955031991148304
 30
0.0
 10
-1.361748993618123
 20
5.193400944777797
 30
0.0
 10
-1.286541451085526
 20
5.431346821655653
 30
0.0
 10
-1.200904863333559
 20
5.668892966500781
 30
0.0
 10
-1.098873507347501
 20
5.922845145793361
 30
0.0
 10
-0.9798833199523169
 20
6.194897950306659
 30
0.0
 10
-0.8924272549385211
 20
6.377365838825502
 30
0.0
 10
-0.8465016597250672
 20
6.47318476672085
 30
0.0
  0
LINE
  5
7F
330
1F
100
AcDbEntity
  8
0
  6
Continuous
 62
     7
370
     5
100
AcDbLine
 10
-0.8465016597250672
 20
6.47318476672085
 30
0.0
 11
0.4801256688999662
 21
6.112635884985698
 31
0.0
  0
LINE
  5
80
330
1F
100
AcDbEntity
  8
0
  6
Continuous
 62
     7
370
     5
100
AcDbLine
 10
-0.8465016597250672
 20
0.0394992083527508
 30
0.0
 11
0.4801256688999662
 21
-0.3210496733824012
 31
0.0
  0
LINE
  5
81
330
1F
100
AcDbEntity
  8
0
  6
Continuous
 62
     7
370
     5
100
AcDbLine
 10
8.944049238386993
 20
20.84733817956346
 30
0.0
 11
10.27067656701202
 21
20.4867892978283
 31
0.0
  0
LINE
  5
82
330
1F
100
AcDbEntity
  8
0
  6
Continuous
 62
     7
370
     5
100
AcDbLine
 10
8.944049238386993
 20
20.84733817956346
 30
0.0
 11
-0.8465016597250672
 21
6.47318476672085
 31
0.0
  0
SPLINE
  5
83
330
1F
100
AcDbEntity
  8
0
  6
Continuous
 62
     7
370
     5
100
AcDbSpline
210
0.0
220
0.0
230
1.0
 70
     8
 71
     3
 72
    12
 73
     8
 74
     0
 42
0.0000000001
 43
0.0000000001
 40
0.0
 40
0.0
 40
0.0
 40
0.0
 40
0.2544900002328017
 40
0.4856423271402747
 40
0.6964886970442695
 40
0.890256465043863
 40
1.0
 40
1.0
 40
1.0
 40
1.0
 10
8.944049238386993
 20
20.84733817956346
 30
0.0
 10
8.998247256812746
 20
20.88270633298006
 30
0.0
 10
9.101673135120718
 20
20.95019924946473
 30
0.0
 10
9.247005371533731
 20
21.01771033760076
 30
0.0
 10
9.375431918646594
 20
21.05290772256837
 30
0.0
 10
9.475910031403817
 20
21.06157844902086
 30
0.0
 10
9.53000772879403
 20
21.04603347143032
 30
0.0
 10
9.549568359606697
 20
21.04041272263122
 30
0.0
  0
LINE
  5
84
330
1F
100
AcDbEntity
  8
0
  6
Continuous
 62
     7
370
     5
100
AcDbLine
 10
4.314574168899197
 20
5.308556121914209
 30
0.0
 11
5.053534472356559
 21
5.107722545438472
 31
0.0
  0
LINE
  5
85
330
1F
100
AcDbEntity
  8
0
  6
Continuous
 62
     7
370
     5
100
AcDbLine
 10
7.620359029115429
 20
4.410114511135053
 30
0.0
 11
7.620359029115429
 21
-5.531344750607416
 31
0.0
  0
SPLINE
  5
86
330
1F
100
AcDbEntity
  8
0
  6
Continuous
 62
     7
370
     5
100
AcDbSpline
210
0.0
220
0.0
230
1.0
 70
     8
 71
     3
 72
    31
 73
    27
 74
     0
 42
0.0000000001
 43
0.0000000001
 40
0.0
 40
0.0
 40
0.0
 40
0.0
 40
0.0446643571939207
 40
0.0855729883523348
 40
0.1237573882731917
 40
0.160180194818021
 40
0.1956692712150067
 40
0.2396663016298687
 40
0.2840154804507339
 40
0.329081192618322
 40
0.3748742034428605
 40
0.4211591369344167
 40
0.4675503779139444
 40
0.5135946129615046
 40
0.5588463562357589
 40
0.6029471105379111
 40
0.6457199465528792
 40
0.6872858666665918
 40
0.728197506041683
 40
0.7596034838909462
 40
0.7919609906676407
 40
0.8261284474462547
 40
0.8630569546865849
 40
0.9037223729313298
 40
0.9490727721351007
 40
1.0
 40
1.0
 40
1.0
 40
1.0
 10
7.620359029115429
 20
-5.531344750607416
 30
0.0
 10
7.58673437693227
 20
-5.516563303328037
 30
0.0
 10
7.522312494465063
 20
-5.488243347655632
 30
0.0
 10
7.418536171631632
 20
-5.486464134626919
 30
0.0
 10
7.315735249996459
 20
-5.51510995230308
 30
0.0
 10
7.213366116233318
 20
-5.57322592479409
 30
0.0
 10
7.103426438121924
 20
-5.663720144930498
 30
0.0
 10
6.985651883537172
 20
-5.790760452074833
 30
0.0
 10
6.86087870915812
 20
-5.954967496841016
 30
0.0
 10
6.737418559046256
 20
-6.140840640887748
 30
0.0
 10
6.615089000361747
 20
-6.342361915881742
 30
0.0
 10
6.493736812307348
 20
-6.553637890340465
 30
0.0
 10
6.373253385858947
 20
-6.768802585165079
 30
0.0
 10
6.25354996989328
 20
-6.981998678994338
 30
0.0
 10
6.134531938534093
 20
-7.187379266200706
 30
0.0
 10
6.016069813636678
 20
-7.379103411256246
 30
0.0
 10
5.897970259218503
 20
-7.551305495648382
 30
0.0
 10
5.77999749626754
 20
-7.697938444614581
 30
0.0
 10
5.671388037035567
 20
-7.803276326195969
 30
0.0
 10
5.572982693711007
 20
-7.870093561938516
 30
0.0
 10
5.48404483256209
 20
-7.90507261487214
 30
0.0
 10
5.395612090891749
 20
-7.911492286157424
 30
0.0
 10
5.307788125206132
 20
-7.886792921198719
 30
0.0
 10
5.220781131042523
 20
-7.828157514363218
 30
0.0
 10
5.133881060806307
 20
-7.734637070123891
 30
0.0
 10
5.081331307046521
 20
-7.648458494294248
 30
0.0
 10
5.053534472356563
 20
-7.602873283046589
 30
0.0
  0
LINE
  5
87
330
1F
100
AcDbEntity
  8
0
  6
Continuous
 62
     7
370
     5
100
AcDbLine
 10
5.053534472356559
 20
5.107722545438472
 30
0.0
 11
5.053534472356559
 21
3.018377145582106
 31
0.0
  0
LINE
  5
88
330
1F
100
AcDbEntity
  8
0
  6
Continuous
 62
     7
370
     5
100
AcDbLine
 10
5.053534472356559
 20
1.780555940334193
 30
0.0
 11
5.053534472356559
 21
-7.602873283046585
 31
0.0
  0
LINE
  5
89
330
1F
100
AcDbEntity
  8
0
  6
Continuous
 62
     7
370
     5
100
AcDbLine
 10
3.726907143731525
 20
-7.242324401311437
 30
0.0
 11
5.053534472356559
 21
-7.602873283046585
 31
0.0
  0
LINE
  5
8A
330
1F
100
AcDbEntity
  8
0
  6
Continuous
 62
     7
370
     5
100
AcDbLine
 10
3.726907143731525
 20
4.445764606144871
 30
0.0
 11
3.726907143731525
 21
-7.242324401311437
 31
0.0
  0
LINE
  5
8B
330
1F
100
AcDbEntity
  8
0
  6
Continuous
 62
     7
370
     5
100
AcDbLine
 10
7.481211053365607
 20
-5.493527312379073
 30
0.0
 11
7.620359029115429
 21
-5.531344750607416
 31
0.0
  0
SPLINE
  5
8C
330
1F
100
AcDbEntity
  8
0
  6
Continuous
 62
     7
370
     5
100
AcDbSpline
210
0.0
220
0.0
230
1.0
 70
     8
 71
     3
 72
    11
 73
     7
 74
     0
 42
0.0000000001
 43
0.0000000001
 40
0.0
 40
0.0
 40
0.0
 40
0.0
 40
0.119759309033685
 40
0.3811479452529629
 40
0.672650639963484
 40
1.0
 40
1.0
 40
1.0
 40
1.0
 10
4.02936827164419
 20
-7.534454140857962
 30
0.0
 10
4.014541495339378
 20
-7.531161032927526
 30
0.0
 10
3.96735355338394
 20
-7.520680333503739
 30
0.0
 10
3.89448675726491
 20
-7.466382142842354
 30
0.0
 10
3.80715421875499
 20
-7.374454761219308
 30
0.0
 10
3.754669550596811
 20
-7.288036432683878
 30
0.0
 10
3.726907143731525
 20
-7.242324401311437
 30
0.0
  0
LINE
  5
8D
330
1F
100
AcDbEntity
  8
0
  6
Continuous
 62
     7
370
     5
100
AcDbLine
 10
20.90601457449424
 20
6.573767436295992
 30
0.0
 11
20.90601457449424
 21
5.288016469352241
 31
0.0
  0
SPLINE
  5
8E
330
1F
100
AcDbEntity
  8
0
  6
Continuous
 62
     7
370
     5
100
AcDbSpline
210
0.0
220
0.0
230
1.0
 70
     8
 71
     3
 72
    31
 73
    27
 74
     0
 42
0.0000000001
 43
0.0000000001
 40
0.0
 40
0.0
 40
0.0
 40
0.0
 40
0.042989543607412
 40
0.0819250449350472
 40
0.1177889279133781
 40
0.1515499745071706
 40
0.1840975165796572
 40
0.2161776169519333
 40
0.2483511360596292
 40
0.2942018612436352
 40
0.3413876803546596
 40
0.3898616164755101
 40
0.4392563200988415
 40
0.4890290397470378
 40
0.5385789613631672
 40
0.5873566577061017
 40
0.6349787212862456
 40
0.6813680561529685
 40
0.7269225088360242
 40
0.7595196635571658
 40
0.7928138719968187
 40
0.8275815948194289
 40
0.8647233741990925
 40
0.9052027700768466
 40
0.9499856843558644
 40
1.0
 40
1.0
 40
1.0
 40
1.0
 10
20.90601457449424
 20
5.288016469352241
 30
0.0
 10
20.82174175922202
 20
5.275574243424341
 30
0.0
 10
20.66114330669997
 20
5.251863130611794
 30
0.0
 10
20.44246922596105
 20
5.199842792313952
 30
0.0
 10
20.25520468703875
 20
5.138644504379209
 30
0.0
 10
20.09740640139459
 20
5.068138673881109
 30
0.0
 10
19.96639804980405
 20
4.989577986234263
 30
0.0
 10
19.85941019043869
 20
4.90393609059752
 30
0.0
 10
19.76171876661307
 20
4.79970505296052
 30
0.0
 10
19.67991949905139
 20
4.674902918929625
 30
0.0
 10
19.61714229793215
 20
4.529838210967828
 30
0.0
 10
19.57359641094018
 20
4.379255922436823
 30
0.0
 10
19.54157701429689
 20
4.22524197656752
 30
0.0
 10
19.51351115635307
 20
4.069907961006728
 30
0.0
 10
19.48184572599573
 20
3.915391650207748
 30
0.0
 10
19.43902195872974
 20
3.76381426129891
 30
0.0
 10
19.37730967869518
 20
3.61725251267352
 30
0.0
 10
19.28871910700353
 20
3.477778332097613
 30
0.0
 10
19.17643392772093
 20
3.359975915879505
 30
0.0
 10
19.04663969627705
 20
3.263661783498233
 30
0.0
 10
18.90711387662707
 20
3.185796192177138
 30
0.0
 10
18.73989915180367
 20
3.116170572967677
 30
0.0
 10
18.54249833776373
 20
3.055694225981374
 30
0.0
 10
18.31239601803624
 20
3.005473537624417
 30
0.0
 10
18.04731805058631
 20
2.965321597895233
 30
0.0
 10
17.85651326363753
 20
2.949568575059995
 30
0.0
 10
17.75584607274381
 20
2.941257397011132
 30
0.0
  0
LINE
  5
8F
330
1F
100
AcDbEntity
  8
0
  6
Continuous
 62
     7
370
     5
100
AcDbLine
 10
17.75584607274381
 20
4.227008363954883
 30
0.0
 11
17.75584607274381
 21
2.941257397011127
 31
0.0
  0
SPLINE
  5
90
330
1F
100
AcDbEntity
  8
0
  6
Continuous
 62
     7
370
     5
100
AcDbSpline
210
0.0
220
0.0
230
1.0
 70
     8
 71
     3
 72
    31
 73
    27
 74
     0
 42
0.0000000001
 43
0.0000000001
 40
0.0
 40
0.0
 40
0.0
 40
0.0
 40
0.042989543607412
 40
0.0819250449350472
 40
0.1177889279133781
 40
0.1515499745071706
 40
0.1840975165796572
 40
0.2161776169519333
 40
0.2483511360596292
 40
0.2942018612436352
 40
0.3413876803546596
 40
0.3898616164755101
 40
0.4392563200988415
 40
0.4890290397470378
 40
0.5385789613631672
 40
0.5873566577061017
 40
0.6349787212862456
 40
0.6813680561529685
 40
0.7269225088360242
 40
0.7595196635571658
 40
0.7928138719968187
 40
0.8275815948194289
 40
0.8647233741990925
 40
0.9052027700768466
 40
0.9499856843558644
 40
1.0
 40
1.0
 40
1.0
 40
1.0
 10
20.90601457449424
 20
6.573767436295992
 30
0.0
 10
20.82174175922202
 20
6.561325210368092
 30
0.0
 10
20.66114330669997
 20
6.537614097555546
 30
0.0
 10
20.44246922596105
 20
6.485593759257704
 30
0.0
 10
20.25520468703875
 20
6.424395471322963
 30
0.0
 10
20.09740640139459
 20
6.35388964082486
 30
0.0
 10
19.96639804980405
 20
6.275328953178015
 30
0.0
 10
19.85941019043869
 20
6.189687057541272
 30
0.0
 10
19.76171876661307
 20
6.085456019904272
 30
0.0
 10
19.67991949905139
 20
5.960653885873377
 30
0.0
 10
19.61714229793215
 20
5.815589177911579
 30
0.0
 10
19.57359641094018
 20
5.665006889380575
 30
0.0
 10
19.54157701429689
 20
5.510992943511272
 30
0.0
 10
19.51351115635307
 20
5.35565892795048
 30
0.0
 10
19.48184572599573
 20
5.201142617151499
 30
0.0
 10
19.43902195872974
 20
5.049565228242661
 30
0.0
 10
19.37730967869518
 20
4.903003479617272
 30
0.0
 10
19.28871910700353
 20
4.763529299041365
 30
0.0
 10
19.17643392772093
 20
4.645726882823256
 30
0.0
 10
19.04663969627705
 20
4.549412750441985
 30
0.0
 10
18.90711387662707
 20
4.471547159120889
 30
0.0
 10
18.73989915180367
 20
4.401921539911429
 30
0.0
 10
18.54249833776373
 20
4.341445192925125
 30
0.0
 10
18.31239601803624
 20
4.291224504568169
 30
0.0
 10
18.04731805058631
 20
4.251072564838984
 30
0.0
 10
17.85651326363753
 20
4.235319542003746
 30
0.0
 10
17.75584607274381
 20
4.227008363954883
 30
0.0
  0
LINE
  5
91
330
1F
100
AcDbEntity
  8
0
  6
Continuous
 62
     7
370
     5
100
AcDbLine
 10
20.90601457449424
 20
6.573767436295992
 30
0.0
 11
7.620359029115429
 21
10.18452393636704
 31
0.0
  0
LINE
  5
92
330
1F
100
AcDbEntity
  8
0
  6
Continuous
 62
     7
370
     5
100
AcDbLine
 10
2.609039507993692
 20
11.54649320261956
 30
0.0
 11
-9.661317932282257
 21
14.88131343293047
 31
0.0
  0
LINE
  5
93
330
1F
100
AcDbEntity
  8
0
  6
Continuous
 62
     7
370
     5
100
AcDbLine
 10
-11.41145806047815
 20
12.15405664763651
 30
0.0
 11
0.7682288436799312
 21
8.843878726207863
 31
0.0
  0
LINE
  5
94
330
1F
100
AcDbEntity
  8
0
  6
Continuous
 62
     7
370
     5
100
AcDbLine
 10
5.053534472356559
 20
7.679224479325986
 30
0.0
 11
5.056300994619995
 21
7.678472597854185
 31
0.0
  0
LINE
  5
95
330
1F
100
AcDbEntity
  8
0
  6
Continuous
 62
     7
370
     5
100
AcDbLine
 10
6.059483890635981
 20
7.405828982326326
 30
0.0
 11
17.75584607274381
 21
4.227008363954883
 31
0.0
  0
SPLINE
  5
96
330
1F
100
AcDbEntity
  8
0
  6
Continuous
 62
     7
370
     5
100
AcDbSpline
210
0.0
220
0.0
230
1.0
 70
     8
 71
     3
 72
     8
 73
     4
 74
     0
 42
0.0000000001
 43
0.0000000001
 40
0.0000000482805897
 40
0.0000000482805897
 40
0.0000000482805897
 40
0.0000000482805897
 40
1.0
 40
1.0
 40
1.0
 40
1.0
 10
-9.661318069725998
 20
14.88131337346764
 30
0.0
 10
-8.044451920194724
 20
13.52841029203937
 30
0.0
 10
-13.24760919513896
 20
13.72113073939757
 30
0.0
 10
-11.41145844541795
 20
12.15405668498177
 30
0.0
  0
LINE
  5
97
330
1F
100
AcDbEntity
  8
0
  6
Continuous
 62
     7
370
     5
100
AcDbLine
 10
-11.41145806047815
 20
10.86830568069276
 30
0.0
 11
0.0292685402225732
 21
7.758961335739846
 31
0.0
  0
LINE
  5
98
330
1F
100
AcDbEntity
  8
0
  6
Continuous
 62
     7
370
     5
100
AcDbLine
 10
5.053534472356559
 20
6.39347351238223
 30
0.0
 11
5.075255719175124
 21
6.387570142926963
 31
0.0
  0
LINE
  5
99
330
1F
100
AcDbEntity
  8
0
  6
Continuous
 62
     7
370
     5
100
AcDbLine
 10
6.481427307958309
 20
6.005402835708149
 30
0.0
 11
17.75584607274381
 21
2.941257397011127
 31
0.0
  0
LINE
  5
9A
330
1F
100
AcDbEntity
  8
0
  6
Continuous
 62
     7
370
     5
100
AcDbLine
 10
-11.41145806047815
 20
12.15405664763651
 30
0.0
 11
-11.41145806047815
 21
10.86830568069276
 31
0.0
  0
LINE
  5
9B
330
1F
100
AcDbEntity
  8
0
  6
Continuous
 62
     7
370
     5
100
AcDbLine
 10
-9.661317932282257
 20
14.88131343293047
 30
0.0
 11
-9.661317932282257
 21
14.00013719813477
 31
0.0
  0
SPLINE
  5
9C
330
1F
100
AcDbEntity
  8
0
  6
Continuous
 62
     7
370
     5
100
AcDbSpline
210
0.0
220
0.0
230
1.0
 70
     8
 71
     3
 72
    12
 73
     8
 74
     0
 42
0.0000000001
 43
0.0000000001
 40
0.0
 40
0.0
 40
0.0
 40
0.0
 40
0.2489362988121144
 40
0.4708867660967393
 40
0.6695519135433931
 40
0.8488957542723067
 40
1.0
 40
1.0
 40
1.0
 40
1.0
 10
-11.41145806047815
 20
10.86830568069276
 30
0.0
 10
-11.46383415391234
 20
10.91511989221607
 30
0.0
 10
-11.56290853308361
 20
11.00367344096238
 30
0.0
 10
-11.67738165939032
 20
11.13679005337552
 30
0.0
 10
-11.75570371957106
 20
11.26066552378685
 30
0.0
 10
-11.80178327198005
 20
11.37352725672863
 30
0.0
 10
-11.80636954395027
 20
11.44528029013875
 30
0.0
 10
-11.80846671199319
 20
11.47809085384445
 30
0.0
  0
SPLINE
  5
9D
330
1F
100
AcDbEntity
  8
0
  6
Continuous
 62
     7
370
     5
100
AcDbSpline
210
0.0
220
0.0
230
1.0
 70
     8
 71
     3
 72
    31
 73
    27
 74
     0
 42
0.0000000001
 43
0.0000000001
 40
0.0
 40
0.0
 40
0.0
 40
0.0
 40
0.042989543607412
 40
0.0819250449350472
 40
0.1177889279133781
 40
0.1515499745071706
 40
0.1840975165796572
 40
0.2161776169519333
 40
0.2483511360596292
 40
0.2942018612436352
 40
0.3413876803546596
 40
0.3898616164755101
 40
0.4392563200988415
 40
0.4890290397470378
 40
0.5385789613631672
 40
0.5873566577061017
 40
0.6349787212862456
 40
0.6813680561529685
 40
0.7269225088360242
 40
0.7595196635571658
 40
0.7928138719968187
 40
0.8275815948194289
 40
0.8647233741990925
 40
0.9052027700768466
 40
0.9499856843558644
 40
1.0
 40
1.0
 40
1.0
 40
1.0
 10
20.90601457449424
 20
5.288016469352241
 30
0.0
 10
20.82174175922202
 20
5.275574243424341
 30
0.0
 10
20.66114330669997
 20
5.251863130611794
 30
0.0
 10
20.44246922596105
 20
5.199842792313952
 30
0.0
 10
20.25520468703875
 20
5.138644504379209
 30
0.0
 10
20.09740640139459
 20
5.068138673881109
 30
0.0
 10
19.96639804980405
 20
4.989577986234263
 30
0.0
 10
19.85941019043869
 20
4.90393609059752
 30
0.0
 10
19.76171876661307
 20
4.79970505296052
 30
0.0
 10
19.67991949905139
 20
4.674902918929625
 30
0.0
 10
19.61714229793215
 20
4.529838210967828
 30
0.0
 10
19.57359641094018
 20
4.379255922436823
 30
0.0
 10
19.54157701429689
 20
4.22524197656752
 30
0.0
 10
19.51351115635307
 20
4.069907961006728
 30
0.0
 10
19.48184572599573
 20
3.915391650207748
 30
0.0
 10
19.43902195872974
 20
3.76381426129891
 30
0.0
 10
19.37730967869518
 20
3.61725251267352
 30
0.0
 10
19.28871910700353
 20
3.477778332097613
 30
0.0
 10
19.17643392772093
 20
3.359975915879505
 30
0.0
 10
19.04663969627705
 20
3.263661783498233
 30
0.0
 10
18.90711387662707
 20
3.185796192177138
 30
0.0
 10
18.73989915180367
 20
3.116170572967677
 30
0.0
 10
18.54249833776373
 20
3.055694225981374
 30
0.0
 10
18.31239601803624
 20
3.005473537624417
 30
0.0
 10
18.04731805058631
 20
2.965321597895233
 30
0.0
 10
17.85651326363753
 20
2.949568575059995
 30
0.0
 10
17.75584607274381
 20
2.941257397011132
 30
0.0
  0
LINE
  5
9E
330
1F
100
AcDbEntity
  8
0
  6
Continuous
 62
     7
370
     5
100
AcDbLine
 10
20.90601457449424
 20
5.288016469352241
 30
0.0
 11
20.90601457449424
 21
4.002265502408481
 31
0.0
  0
SPLINE
  5
9F
330
1F
100
AcDbEntity
  8
0
  6
Continuous
 62
     7
370
     5
100
AcDbSpline
210
0.0
220
0.0
230
1.0
 70
     8
 71
     3
 72
    31
 73
    27
 74
     0
 42
0.0000000001
 43
0.0000000001
 40
0.0
 40
0.0
 40
0.0
 40
0.0
 40
0.0500143156441356
 40
0.0947972299231535
 40
0.1352766258009074
 40
0.1724184051805709
 40
0.207186128003181
 40
0.240480336442834
 40
0.2730774911639757
 40
0.3186319438470314
 40
0.3650212787137543
 40
0.4126433422938982
 40
0.4614210386368328
 40
0.5109709602529622
 40
0.5607436799011585
 40
0.61013838352449
 40
0.6586123196453404
 40
0.7057981387563648
 40
0.7516488639403708
 40
0.7838223830480667
 40
0.8159024834203428
 40
0.8484500254928292
 40
0.8822110720866218
 40
0.9180749550649526
 40
0.9570104563925879
 40
1.0
 40
1.0
 40
1.0
 40
1.0
 10
17.75584607274382
 20
1.655506430067369
 30
0.0
 10
17.85651326363752
 20
1.663817608116236
 30
0.0
 10
18.04731805058631
 20
1.67957063095147
 30
0.0
 10
18.31239601803624
 20
1.719722570680657
 30
0.0
 10
18.54249833776372
 20
1.769943259037618
 30
0.0
 10
18.73989915180365
 20
1.830419606023921
 30
0.0
 10
18.90711387662708
 20
1.900045225233375
 30
0.0
 10
19.04663969627705
 20
1.977910816554471
 30
0.0
 10
19.17643392772093
 20
2.074224948935744
 30
0.0
 10
19.28871910700352
 20
2.192027365153853
 30
0.0
 10
19.37730967869515
 20
2.331501545729766
 30
0.0
 10
19.43902195872975
 20
2.478063294355147
 30
0.0
 10
19.48184572599573
 20
2.629640683263988
 30
0.0
 10
19.51351115635305
 20
2.784156994062974
 30
0.0
 10
19.54157701429689
 20
2.939491009623758
 30
0.0
 10
19.57359641094019
 20
3.093504955493059
 30
0.0
 10
19.61714229793214
 20
3.244087244024075
 30
0.0
 10
19.6799194990514
 20
3.38915195198586
 30
0.0
 10
19.76171876661307
 20
3.51395408601676
 30
0.0
 10
19.85941019043866
 20
3.618185123653767
 30
0.0
 10
19.96639804980406
 20
3.703827019290501
 30
0.0
 10
20.0974064013946
 20
3.782387706937346
 30
0.0
 10
20.25520468703874
 20
3.852893537435451
 30
0.0
 10
20.44246922596107
 20
3.91409182537019
 30
0.0
 10
20.66114330669996
 20
3.966112163668038
 30
0.0
 10
20.82174175922202
 20
3.989823276480581
 30
0.0
 10
20.90601457449424
 20
4.002265502408481
 30
0.0
  0
LINE
  5
A0
330
1F
100
AcDbEntity
  8
0
  6
Continuous
 62
     7
370
     5
100
AcDbLine
 10
17.75584607274381
 20
2.941257397011132
 30
0.0
 11
17.75584607274381
 21
1.655506430067371
 31
0.0
  0
LINE
  5
A1
330
1F
100
AcDbEntity
  8
0
  6
Continuous
 62
     7
370
     5
100
AcDbLine
 10
-11.41145806047815
 20
9.582554713749003
 30
0.0
 11
-0.7096917632347891
 21
6.674043945271824
 31
0.0
  0
LINE
  5
A2
330
1F
100
AcDbEntity
  8
0
  6
Continuous
 62
     7
370
     5
100
AcDbLine
 10
4.314574168899197
 20
5.308556121914209
 30
0.0
 11
5.056300994619995
 21
5.10697066396667
 31
0.0
  0
LINE
  5
A3
330
1F
100
AcDbEntity
  8
0
  6
Continuous
 62
     7
370
     5
100
AcDbLine
 10
6.059483890635981
 20
4.834327048438813
 30
0.0
 11
17.75584607274381
 21
1.655506430067371
 31
0.0
  0
LINE
  5
A4
330
1F
100
AcDbEntity
  8
0
  6
Continuous
 62
     7
370
     5
100
AcDbLine
 10
-11.41145806047815
 20
10.86830568069276
 30
0.0
 11
-11.41145806047815
 21
9.582554713749003
 31
0.0
  0
SPLINE
  5
A5
330
1F
100
AcDbEntity
  8
0
  6
Continuous
 62
     7
370
     5
100
AcDbSpline
210
0.0
220
0.0
230
1.0
 70
     8
 71
     3
 72
    12
 73
     8
 74
     0
 42
0.0000000001
 43
0.0000000001
 40
0.0
 40
0.0
 40
0.0
 40
0.0
 40
0.1511042457276933
 40
0.330448086456607
 40
0.5291132339032609
 40
0.7510637011878857
 40
1.0
 40
1.0
 40
1.0
 40
1.0
 10
-11.80846671199319
 20
10.19233988690069
 30
0.0
 10
-11.80636954395027
 20
10.15952932319499
 30
0.0
 10
-11.80178327198005
 20
10.08777628978487
 30
0.0
 10
-11.75570371957106
 20
9.974914556843094
 30
0.0
 10
-11.67738165939032
 20
9.851039086431763
 30
0.0
 10
-11.56290853308362
 20
9.717922474018621
 30
0.0
 10
-11.46383415391234
 20
9.629368925272318
 30
0.0
 10
-11.41145806047815
 20
9.582554713749003
 30
0.0
  0
LINE
  5
A6
330
1F
100
AcDbEntity
  8
0
  6
Continuous
 62
     7
370
     5
100
AcDbLine
 10
5.15333802861987
 20
9.808595683153123
 30
0.0
 11
5.15333802861987
 21
9.219292931395317
 31
0.0
  0
LINE
  5
A7
330
1F
100
AcDbEntity
  8
0
  6
Continuous
 62
     7
370
     5
100
AcDbLine
 10
5.095001007314817
 20
9.751656961955331
 30
0.0
 11
5.15333802861987
 21
9.808595683153123
 31
0.0
  0
LINE
  5
A8
330
1F
100
AcDbEntity
  8
0
  6
Continuous
 62
     7
370
     5
100
AcDbLine
 10
5.095001007314817
 20
10.98383500861038
 30
0.0
 11
5.095001007314817
 21
9.751656961955331
 31
0.0
  0
LINE
  5
A9
330
1F
100
AcDbEntity
  8
0
  6
Continuous
 62
     7
370
     5
100
AcDbLine
 10
5.824212610014248
 20
11.69556788786012
 30
0.0
 11
5.095001007314817
 21
10.98383500861038
 31
0.0
  0
LINE
  5
AA
330
1F
100
AcDbEntity
  8
0
  6
Continuous
 62
     7
370
     5
100
AcDbLine
 10
5.824212610014248
 20
10.46338984120507
 30
0.0
 11
5.824212610014248
 21
11.69556788786012
 31
0.0
  0
LINE
  5
AB
330
1F
100
AcDbEntity
  8
0
  6
Continuous
 62
     7
370
     5
100
AcDbLine
 10
5.795044167809585
 20
10.43492054741339
 30
0.0
 11
5.824212610014248
 21
10.46338984120507
 31
0.0
  0
LINE
  5
AC
330
1F
100
AcDbEntity
  8
0
  6
Continuous
 62
     7
370
     5
100
AcDbLine
 10
5.591021954886588
 20
9.432194180097864
 30
0.0
 11
5.795044167809585
 21
10.43492054741339
 31
0.0
  0
LINE
  5
AD
330
1F
100
AcDbEntity
  8
0
  6
Continuous
 62
     7
370
     5
100
AcDbLine
 10
5.620190465539114
 20
9.46066354069676
 30
0.0
 11
5.591021954886588
 21
9.432194180097864
 31
0.0
  0
LINE
  5
AE
330
1F
100
AcDbEntity
  8
0
  6
Continuous
 62
     7
370
     5
100
AcDbLine
 10
5.492529650561186
 20
8.833237478410445
 30
0.0
 11
5.620190465539114
 21
9.46066354069676
 31
0.0
  0
ARC
  5
AF
330
1F
100
AcDbEntity
  8
0
  6
Continuous
 62
     7
370
     5
100
AcDbCircle
 10
4.576136921683247
 20
9.230060738330186
 30
0.0
 40
0.5773015360407845
100
AcDbArc
 50
337.944233863731
 51
358.9312592615224
  0
LWPOLYLINE
  5
B0
330
1F
100
AcDbEntity
  8
0
  6
Continuous
 62
     7
370
     5
100
AcDbPolyline
 90
       17
 70
   128
 43
0.0
 10
5.669269707579779
 20
11.33004668106935
 10
5.672182780322811
 20
11.305992147338
 10
5.680478456378102
 20
11.29128603463358
 10
5.692893804164043
 20
11.2881674676283
 10
5.707538772747742
 20
11.29711091515762
 10
5.722183672883568
 20
11.31675527742098
 10
5.734599020669514
 20
11.34410936452459
 10
5.742894696724806
 20
11.37500914552036
 10
5.745807769467837
 20
11.40475017585485
 10
5.742894696724806
 20
11.42880521245187
 10
5.734599020669514
 20
11.44351132515629
 10
5.722183672883568
 20
11.44662989216158
 10
5.707538772747742
 20
11.43768651143947
 10
5.692893804164043
 20
11.41804208236889
 10
5.680478456378102
 20
11.39068799526528
 10
5.672182780322811
 20
11.35978821426951
 10
5.669269707579779
 20
11.33004668106935
  0
LWPOLYLINE
  5
B1
330
1F
100
AcDbEntity
  8
0
  6
Continuous
 62
     7
370
     5
100
AcDbPolyline
 90
       17
 70
   128
 43
0.0
 10
5.260911242923071
 20
10.87790350618468
 10
5.263824315666103
 20
10.85384897245333
 10
5.272119991721394
 20
10.83914285974891
 10
5.28453533950734
 20
10.83602378987795
 10
5.299180308091035
 20
10.84496774027295
 10
5.313825208226865
 20
10.86461159967064
 10
5.326240556012807
 20
10.89196618963992
 10
5.334536232068103
 20
10.92286597063569
 10
5.33744930481113
 20
10.95260700097018
 10
5.334536232068103
 20
10.97666153470152
 10
5.326240556012807
 20
10.99136764740594
 10
5.313825208226865
 20
10.99448671727691
 10
5.299180308091035
 20
10.98554283368912
 10
5.28453533950734
 20
10.96589890748421
 10
5.272119991721394
 20
10.93854431751493
 10
5.263824315666103
 20
10.90764453651916
 10
5.260911242923071
 20
10.87790350618468
  0
LWPOLYLINE
  5
B2
330
1F
100
AcDbEntity
  8
0
  6
Continuous
 62
     7
370
     5
100
AcDbPolyline
 90
       17
 70
   128
 43
0.0
 10
5.23174286916628
 20
9.992267051715321
 10
5.234655873461444
 20
9.968212199743922
 10
5.242951549516736
 20
9.953506087039501
 10
5.255366897302682
 20
9.950387520034214
 10
5.270011797438508
 20
9.959330900756322
 10
5.284656766022203
 20
9.978975329826903
 10
5.297072113808148
 20
10.00632941693051
 10
5.305367789863439
 20
10.03722919792628
 10
5.308280862606471
 20
10.0669704796936
 10
5.305367789863439
 20
10.09102501342495
 10
5.297072113808148
 20
10.10573137756221
 10
5.284656766022203
 20
10.10884994456749
 10
5.270011797438508
 20
10.09990624560533
 10
5.255366897302682
 20
10.08026213477481
 10
5.242951549516736
 20
10.05290804767119
 10
5.234655873461444
 20
10.02200801524259
 10
5.23174286916628
 20
9.992267051715321
  0
LWPOLYLINE
  5
B3
330
1F
100
AcDbEntity
  8
0
  6
Continuous
 62
     7
370
     5
100
AcDbPolyline
 90
       17
 70
   128
 43
0.0
 10
5.202574358513754
 20
9.639365604295955
 10
5.205487362808918
 20
9.615311003757394
 10
5.213783107312077
 20
9.60060470642735
 10
5.226198455098018
 20
9.597486139422064
 10
5.24084335523385
 20
9.60642977157701
 10
5.255488255369677
 20
9.62607388240754
 10
5.26790367160349
 20
9.653428036318366
 10
5.276199347658781
 20
9.684328068746967
 10
5.279112351953945
 20
9.71406903227424
 10
5.276199347658781
 20
9.73812388424564
 10
5.26790367160349
 20
9.752829996950062
 10
5.255488255369677
 20
9.755948748580967
 10
5.24084335523385
 20
9.747005116426025
 10
5.226198455098018
 20
9.727361005595493
 10
5.213783107312077
 20
9.700006667059046
 10
5.205487362808918
 20
9.669106819256066
 10
5.202574358513754
 20
9.639365604295955
  0
LWPOLYLINE
  5
B4
330
1F
100
AcDbEntity
  8
0
  6
Continuous
 62
     7
370
     5
100
AcDbPolyline
 90
       17
 70
   128
 43
0.0
 10
5.465090475251425
 20
10.00273547404575
 10
5.468003547994457
 20
9.978680688881569
 10
5.476299224049748
 20
9.963974576177147
 10
5.488714571835694
 20
9.960855757739023
 10
5.503359540419388
 20
9.969799456701185
 10
5.518004440555219
 20
9.989443567531715
 10
5.53041978834116
 20
10.01679790606816
 10
5.538715464396452
 20
10.04769768706392
 10
5.541628537139484
 20
10.07743896883125
 10
5.538715464396452
 20
10.10149350256259
 10
5.53041978834116
 20
10.11619961526702
 10
5.518004440555219
 20
10.11931843370514
 10
5.503359540419388
 20
10.11037480155019
 10
5.488714571835694
 20
10.09073062391245
 10
5.476299224049748
 20
10.063376285376
 10
5.468003547994457
 20
10.03247650438024
 10
5.465090475251425
 20
10.00273547404575
  0
LWPOLYLINE
  5
B5
330
1F
100
AcDbEntity
  8
0
  6
Continuous
 62
     7
370
     5
100
AcDbPolyline
 90
       17
 70
   128
 43
0.0
 10
5.610932823170458
 20
10.25222791719598
 10
5.613845895913489
 20
10.2281731320318
 10
5.62214157196878
 20
10.21346701932738
 10
5.634556919754726
 20
10.21034845232209
 10
5.649201819890553
 20
10.2192918330442
 10
5.663846720026383
 20
10.23893619530757
 10
5.676262136260193
 20
10.2662903492184
 10
5.684557812315484
 20
10.29719013021416
 10
5.687470816610653
 20
10.32693134517427
 10
5.684557812315484
 20
10.35098594571283
 10
5.676262136260193
 20
10.36569230985009
 10
5.663846720026383
 20
10.36881081004816
 10
5.649201819890553
 20
10.35986717789322
 10
5.634556919754726
 20
10.34022306706269
 10
5.62214157196878
 20
10.31286897995908
 10
5.613845895913489
 20
10.28196894753047
 10
5.610932823170458
 20
10.25222791719598
  0
LINE
  5
B6
330
1F
100
AcDbEntity
  8
0
  6
Continuous
 62
     7
370
     5
100
AcDbLine
 10
5.049011984932571
 20
10.99633383946833
 30
0.0
 11
5.095001007314817
 21
10.98383500861038
 31
0.0
  0
LINE
  5
B7
330
1F
100
AcDbEntity
  8
0
  6
Continuous
 62
     7
370
     5
100
AcDbLine
 10
5.049011984932571
 20
9.764155792813276
 30
0.0
 11
5.095001007314817
 21
9.751656961955331
 31
0.0
  0
LINE
  5
B8
330
1F
100
AcDbEntity
  8
0
  6
Continuous
 62
     7
370
     5
100
AcDbLine
 10
5.049011984932571
 20
10.99633383946833
 30
0.0
 11
5.049011984932571
 21
9.764155792813276
 31
0.0
  0
LINE
  5
B9
330
1F
100
AcDbEntity
  8
0
  6
Continuous
 62
     7
370
     5
100
AcDbLine
 10
5.778223587632002
 20
11.70806671871807
 30
0.0
 11
5.049011984932571
 21
10.99633383946833
 31
0.0
  0
LINE
  5
BA
330
1F
100
AcDbEntity
  8
0
  6
Continuous
 62
     7
370
     5
100
AcDbLine
 10
5.824212610014248
 20
11.69556788786012
 30
0.0
 11
5.778223587632002
 21
11.70806671871807
 31
0.0
  0
ARC
  5
BB
330
1F
100
AcDbEntity
  8
0
  6
Continuous
 62
     7
370
     5
100
AcDbCircle
 10
5.119592293298101
 20
10.96406334756504
 30
0.0
 40
0.1717808390872219
100
AcDbArc
 50
325.6445893019377
 51
3.946413364969876
  0
LINE
  5
BC
330
1F
100
AcDbEntity
  8
0
  6
Continuous
 62
     7
370
     5
100
AcDbLine
 10
5.185808272921332
 20
5.791512674928006
 30
0.0
 11
5.185808272921332
 21
5.255783094891739
 31
0.0
  0
LINE
  5
BD
330
1F
100
AcDbEntity
  8
0
  6
Continuous
 62
     7
370
     5
100
AcDbLine
 10
5.075255303732395
 20
5.821558603089974
 30
0.0
 11
5.185808272921332
 21
5.791512674928006
 31
0.0
  0
LINE
  5
BE
330
1F
100
AcDbEntity
  8
0
  6
Continuous
 62
     7
370
     5
100
AcDbLine
 10
5.075255303732395
 20
5.821558603089974
 30
0.0
 11
5.075255303732395
 21
6.893017763162507
 31
0.0
  0
LINE
  5
BF
330
1F
100
AcDbEntity
  8
0
  6
Continuous
 62
     7
370
     5
100
AcDbLine
 10
5.075255303732395
 20
6.893017763162507
 30
0.0
 11
5.185808272921332
 21
6.862971835000539
 31
0.0
  0
LINE
  5
C0
330
1F
100
AcDbEntity
  8
0
  6
Continuous
 62
     7
370
     5
100
AcDbLine
 10
5.185808272921332
 20
6.862971835000539
 30
0.0
 11
5.185808272921332
 21
7.398701415036805
 31
0.0
  0
ARC
  5
C1
330
1F
100
AcDbEntity
  8
0
  6
Continuous
 62
     7
370
     5
100
AcDbCircle
 10
4.900839783300864
 20
7.387508662115986
 30
0.0
 40
0.285188214683772
100
AcDbArc
 50
2.249259325878531
 51
46.44005331228403
  0
LINE
  5
C2
330
1F
100
AcDbEntity
  8
0
  6
Continuous
 62
     7
370
     5
100
AcDbLine
 10
5.097366727734405
 20
8.940670906409133
 30
0.0
 11
5.097366727734405
 21
7.594171377442513
 31
0.0
  0
ARC
  5
C3
330
1F
100
AcDbEntity
  8
0
  6
Continuous
 62
     7
370
     5
100
AcDbCircle
 10
5.26352475013021
 20
9.176925842232529
 30
0.0
 40
0.2888336599279975
100
AcDbArc
 50
234.8812917450853
 51
254.3910651722378
  0
LINE
  5
C4
330
1F
100
AcDbEntity
  8
0
  6
Continuous
 62
     7
370
     5
100
AcDbLine
 10
5.185808272921332
 20
8.898744188851786
 30
0.0
 11
5.462188620483123
 21
8.823629932498981
 31
0.0
  0
LINE
  5
C5
330
1F
100
AcDbEntity
  8
0
  6
Continuous
 62
     7
370
     5
100
AcDbLine
 10
5.462188620483123
 20
8.823629932498981
 30
0.0
 11
5.959674906422787
 21
7.670377417321262
 31
0.0
  0
LINE
  5
C6
330
1F
100
AcDbEntity
  8
0
  6
Continuous
 62
     7
370
     5
100
AcDbLine
 10
5.959674906422787
 20
7.670377417321262
 30
0.0
 11
5.904398421828321
 21
7.685400381402247
 31
0.0
  0
LINE
  5
C7
330
1F
100
AcDbEntity
  8
0
  6
Continuous
 62
     7
370
     5
100
AcDbLine
 10
5.904398421828321
 20
7.685400381402247
 30
0.0
 11
6.401882632357433
 21
6.532148430276644
 31
0.0
  0
LINE
  5
C8
330
1F
100
AcDbEntity
  8
0
  6
Continuous
 62
     7
370
     5
100
AcDbLine
 10
6.401882632357433
 20
6.532148430276644
 30
0.0
 11
6.457159116951899
 21
6.517445917346372
 31
0.0
  0
LINE
  5
C9
330
1F
100
AcDbEntity
  8
0
  6
Continuous
 62
     7
370
     5
100
AcDbLine
 10
6.457159116951899
 20
6.517445917346372
 30
0.0
 11
6.457159116951899
 21
5.445986757273839
 31
0.0
  0
LINE
  5
CA
330
1F
100
AcDbEntity
  8
0
  6
Continuous
 62
     7
370
     5
100
AcDbLine
 10
6.401882632357433
 20
5.461330172505536
 30
0.0
 11
6.457159116951899
 21
5.445986757273839
 31
0.0
  0
LINE
  5
CB
330
1F
100
AcDbEntity
  8
0
  6
Continuous
 62
     7
370
     5
100
AcDbLine
 10
5.904398421828321
 20
4.578489318629179
 30
0.0
 11
6.401882632357433
 21
5.461330172505536
 31
0.0
  0
LINE
  5
CC
330
1F
100
AcDbEntity
  8
0
  6
Continuous
 62
     7
370
     5
100
AcDbLine
 10
5.959674906422787
 20
4.563466354548196
 30
0.0
 11
5.904398421828321
 21
4.578489318629179
 31
0.0
  0
LINE
  5
CD
330
1F
100
AcDbEntity
  8
0
  6
Continuous
 62
     7
370
     5
100
AcDbLine
 10
5.462188620483123
 20
3.680626064723956
 30
0.0
 11
5.959674906422787
 21
4.563466354548196
 31
0.0
  0
LINE
  5
CE
330
1F
100
AcDbEntity
  8
0
  6
Continuous
 62
     7
370
     5
100
AcDbLine
 10
5.185808272921332
 20
3.75574032107676
 30
0.0
 11
5.462188620483123
 21
3.680626064723956
 31
0.0
  0
ARC
  5
CF
330
1F
100
AcDbEntity
  8
0
  6
Continuous
 62
     7
370
     5
100
AcDbCircle
 10
5.126970797282216
 20
3.548488505972611
 30
0.0
 40
0.2154417865771349
100
AcDbArc
 50
74.15109198992455
 51
97.89805906224096
  0
LINE
  5
D0
330
1F
100
AcDbEntity
  8
0
  6
Continuous
 62
     7
370
     5
100
AcDbLine
 10
5.097366727734405
 20
5.108386166303488
 30
0.0
 11
5.097366727734405
 21
3.761886637336867
 31
0.0
  0
ARC
  5
D1
330
1F
100
AcDbEntity
  8
0
  6
Continuous
 62
     7
370
     5
100
AcDbCircle
 10
5.030431378291002
 20
5.248780858830355
 30
0.0
 40
0.1555345964563
100
AcDbArc
 50
295.490196807779
 51
2.580353400042387
  0
LWPOLYLINE
  5
D2
330
1F
100
AcDbEntity
  8
0
  6
Continuous
 62
     7
370
     5
100
AcDbPolyline
 90
       19
 70
   128
 43
0.0
 10
5.351635651294187
 20
4.460693379793415
 10
5.358303945392032
 20
4.495527164896793
 10
5.377501492981538
 20
4.522535703813128
 10
5.406912135888656
 20
4.538461578478204
 10
5.442991072893621
 20
4.54138312381989
 10
5.481386168072625
 20
4.530948159657609
 10
5.517465105077594
 20
4.508415650316235
 10
5.546875747984712
 20
4.476503410554544
 10
5.566073295574215
 20
4.439059907475928
 10
5.57274158967206
 20
4.400601523469478
 10
5.566073295574215
 20
4.365767738366097
 10
5.546875747984712
 20
4.338759325166181
 10
5.517465105077594
 20
4.322833450501105
 10
5.481386168072625
 20
4.319911905159419
 10
5.442991072893621
 20
4.3303468693217
 10
5.406912135888656
 20
4.352879378663074
 10
5.377501492981538
 20
4.384791618424765
 10
5.358303945392032
 20
4.422234995786963
 10
5.351635651294187
 20
4.460693379793415
  0
LWPOLYLINE
  5
D3
330
1F
100
AcDbEntity
  8
0
  6
Continuous
 62
     7
370
     5
100
AcDbPolyline
 90
       17
 70
   128
 43
0.0
 10
6.163532107717809
 20
5.579361269864826
 10
6.169052699781388
 20
5.604758830412367
 10
6.184773934699277
 20
5.623289113906198
 10
6.208300788696532
 20
5.632131471880112
 10
6.236055253984578
 20
5.62993873654618
 10
6.263805568451525
 20
5.61704646206627
 10
6.28733657326988
 20
5.595414786394218
 10
6.303055732777221
 20
5.56833967738177
 10
6.308576324840795
 20
5.53994135957243
 10
6.303055732777221
 20
5.514543767595784
 10
6.28733657326988
 20
5.49601295147894
 10
6.263805568451525
 20
5.487171721609261
 10
6.236055253984578
 20
5.489363297409853
 10
6.208300788696532
 20
5.502256731423102
 10
6.184773934699277
 20
5.523887278990919
 10
6.169052699781388
 20
5.550962920626382
 10
6.163532107717809
 20
5.579361269864826
  0
LWPOLYLINE
  5
D4
330
1F
100
AcDbEntity
  8
0
  6
Continuous
 62
     7
370
     5
100
AcDbPolyline
 90
       17
 70
   128
 43
0.0
 10
5.610771412594227
 20
5.890308637723852
 10
5.616292004657805
 20
5.91570619827139
 10
5.632013239575694
 20
5.934236481765222
 10
5.655540093572949
 20
5.943078855453688
 10
5.683292483450448
 20
5.940886684171873
 10
5.711046948738495
 20
5.92799328158773
 10
5.73457380273575
 20
5.906362718305357
 10
5.750295037653639
 20
5.879287045240795
 10
5.755815629717212
 20
5.850888727431454
 10
5.750295037653639
 20
5.825491166883912
 10
5.73457380273575
 20
5.806960883390082
 10
5.711046948738495
 20
5.798118525416169
 10
5.683292483450448
 20
5.800311260750099
 10
5.655540093572949
 20
5.813204099282128
 10
5.632013239575694
 20
5.834834646849945
 10
5.616292004657805
 20
5.861910319914511
 10
5.610771412594227
 20
5.890308637723852
  0
LWPOLYLINE
  5
D5
330
1F
100
AcDbEntity
  8
0
  6
Continuous
 62
     7
370
     5
100
AcDbPolyline
 90
       17
 70
   128
 43
0.0
 10
5.27911458043797
 20
5.659008116421698
 10
5.284635172501547
 20
5.684405708398344
 10
5.300356407419437
 20
5.702935960463071
 10
5.323883261416692
 20
5.711778318436985
 10
5.351635651294187
 20
5.709586178584276
 10
5.379390116582233
 20
5.696692744571028
 10
5.402916970579488
 20
5.675062197003207
 10
5.418638205497382
 20
5.647986555367746
 10
5.424158797560956
 20
5.619588206129301
 10
5.418638205497382
 20
5.594190677010866
 10
5.402916970579488
 20
5.575660362087931
 10
5.379390116582233
 20
5.566818004114017
 10
5.351635651294187
 20
5.569010708018843
 10
5.323883261416692
 20
5.581903577979974
 10
5.300356407419437
 20
5.603534125547794
 10
5.284635172501547
 20
5.630609830041463
 10
5.27911458043797
 20
5.659008116421698
  0
LWPOLYLINE
  5
D6
330
1F
100
AcDbEntity
  8
0
  6
Continuous
 62
     7
370
     5
100
AcDbPolyline
 90
       17
 70
   128
 43
0.0
 10
5.887151760156018
 20
5.386610736199497
 10
5.892672352219596
 20
5.41200832817614
 10
5.908393587137486
 20
5.430538580240868
 10
5.931920441134741
 20
5.439380938214781
 10
5.959674906422787
 20
5.437188234309956
 10
5.987427296300282
 20
5.424295364348822
 10
6.010954150297536
 20
5.402664816781006
 10
6.026675385215431
 20
5.375589175145544
 10
6.032195977279004
 20
5.347190825907098
 10
6.026675385215431
 20
5.321793233930454
 10
6.010954150297536
 20
5.303262981865728
 10
5.987427296300282
 20
5.294420623891813
 10
5.959674906422787
 20
5.296612763744524
 10
5.931920441134741
 20
5.309506197757771
 10
5.908393587137486
 20
5.33113674532559
 10
5.892672352219596
 20
5.35821238696105
 10
5.887151760156018
 20
5.386610736199497
  0
LWPOLYLINE
  5
D7
330
1F
100
AcDbEntity
  8
0
  6
Continuous
 62
     7
370
     5
100
AcDbPolyline
 90
       19
 70
   128
 43
0.0
 10
5.351635651294187
 20
8.10365447375346
 10
5.358303945392032
 20
8.06519608974701
 10
5.377501492981538
 20
8.027752586668393
 10
5.406912135888656
 20
7.995840346906701
 10
5.442991072893621
 20
7.973307837565328
 10
5.481386168072625
 20
7.962872873403047
 10
5.517465105077594
 20
7.965794418744732
 10
5.546875747984712
 20
7.981720293409809
 10
5.566073295574215
 20
8.008728832326145
 10
5.57274158967206
 20
8.043562617429525
 10
5.566073295574215
 20
8.082021001435974
 10
5.546875747984712
 20
8.119464378798172
 10
5.517465105077594
 20
8.151376618559863
 10
5.481386168072625
 20
8.173909127901238
 10
5.442991072893621
 20
8.184344092063518
 10
5.406912135888656
 20
8.181422546721831
 10
5.377501492981538
 20
8.165496672056756
 10
5.358303945392032
 20
8.138488258856838
 10
5.351635651294187
 20
8.10365447375346
  0
LWPOLYLINE
  5
D8
330
1F
100
AcDbEntity
  8
0
  6
Continuous
 62
     7
370
     5
100
AcDbPolyline
 90
       17
 70
   128
 43
0.0
 10
6.163532107717809
 20
6.54367446364354
 10
6.169052699781388
 20
6.515276145834199
 10
6.184773934699277
 20
6.488200472769633
 10
6.208300788696532
 20
6.466569925201816
 10
6.236055253984578
 20
6.45367652261767
 10
6.263805568451525
 20
6.451484915387974
 10
6.28733657326988
 20
6.460326145257654
 10
6.303055732777221
 20
6.4788569928036
 10
6.308576324840795
 20
6.504254553351143
 10
6.303055732777221
 20
6.532652902589585
 10
6.28733657326988
 20
6.55972798017293
 10
6.263805568451525
 20
6.581359655844983
 10
6.236055253984578
 20
6.594251961753998
 10
6.208300788696532
 20
6.596444665658824
 10
6.184773934699277
 20
6.58760230768491
 10
6.169052699781388
 20
6.569072055620185
 10
6.163532107717809
 20
6.54367446364354
  0
LWPOLYLINE
  5
D9
330
1F
100
AcDbEntity
  8
0
  6
Continuous
 62
     7
370
     5
100
AcDbPolyline
 90
       17
 70
   128
 43
0.0
 10
5.610771412594227
 20
6.533184121195728
 10
5.616292004657805
 20
6.504785803386387
 10
5.632013239575694
 20
6.477710130321824
 10
5.655540093572949
 20
6.456079567039452
 10
5.683292483450448
 20
6.443186728507425
 10
5.711046948738495
 20
6.440993993173494
 10
5.73457380273575
 20
6.449836366861959
 10
5.750295037653639
 20
6.468366650355792
 10
5.755815629717212
 20
6.49376421090333
 10
5.750295037653639
 20
6.52216252871267
 10
5.73457380273575
 20
6.549238201777238
 10
5.711046948738495
 20
6.570868749345055
 10
5.683292483450448
 20
6.5837621519292
 10
5.655540093572949
 20
6.585954323211012
 10
5.632013239575694
 20
6.5771119652371
 10
5.616292004657805
 20
6.55858168174327
 10
5.610771412594227
 20
6.533184121195728
  0
LWPOLYLINE
  5
DA
330
1F
100
AcDbEntity
  8
0
  6
Continuous
 62
     7
370
     5
100
AcDbPolyline
 90
       17
 70
   128
 43
0.0
 10
5.27911458043797
 20
6.944759083365456
 10
5.284635172501547
 20
6.916360734127009
 10
5.300356407419437
 20
6.889285092491549
 10
5.323883261416692
 20
6.867654544923732
 10
5.351635651294187
 20
6.854761674962599
 10
5.379390116582233
 20
6.852568971057775
 10
5.402916970579488
 20
6.861411329031689
 10
5.418638205497382
 20
6.879941581096415
 10
5.424158797560956
 20
6.905339173073057
 10
5.418638205497382
 20
6.933737459453293
 10
5.402916970579488
 20
6.960813163946965
 10
5.379390116582233
 20
6.982443711514783
 10
5.351635651294187
 20
6.995337145528032
 10
5.323883261416692
 20
6.997529285380741
 10
5.300356407419437
 20
6.988686927406827
 10
5.284635172501547
 20
6.97015661248389
 10
5.27911458043797
 20
6.944759083365456
  0
LWPOLYLINE
  5
DB
330
1F
100
AcDbEntity
  8
0
  6
Continuous
 62
     7
370
     5
100
AcDbPolyline
 90
       17
 70
   128
 43
0.0
 10
5.887151760156018
 20
6.886653510014476
 10
5.892672352219596
 20
6.858255160776031
 10
5.908393587137486
 20
6.831179519140571
 10
5.931920441134741
 20
6.809548971572749
 10
5.959674906422787
 20
6.796655537559502
 10
5.987427296300282
 20
6.794463397706792
 10
6.010954150297536
 20
6.803305755680706
 10
6.026675385215431
 20
6.821836007745434
 10
6.032195977279004
 20
6.847233599722077
 10
6.026675385215431
 20
6.875631948960524
 10
6.010954150297536
 20
6.902707590595984
 10
5.987427296300282
 20
6.924338138163801
 10
5.959674906422787
 20
6.937231008124935
 10
5.931920441134741
 20
6.939423712029761
 10
5.908393587137486
 20
6.930581354055846
 10
5.892672352219596
 20
6.912051101991119
 10
5.887151760156018
 20
6.886653510014476
  0
LINE
  5
DC
330
1F
100
AcDbEntity
  8
0
  6
Continuous
 62
     7
370
     5
100
AcDbLine
 10
5.959674906422787
 20
7.670377417321262
 30
0.0
 11
5.983943097429198
 21
7.694063915719305
 31
0.0
  0
LINE
  5
DD
330
1F
100
AcDbEntity
  8
0
  6
Continuous
 62
     7
370
     5
100
AcDbLine
 10
5.462188620483123
 20
8.823629932498981
 30
0.0
 11
5.486456811489533
 21
8.847316430897025
 31
0.0
  0
LINE
  5
DE
330
1F
100
AcDbEntity
  8
0
  6
Continuous
 62
     7
370
     5
100
AcDbLine
 10
5.486456811489533
 20
8.847316430897025
 30
0.0
 11
5.983943097429198
 21
7.694063915719305
 31
0.0
  0
LINE
  5
DF
330
1F
100
AcDbEntity
  8
0
  6
Continuous
 62
     7
370
     5
100
AcDbLine
 10
5.107349006237623
 20
9.231791762253264
 30
0.0
 11
5.15333802861987
 21
9.219292931395317
 31
0.0
  0
LINE
  5
E0
330
1F
100
AcDbEntity
  8
0
  6
Continuous
 62
     7
370
     5
100
AcDbLine
 10
5.107349006237623
 20
9.763707986167691
 30
0.0
 11
5.107349006237623
 21
9.231791762253264
 31
0.0
  0
ARC
  5
E1
330
1F
100
AcDbEntity
  8
0
  6
Continuous
 62
     7
370
     5
100
AcDbCircle
 10
5.090423859103863
 20
10.07842670899856
 30
0.0
 40
0.1717807662846295
100
AcDbArc
 50
325.6446200905427
 51
3.946431918177708
  0
ARC
  5
E2
330
1F
100
AcDbEntity
  8
0
  6
Continuous
 62
     7
370
     5
100
AcDbCircle
 10
5.061257108359773
 20
9.725525122488226
 30
0.0
 40
0.1717790930057904
100
AcDbArc
 50
325.6443963627032
 51
3.946539260001651
  0
LINE
  5
E3
330
1F
100
AcDbEntity
  8
0
  6
Continuous
 62
     7
370
     5
100
AcDbLine
 10
5.185808272921332
 20
8.898744188851786
 30
0.0
 11
5.210076463927742
 21
8.922430687249828
 31
0.0
  0
LINE
  5
E4
330
1F
100
AcDbEntity
  8
0
  6
Continuous
 62
     7
370
     5
100
AcDbLine
 10
5.210076463927742
 20
8.922430687249828
 30
0.0
 11
5.486456811489533
 21
8.847316430897025
 31
0.0
  0
ARC
  5
E5
330
1F
100
AcDbEntity
  8
0
  6
Continuous
 62
     7
370
     5
100
AcDbCircle
 10
5.527952531318102
 20
11.41620648869071
 30
0.0
 40
0.1717790722523132
100
AcDbArc
 50
325.6444032712127
 51
3.94646530700318
  0
LINE
  5
E6
330
1F
100
AcDbEntity
  8
0
  6
Continuous
 62
     7
370
     5
100
AcDbLine
 10
5.065201821859275
 20
9.025777735378072
 30
0.0
 11
5.111190844241522
 21
9.013278904520126
 31
0.0
  0
ARC
  5
E7
330
1F
100
AcDbEntity
  8
0
  6
Continuous
 62
     7
370
     5
100
AcDbCircle
 10
4.530147899301045
 20
9.242559569188124
 30
0.0
 40
0.57730153604074
100
AcDbArc
 50
337.9442338637301
 51
358.9312592615232
  0
LINE
  5
E8
330
1F
100
AcDbEntity
  8
0
  6
Continuous
 62
     7
370
     5
100
AcDbLine
 10
5.097366727734405
 20
8.940670906409133
 30
0.0
 11
5.121634918740816
 21
8.964357404807175
 31
0.0
  0
ARC
  5
E9
330
1F
100
AcDbEntity
  8
0
  6
Continuous
 62
     7
370
     5
100
AcDbCircle
 10
5.287792941136652
 20
9.200612340630636
 30
0.0
 40
0.2888336599280677
100
AcDbArc
 50
234.8812917450876
 51
254.3910651722351
  0
SPLINE
  5
EA
330
1F
100
AcDbEntity
  8
0
  6
Continuous
 62
     7
370
     5
100
AcDbSpline
210
0.0
220
0.0
230
1.0
 70
     8
 71
     3
 72
    10
 73
     6
 74
     0
 42
0.0000000001
 43
0.0000000001
 40
0.0
 40
0.0
 40
0.0
 40
0.0
 40
0.361694113512651
 40
0.723380487902472
 40
1.0
 40
1.0
 40
1.0
 40
1.0
 10
5.097366727734405
 20
7.594171377442513
 30
0.0
 10
5.089066962077931
 20
7.599487457423611
 30
0.0
 10
5.072467608354
 20
7.610119503638325
 30
0.0
 10
5.0582230721611
 20
7.629801436713711
 30
0.0
 10
5.05762387449639
 20
7.643142402947734
 30
0.0
 10
5.057364203123832
 20
7.648923912485225
 30
0.0
  0
SPLINE
  5
EB
330
1F
100
AcDbEntity
  8
0
  6
Continuous
 62
     7
370
     5
100
AcDbSpline
210
0.0
220
0.0
230
1.0
 70
     8
 71
     3
 72
    11
 73
     7
 74
     0
 42
0.0000000001
 43
0.0000000001
 40
0.0
 40
0.0
 40
0.0
 40
0.0
 40
0.2500023711422708
 40
0.5000032525869857
 40
0.7499991827162436
 40
1.0
 40
1.0
 40
1.0
 40
1.0
 10
5.065201821859275
 20
9.025777735378072
 30
0.0
 10
5.061516773753017
 20
9.01827637494186
 30
0.0
 10
5.054146699498717
 20
9.003273698768053
 30
0.0
 10
5.058016602712829
 20
8.97951914528144
 30
0.0
 10
5.07221624029267
 20
8.957409056956169
 30
0.0
 10
5.088983177291723
 20
8.946250326281345
 30
0.0
 10
5.097366727734405
 20
8.940670906409133
 30
0.0
  0
SPLINE
  5
EC
330
1F
100
AcDbEntity
  8
0
  6
Continuous
 62
     7
370
     5
100
AcDbSpline
210
0.0
220
0.0
230
1.0
 70
     8
 71
     3
 72
    11
 73
     7
 74
     0
 42
0.0000000001
 43
0.0000000001
 40
0.0
 40
0.0
 40
0.0
 40
0.0
 40
0.2499977471846905
 40
0.5000108068717304
 40
0.7500028772892968
 40
1.0
 40
1.0
 40
1.0
 40
1.0
 10
5.111190844241522
 20
9.013278904520126
 30
0.0
 10
5.109994283701623
 20
9.009069281812728
 30
0.0
 10
5.107601089331812
 20
9.000649778556178
 30
0.0
 10
5.108859483880464
 20
8.987615279879522
 30
0.0
 10
5.113468711218133
 20
8.975113848625511
 30
0.0
 10
5.118912831229328
 20
8.967942910233597
 30
0.0
 10
5.121634918740816
 20
8.964357404807175
 30
0.0
  0
LINE
  5
ED
330
1F
100
AcDbEntity
  8
0
  6
Continuous
 62
     7
370
     5
100
AcDbLine
 10
6.401882632357433
 20
6.532148430276644
 30
0.0
 11
6.426150823363843
 21
6.555834928674687
 31
0.0
  0
LINE
  5
EE
330
1F
100
AcDbEntity
  8
0
  6
Continuous
 62
     7
370
     5
100
AcDbLine
 10
5.943464290057772
 20
7.674783120188458
 30
0.0
 11
6.426150823363843
 21
6.555834928674687
 31
0.0
  0
LWPOLYLINE
  5
EF
330
1F
100
AcDbEntity
  8
0
  6
Continuous
 62
     7
370
     5
100
AcDbPolyline
 90
       10
 70
   128
 43
0.0
 10
5.560223128675882
 20
7.99744152856426
 10
5.541733296084004
 20
7.989480917142776
 10
5.505654359079036
 20
7.98655937180109
 10
5.467259263900031
 20
7.996994335963371
 10
5.431180326895067
 20
8.019526845304744
 10
5.401769683987949
 20
8.051439085066437
 10
5.382572136398442
 20
8.088882588145052
 10
5.375903842300597
 20
8.127340972151502
 10
5.382572136398442
 20
8.162174757254881
 10
5.388422718739502
 20
8.173461827082595
  0
ARC
  5
F0
330
1F
100
AcDbEntity
  8
0
  6
Continuous
 62
     7
370
     5
100
AcDbCircle
 10
5.323772467974897
 20
10.08889503198504
 30
0.0
 40
0.1717799011761698
100
AcDbArc
 50
325.6444899748867
 51
3.946445647821624
  0
ARC
  5
F1
330
1F
100
AcDbEntity
  8
0
  6
Continuous
 62
     7
370
     5
100
AcDbCircle
 10
5.469612748286158
 20
10.33838797898755
 30
0.0
 40
0.1717818736258396
100
AcDbArc
 50
325.6447091323982
 51
3.946293534511272
  0
LINE
  5
F2
330
1F
100
AcDbEntity
  8
0
  6
Continuous
 62
     7
370
     5
100
AcDbLine
 10
6.457159116951899
 20
5.445986757273839
 30
0.0
 11
6.481427307958309
 21
5.469673255671882
 31
0.0
  0
LINE
  5
F3
330
1F
100
AcDbEntity
  8
0
  6
Continuous
 62
     7
370
     5
100
AcDbLine
 10
6.457159116951899
 20
6.517445917346372
 30
0.0
 11
6.481427307958309
 21
6.541132415744415
 31
0.0
  0
LINE
  5
F4
330
1F
100
AcDbEntity
  8
0
  6
Continuous
 62
     7
370
     5
100
AcDbLine
 10
6.481427307958309
 20
6.541132415744415
 30
0.0
 11
6.481427307958309
 21
5.469673255671882
 31
0.0
  0
LINE
  5
F5
330
1F
100
AcDbEntity
  8
0
  6
Continuous
 62
     7
370
     5
100
AcDbLine
 10
6.426150823363843
 20
6.555834928674687
 30
0.0
 11
6.481427307958309
 21
6.541132415744415
 31
0.0
  0
ARC
  5
F6
330
1F
100
AcDbEntity
  8
0
  6
Continuous
 62
     7
370
     5
100
AcDbCircle
 10
6.001576181177942
 20
6.907841530576004
 30
0.0
 40
0.0891861696177221
100
AcDbArc
 50
162.1066371661972
 51
286.5040038005563
  0
ARC
  5
F7
330
1F
100
AcDbEntity
  8
0
  6
Continuous
 62
     7
370
     5
100
AcDbCircle
 10
6.27795512236337
 20
6.564862028188346
 30
0.0
 40
0.0891849713814742
100
AcDbArc
 50
162.1060807746002
 51
286.5037835999906
  0
LINE
  5
F8
330
1F
100
AcDbEntity
  8
0
  6
Continuous
 62
     7
370
     5
100
AcDbLine
 10
5.598039608736653
 20
9.46668366894022
 30
0.0
 11
5.620190465539114
 21
9.46066354069676
 31
0.0
  0
ARC
  5
F9
330
1F
100
AcDbEntity
  8
0
  6
Continuous
 62
     7
370
     5
100
AcDbCircle
 10
5.393537708328434
 20
6.965946734638674
 30
0.0
 40
0.0891850525006683
100
AcDbArc
 50
162.1061561505994
 51
286.503692280554
  0
ARC
  5
FA
330
1F
100
AcDbEntity
  8
0
  6
Continuous
 62
     7
370
     5
100
AcDbCircle
 10
5.725194513387428
 20
6.554371769822972
 30
0.0
 40
0.0891850275271529
100
AcDbArc
 50
162.1061491841809
 51
286.50371519041
  0
LINE
  5
FB
330
1F
100
AcDbEntity
  8
0
  6
Continuous
 62
     7
370
     5
100
AcDbLine
 10
5.075255303732395
 20
6.893017763162507
 30
0.0
 11
5.099523494738805
 21
6.91670426156055
 31
0.0
  0
LINE
  5
FC
330
1F
100
AcDbEntity
  8
0
  6
Continuous
 62
     7
370
     5
100
AcDbLine
 10
5.099523494738805
 20
6.91670426156055
 30
0.0
 11
5.18580868836406
 21
6.89325379480126
 31
0.0
  0
ARC
  5
FD
330
1F
100
AcDbEntity
  8
0
  6
Continuous
 62
     7
370
     5
100
AcDbCircle
 10
6.277586687246995
 20
5.600189208013181
 30
0.0
 40
0.0889460217992854
100
AcDbArc
 50
161.8127055671529
 51
286.7971428640016
  0
LINE
  5
FE
330
1F
100
AcDbEntity
  8
0
  6
Continuous
 62
     7
370
     5
100
AcDbLine
 10
5.904398421828321
 20
4.578489318629179
 30
0.0
 11
5.928666612834732
 21
4.602175817027221
 31
0.0
  0
LINE
  5
FF
330
1F
100
AcDbEntity
  8
0
  6
Continuous
 62
     7
370
     5
100
AcDbLine
 10
5.928666612834732
 20
4.602175817027221
 30
0.0
 11
6.411328241214194
 21
5.45870837646182
 31
0.0
  0
ARC
  5
100
330
1F
100
AcDbEntity
  8
0
  6
Continuous
 62
     7
370
     5
100
AcDbCircle
 10
5.724824561603329
 20
5.91113520334726
 30
0.0
 40
0.0889450911616808
100
AcDbArc
 50
161.8115779759144
 51
286.7982863986768
  0
ARC
  5
101
330
1F
100
AcDbEntity
  8
0
  6
Continuous
 62
     7
370
     5
100
AcDbCircle
 10
6.00120769923784
 20
5.407439103488734
 30
0.0
 40
0.0889471794890411
100
AcDbArc
 50
161.8132415369888
 51
286.797399429763
  0
ARC
  5
102
330
1F
100
AcDbEntity
  8
0
  6
Continuous
 62
     7
370
     5
100
AcDbCircle
 10
5.393167667351488
 20
5.6798346451393
 30
0.0
 40
0.0889450436886025
100
AcDbArc
 50
161.8115429043615
 51
286.7983374136699
  0
LINE
  5
103
330
1F
100
AcDbEntity
  8
0
  6
Continuous
 62
     7
370
     5
100
AcDbLine
 10
5.959674906422787
 20
4.563466354548196
 30
0.0
 11
5.983943097429198
 21
4.587152852946238
 31
0.0
  0
LINE
  5
104
330
1F
100
AcDbEntity
  8
0
  6
Continuous
 62
     7
370
     5
100
AcDbLine
 10
5.983943097429198
 20
4.587152852946238
 30
0.0
 11
5.928666612834732
 21
4.602175817027221
 31
0.0
  0
LINE
  5
105
330
1F
100
AcDbEntity
  8
0
  6
Continuous
 62
     7
370
     5
100
AcDbLine
 10
5.462188620483123
 20
3.680626064723956
 30
0.0
 11
5.486456811489533
 21
3.704312563121998
 31
0.0
  0
LINE
  5
106
330
1F
100
AcDbEntity
  8
0
  6
Continuous
 62
     7
370
     5
100
AcDbLine
 10
5.486456811489533
 20
3.704312563121998
 30
0.0
 11
5.983943097429198
 21
4.587152852946238
 31
0.0
  0
LINE
  5
107
330
1F
100
AcDbEntity
  8
0
  6
Continuous
 62
     7
370
     5
100
AcDbLine
 10
5.097366727734405
 20
5.108386166303488
 30
0.0
 11
5.121634918740816
 21
5.13207266470153
 31
0.0
  0
LWPOLYLINE
  5
108
330
1F
100
AcDbEntity
  8
0
  6
Continuous
 62
     7
370
     5
100
AcDbPolyline
 90
        3
 70
   128
 43
0.0
 10
5.149713148074694
 20
5.148733535722864
 10
5.141201889408256
 20
5.142775201700112
 10
5.121634918740816
 20
5.13207266470153
  0
LINE
  5
109
330
1F
100
AcDbEntity
  8
0
  6
Continuous
 62
     7
370
     5
100
AcDbLine
 10
5.114673876846095
 20
5.126620136675388
 30
0.0
 11
5.121634918740816
 21
5.13207266470153
 31
0.0
  0
SPLINE
  5
10A
330
1F
100
AcDbEntity
  8
0
  6
Continuous
 62
     7
370
     5
100
AcDbSpline
210
0.0
220
0.0
230
1.0
 70
     8
 71
     3
 72
    13
 73
     9
 74
     0
 42
0.0000000001
 43
0.0000000001
 40
0.0
 40
0.0
 40
0.0
 40
0.0
 40
0.092200234820898
 40
0.2694367124473433
 40
0.4461212218761366
 40
0.6310337945855055
 40
0.7925788476618445
 40
0.9999999999999998
 40
0.9999999999999998
 40
0.9999999999999998
 40
0.9999999999999998
 10
5.057695996565988
 20
5.126551682052331
 30
0.0
 10
5.057153263425271
 20
5.125653559385776
 30
0.0
 10
5.055567234566901
 20
5.123028975846266
 30
0.0
 10
5.057073016800357
 20
5.118379800848458
 30
0.0
 10
5.062090746668398
 20
5.112317040979706
 30
0.0
 10
5.070502755396288
 20
5.109428870400584
 30
0.0
 10
5.082061835989533
 20
5.107784683488833
 30
0.0
 10
5.091859045722591
 20
5.108169714195632
 30
0.0
 10
5.097366727734409
 20
5.108386166303488
 30
0.0
  0
SPLINE
  5
10B
330
1F
100
AcDbEntity
  8
0
  6
Continuous
 62
     7
370
     5
100
AcDbSpline
210
0.0
220
0.0
230
1.0
 70
     8
 71
     3
 72
    13
 73
     9
 74
     0
 42
0.0000000001
 43
0.0000000001
 40
0.0
 40
0.0
 40
0.0
 40
0.0
 40
0.2063853106007337
 40
0.4119311317244996
 40
0.6167083711829181
 40
0.8207568888058688
 40
0.8972209642523496
 40
1.0
 40
1.0
 40
1.0
 40
1.0
 10
5.097366727734409
 20
3.761886637336865
 30
0.0
 10
5.092468454395451
 20
3.762043459239933
 30
0.0
 10
5.082691831853172
 20
3.762356465159889
 30
0.0
 10
5.070979976023446
 20
3.765144052763699
 30
0.0
 10
5.062234320847327
 20
3.769023287667216
 30
0.0
 10
5.058173092555894
 20
3.773489142369803
 30
0.0
 10
5.056510840841117
 20
3.776184240774299
 30
0.0
 10
5.056461481847247
 20
3.77715382026148
 30
0.0
 10
5.056433179114947
 20
3.777709782742316
 30
0.0
  0
LINE
  5
10C
330
1F
100
AcDbEntity
  8
0
  6
Continuous
 62
     7
370
     5
100
AcDbLine
 10
5.675313106593565
 20
4.039458582344887
 30
0.0
 11
5.795044167809585
 21
3.684727813813144
 31
0.0
  0
LINE
  5
10D
330
1F
100
AcDbEntity
  8
0
  6
Continuous
 62
     7
370
     5
100
AcDbLine
 10
5.795044167809585
 20
3.684727813813144
 30
0.0
 11
5.824212610014248
 21
3.713197107604825
 31
0.0
  0
LINE
  5
10E
330
1F
100
AcDbEntity
  8
0
  6
Continuous
 62
     7
370
     5
100
AcDbLine
 10
5.824212610014248
 20
3.713197107604825
 30
0.0
 11
5.824212610014248
 21
2.481019060949771
 31
0.0
  0
LINE
  5
10F
330
1F
100
AcDbEntity
  8
0
  6
Continuous
 62
     7
370
     5
100
AcDbLine
 10
5.824212610014248
 20
2.481019060949771
 30
0.0
 11
5.095001007314817
 21
1.769286181700034
 31
0.0
  0
LINE
  5
110
330
1F
100
AcDbEntity
  8
0
  6
Continuous
 62
     7
370
     5
100
AcDbLine
 10
5.095001007314817
 20
1.769286181700034
 30
0.0
 11
5.095001007314817
 21
3.001464228355087
 31
0.0
  0
LINE
  5
111
330
1F
100
AcDbEntity
  8
0
  6
Continuous
 62
     7
370
     5
100
AcDbLine
 10
5.095001007314817
 20
3.001464228355087
 30
0.0
 11
5.15333802861987
 21
3.05840294955288
 31
0.0
  0
LINE
  5
112
330
1F
100
AcDbEntity
  8
0
  6
Continuous
 62
     7
370
     5
100
AcDbLine
 10
5.15333802861987
 20
3.05840294955288
 30
0.0
 11
5.15333802861987
 21
3.647705701310686
 31
0.0
  0
ARC
  5
113
330
1F
100
AcDbEntity
  8
0
  6
Continuous
 62
     7
370
     5
100
AcDbCircle
 10
4.995324646156055
 20
3.666678523827685
 30
0.0
 40
0.1591483491334968
100
AcDbArc
 50
353.1532172007804
 51
37.67584211028336
  0
LWPOLYLINE
  5
114
330
1F
100
AcDbEntity
  8
0
  6
Continuous
 62
     7
370
     5
100
AcDbPolyline
 90
       17
 70
   128
 43
0.0
 10
5.669269707579779
 20
2.544082222199953
 10
5.672182780322811
 20
2.57382325253444
 10
5.680478456378102
 20
2.604723033530207
 10
5.692893804164043
 20
2.632077120633817
 10
5.707538772747742
 20
2.651721549704401
 10
5.722183672883568
 20
2.660664930426509
 10
5.734599020669514
 20
2.657546363421221
 10
5.742894696724806
 20
2.642840250716798
 10
5.745807769467837
 20
2.618785716985454
 10
5.742894696724806
 20
2.589044183785292
 10
5.734599020669514
 20
2.558144402789527
 10
5.722183672883568
 20
2.530790315685917
 10
5.707538772747742
 20
2.511145953422549
 10
5.692893804164043
 20
2.502202505893225
 10
5.680478456378102
 20
2.505321072898512
 10
5.672182780322811
 20
2.520027185602933
 10
5.669269707579779
 20
2.544082222199953
  0
LWPOLYLINE
  5
115
330
1F
100
AcDbEntity
  8
0
  6
Continuous
 62
     7
370
     5
100
AcDbPolyline
 90
       17
 70
   128
 43
0.0
 10
5.260911242923071
 20
2.199084636459847
 10
5.263824315666103
 20
2.228825666794334
 10
5.272119991721394
 20
2.259725447790098
 10
5.28453533950734
 20
2.287080037759382
 10
5.299180308091035
 20
2.306723963964292
 10
5.313825208226865
 20
2.315667847552074
 10
5.326240556012807
 20
2.312548777681113
 10
5.334536232068103
 20
2.297842664976692
 10
5.33744930481113
 20
2.273788131245347
 10
5.334536232068103
 20
2.244047100910858
 10
5.326240556012807
 20
2.213147319915091
 10
5.313825208226865
 20
2.18579272994581
 10
5.299180308091035
 20
2.166148870548114
 10
5.28453533950734
 20
2.157204920153118
 10
5.272119991721394
 20
2.160323990024077
 10
5.263824315666103
 20
2.1750301027285
 10
5.260911242923071
 20
2.199084636459847
  0
LWPOLYLINE
  5
116
330
1F
100
AcDbEntity
  8
0
  6
Continuous
 62
     7
370
     5
100
AcDbPolyline
 90
       17
 70
   128
 43
0.0
 10
5.23174286916628
 20
3.027782636960274
 10
5.234655873461444
 20
3.057523851920382
 10
5.242951549516736
 20
3.088423632916147
 10
5.255366897302682
 20
3.115777720019758
 10
5.270011797438508
 20
3.135422082283125
 10
5.284656766022203
 20
3.144365529812449
 10
5.297072113808148
 20
3.141246962807162
 10
5.305367789863439
 20
3.12654085010274
 10
5.308280862606471
 20
3.102486064938558
 10
5.305367789863439
 20
3.07274503460407
 10
5.297072113808148
 20
3.041845002175467
 10
5.284656766022203
 20
3.014490915071856
 10
5.270011797438508
 20
2.994846737434111
 10
5.255366897302682
 20
2.985903105279165
 10
5.242951549516736
 20
2.989021672284452
 10
5.234655873461444
 20
3.003728036421711
 10
5.23174286916628
 20
3.027782636960274
  0
LWPOLYLINE
  5
117
330
1F
100
AcDbEntity
  8
0
  6
Continuous
 62
     7
370
     5
100
AcDbPolyline
 90
       17
 70
   128
 43
0.0
 10
5.202574358513754
 20
3.323745363181846
 10
5.205487362808918
 20
3.353486326709116
 10
5.213783107312077
 20
3.384386425944935
 10
5.226198455098018
 20
3.411740513048545
 10
5.24084335523385
 20
3.431384623879075
 10
5.255488255369677
 20
3.440328256034021
 10
5.26790367160349
 20
3.43720975583595
 10
5.276199347658781
 20
3.422503391698691
 10
5.279112351953945
 20
3.39844879116013
 10
5.276199347658781
 20
3.368707576200022
 10
5.26790367160349
 20
3.337807795204255
 10
5.255488255369677
 20
3.310453389860593
 10
5.24084335523385
 20
3.290809279030061
 10
5.226198455098018
 20
3.281865646875117
 10
5.213783107312077
 20
3.28498446531324
 10
5.205487362808918
 20
3.299690511210448
 10
5.202574358513754
 20
3.323745363181846
  0
LWPOLYLINE
  5
118
330
1F
100
AcDbEntity
  8
0
  6
Continuous
 62
     7
370
     5
100
AcDbPolyline
 90
       17
 70
   128
 43
0.0
 10
5.465090475251425
 20
3.472823048911162
 10
5.468003547994457
 20
3.502564330678489
 10
5.476299224049748
 20
3.533464111674251
 10
5.488714571835694
 20
3.560818450210699
 10
5.503359540419388
 20
3.580462627848445
 10
5.518004440555219
 20
3.589406260003389
 10
5.53041978834116
 20
3.586287441565268
 10
5.538715464396452
 20
3.571581328860844
 10
5.541628537139484
 20
3.547526543696664
 10
5.538715464396452
 20
3.517785513362174
 10
5.53041978834116
 20
3.486885732366408
 10
5.518004440555219
 20
3.45953139382996
 10
5.503359540419388
 20
3.439887282999431
 10
5.488714571835694
 20
3.430943584037271
 10
5.476299224049748
 20
3.434062402475392
 10
5.468003547994457
 20
3.448768515179817
 10
5.465090475251425
 20
3.472823048911162
  0
LWPOLYLINE
  5
119
330
1F
100
AcDbEntity
  8
0
  6
Continuous
 62
     7
370
     5
100
AcDbPolyline
 90
       17
 70
   128
 43
0.0
 10
5.610932823170458
 20
3.508023810906594
 10
5.613845895913489
 20
3.537765092673919
 10
5.62214157196878
 20
3.568664873669683
 10
5.634556919754726
 20
3.596018960773294
 10
5.649201819890553
 20
3.615663323036661
 10
5.663846720026383
 20
3.624606703758768
 10
5.676262136260193
 20
3.6214882035607
 10
5.684557812315484
 20
3.606782090856275
 10
5.687470816610653
 20
3.582727238884879
 10
5.684557812315484
 20
3.552986275357604
 10
5.676262136260193
 20
3.522086242929003
 10
5.663846720026383
 20
3.494732089018177
 10
5.649201819890553
 20
3.475087978187648
 10
5.634556919754726
 20
3.466144346032703
 10
5.62214157196878
 20
3.469262913037987
 10
5.613845895913489
 20
3.483969277175248
 10
5.610932823170458
 20
3.508023810906594
  0
LWPOLYLINE
  5
11A
330
1F
100
AcDbEntity
  8
0
  6
Continuous
 62
     7
370
     5
100
AcDbPolyline
 90
       10
 70
   128
 43
0.0
 10
5.388422718739502
 20
4.530500858838967
 10
5.382572136398442
 20
4.519213663294835
 10
5.375903842300597
 20
4.484379878191457
 10
5.382572136398442
 20
4.445921494185005
 10
5.401769683987949
 20
4.408478116822807
 10
5.431180326895067
 20
4.376565877061116
 10
5.467259263900031
 20
4.354033367719742
 10
5.505654359079036
 20
4.343598403557461
 10
5.541733296084004
 20
4.346519948899148
 10
5.560223128675882
 20
4.354480560320632
  0
LINE
  5
11B
330
1F
100
AcDbEntity
  8
0
  6
Continuous
 62
     7
370
     5
100
AcDbLine
 10
5.107349006237623
 20
3.660204532168631
 30
0.0
 11
5.15333802861987
 21
3.647705701310686
 31
0.0
  0
ARC
  5
11C
330
1F
100
AcDbEntity
  8
0
  6
Continuous
 62
     7
370
     5
100
AcDbCircle
 10
4.914345387746511
 20
3.672854736116547
 30
0.0
 40
0.1934177458523049
100
AcDbArc
 50
356.2499768088455
 51
29.17819833024574
  0
LINE
  5
11D
330
1F
100
AcDbEntity
  8
0
  6
Continuous
 62
     7
370
     5
100
AcDbLine
 10
5.107349006237623
 20
3.070901780410825
 30
0.0
 11
5.15333802861987
 21
3.05840294955288
 31
0.0
  0
LINE
  5
11E
330
1F
100
AcDbEntity
  8
0
  6
Continuous
 62
     7
370
     5
100
AcDbLine
 10
5.107349006237623
 20
3.070901780410825
 30
0.0
 11
5.107349006237623
 21
3.660204532168631
 31
0.0
  0
LINE
  5
11F
330
1F
100
AcDbEntity
  8
0
  6
Continuous
 62
     7
370
     5
100
AcDbLine
 10
5.049011984932571
 20
3.013963059213033
 30
0.0
 11
5.095001007314817
 21
3.001464228355087
 31
0.0
  0
LINE
  5
120
330
1F
100
AcDbEntity
  8
0
  6
Continuous
 62
     7
370
     5
100
AcDbLine
 10
5.049011984932571
 20
3.013963059213033
 30
0.0
 11
5.107349006237623
 21
3.070901780410825
 31
0.0
  0
LINE
  5
121
330
1F
100
AcDbEntity
  8
0
  6
Continuous
 62
     7
370
     5
100
AcDbLine
 10
5.049011984932571
 20
1.781785012557979
 30
0.0
 11
5.095001007314817
 21
1.769286181700034
 31
0.0
  0
LINE
  5
122
330
1F
100
AcDbEntity
  8
0
  6
Continuous
 62
     7
370
     5
100
AcDbLine
 10
5.049011984932571
 20
1.781785012557979
 30
0.0
 11
5.049011984932571
 21
3.013963059213033
 31
0.0
  0
LINE
  5
123
330
1F
100
AcDbEntity
  8
0
  6
Continuous
 62
     7
370
     5
100
AcDbLine
 10
5.233123329571698
 20
3.410947622018075
 30
0.0
 11
5.232628862185349
 21
3.421727689189442
 31
0.0
  0
ARC
  5
124
330
1F
100
AcDbEntity
  8
0
  6
Continuous
 62
     7
370
     5
100
AcDbCircle
 10
5.054645052313699
 20
3.412091058004708
 30
0.0
 40
0.17848193997948
100
AcDbArc
 50
326.2628021839284
 51
359.6329348261347
  0
LINE
  5
125
330
1F
100
AcDbEntity
  8
0
  6
Continuous
 62
     7
370
     5
100
AcDbLine
 10
5.262291840224225
 20
3.114984895796503
 30
0.0
 11
5.261797304390007
 21
3.125764896160654
 31
0.0
  0
ARC
  5
126
330
1F
100
AcDbEntity
  8
0
  6
Continuous
 62
     7
370
     5
100
AcDbCircle
 10
5.083813353812377
 20
3.116128650303524
 30
0.0
 40
0.1784821511699043
100
AcDbArc
 50
326.2628215641036
 51
359.6328330079601
  0
LINE
  5
127
330
1F
100
AcDbEntity
  8
0
  6
Continuous
 62
     7
370
     5
100
AcDbLine
 10
5.495639514757237
 20
3.560025374554609
 30
0.0
 11
5.495145047370888
 21
3.570805441725971
 31
0.0
  0
ARC
  5
128
330
1F
100
AcDbEntity
  8
0
  6
Continuous
 62
     7
370
     5
100
AcDbCircle
 10
5.317160313807406
 20
3.561169348229477
 30
0.0
 40
0.1784828670978227
100
AcDbArc
 50
326.2628904490455
 51
359.6327641230188
  0
LINE
  5
129
330
1F
100
AcDbEntity
  8
0
  6
Continuous
 62
     7
370
     5
100
AcDbLine
 10
5.641481794228406
 20
3.595226069742824
 30
0.0
 11
5.640987326842052
 21
3.60600613691419
 31
0.0
  0
ARC
  5
12A
330
1F
100
AcDbEntity
  8
0
  6
Continuous
 62
     7
370
     5
100
AcDbCircle
 10
5.463004197355669
 20
3.59636955140449
 30
0.0
 40
0.1784812599008024
100
AcDbArc
 50
326.2627358074269
 51
359.6329187646335
  0
LINE
  5
12B
330
1F
100
AcDbEntity
  8
0
  6
Continuous
 62
     7
370
     5
100
AcDbLine
 10
5.291460282428883
 20
2.286286962103293
 30
0.0
 11
5.290965815042534
 21
2.297067029274657
 31
0.0
  0
ARC
  5
12C
330
1F
100
AcDbEntity
  8
0
  6
Continuous
 62
     7
370
     5
100
AcDbCircle
 10
5.11297995794204
 20
2.287431026027967
 30
0.0
 40
0.1784839911902257
100
AcDbArc
 50
326.2629995461718
 51
359.6327374638963
  0
LINE
  5
12D
330
1F
100
AcDbEntity
  8
0
  6
Continuous
 62
     7
370
     5
100
AcDbLine
 10
5.781519339585745
 20
3.724800223701165
 30
0.0
 11
5.824212610014248
 21
3.713197107604825
 31
0.0
  0
LINE
  5
12E
330
1F
100
AcDbEntity
  8
0
  6
Continuous
 62
     7
370
     5
100
AcDbLine
 10
5.699818747085591
 20
2.631284547843399
 30
0.0
 11
5.699324279699242
 21
2.642064615014765
 31
0.0
  0
ARC
  5
12F
330
1F
100
AcDbEntity
  8
0
  6
Continuous
 62
     7
370
     5
100
AcDbCircle
 10
5.521340737953445
 20
2.632427901588897
 30
0.0
 40
0.1784816713322734
100
AcDbArc
 50
326.2627763350312
 51
359.6329606750312
  0
LINE
  5
130
330
1F
100
AcDbEntity
  8
0
  6
Continuous
 62
     8
370
     5
100
AcDbLine
 10
5.111190844241522
 20
9.013278904520126
 30
0.0
 11
5.111190844241522
 21
8.983005636650943
 31
0.0
  0
ENDSEC
  0
SECTION
  2
OBJECTS
  0
DICTIONARY
  5
C
330
0
100
AcDbDictionary
281
     1
  3
ACAD_COLOR
350
133
  3
ACAD_GROUP
350
D
  3
ACAD_LAYOUT
350
1A
  3
ACAD_MATERIAL
350
132
  3
ACAD_MLINESTYLE
350
17
  3
ACAD_PLOTSETTINGS
350
19
  3
ACAD_PLOTSTYLENAME
350
E
  3
ACAD_SCALELIST
350
47
  0
DICTIONARY
  5
133
102
{ACAD_REACTORS
330
C
102
}
330
C
100
AcDbDictionary
281
     1
  0
DICTIONARY
  5
D
102
{ACAD_REACTORS
330
C
102
}
330
C
100
AcDbDictionary
281
     1
  0
DICTIONARY
  5
1A
102
{ACAD_REACTORS
330
C
102
}
330
C
100
AcDbDictionary
281
     1
  3
Layout1
350
1E
  3
Layout2
350
26
  3
Model
350
22
  0
DICTIONARY
  5
132
102
{ACAD_REACTORS
330
C
102
}
330
C
100
AcDbDictionary
281
     1
  0
DICTIONARY
  5
17
102
{ACAD_REACTORS
330
C
102
}
330
C
100
AcDbDictionary
281
     1
  3
Standard
350
18
  0
DICTIONARY
  5
19
102
{ACAD_REACTORS
330
C
102
}
330
C
100
AcDbDictionary
281
     1
  0
ACDBDICTIONARYWDFLT
  5
E
102
{ACAD_REACTORS
330
C
102
}
330
C
100
AcDbDictionary
281
     1
  3
Normal
350
F
100
AcDbDictionaryWithDefault
340
F
  0
DICTIONARY
  5
47
102
{ACAD_REACTORS
330
C
102
}
330
C
100
AcDbDictionary
281
     1
  3
A0
350
48
  3
A1
350
49
  3
A2
350
4A
  3
A3
350
4B
  3
A4
350
4C
  3
A5
350
4D
  3
A6
350
4E
  3
A7
350
4F
  3
A8
350
50
  3
A9
350
51
  3
B0
350
52
  3
B1
350
53
  3
B2
350
54
  3
B3
350
55
  3
B4
350
56
  3
B5
350
57
  3
B6
350
58
  3
B7
350
59
  3
B8
350
5A
  3
B9
350
5B
  3
C0
350
5C
  3
C1
350
5D
  3
C2
350
5E
  3
C3
350
5F
  3
C4
350
60
  3
C5
350
61
  3
C6
350
62
  3
C7
350
63
  3
C8
350
64
  3
C9
350
65
  3
D0
350
66
  3
D1
350
67
  3
D2
350
68
  0
LAYOUT
  5
1E
102
{ACAD_REACTORS
330
1A
102
}
330
1A
100
AcDbPlotSettings
  1

  2
none_device
  4

  6

 40
0.0
 41
0.0
 42
0.0
 43
0.0
 44
0.0
 45
0.0
 46
0.0
 47
0.0
 48
0.0
 49
0.0
140
0.0
141
0.0
142
1.0
143
1.0
 70
   688
 72
     0
 73
     0
 74
     5
  7

 75
    16
147
1.0
 76
     0
 77
     2
 78
   300
148
0.0
149
0.0
100
AcDbLayout
  1
Layout1
 70
     1
 71
     1
 10
0.0
 20
0.0
 11
12.0
 21
9.0
 12
0.0
 22
0.0
 32
0.0
 14
1.000000000000000E+20
 24
1.000000000000000E+20
 34
1.000000000000000E+20
 15
-1.000000000000000E+20
 25
-1.000000000000000E+20
 35
-1.000000000000000E+20
146
0.0
 13
0.0
 23
0.0
 33
0.0
 16
1.0
 26
0.0
 36
0.0
 17
0.0
 27
1.0
 37
0.0
 76
     0
330
1B
  0
LAYOUT
  5
26
102
{ACAD_REACTORS
330
1A
102
}
330
1A
100
AcDbPlotSettings
  1

  2
none_device
  4

  6

 40
0.0
 41
0.0
 42
0.0
 43
0.0
 44
0.0
 45
0.0
 46
0.0
 47
0.0
 48
0.0
 49
0.0
140
0.0
141
0.0
142
1.0
143
1.0
 70
   688
 72
     0
 73
     0
 74
     5
  7

 75
    16
147
1.0
 76
     0
 77
     2
 78
   300
148
0.0
149
0.0
100
AcDbLayout
  1
Layout2
 70
     1
 71
     2
 10
0.0
 20
0.0
 11
0.0
 21
0.0
 12
0.0
 22
0.0
 32
0.0
 14
0.0
 24
0.0
 34
0.0
 15
0.0
 25
0.0
 35
0.0
146
0.0
 13
0.0
 23
0.0
 33
0.0
 16
1.0
 26
0.0
 36
0.0
 17
0.0
 27
1.0
 37
0.0
 76
     0
330
23
  0
LAYOUT
  5
22
102
{ACAD_REACTORS
330
1A
102
}
330
1A
100
AcDbPlotSettings
  1

  2
none_device
  4
Letter_(8.50_x_11.00_Inches)
  6

 40
6.349999999999999
 41
6.349999999999999
 42
6.350005079999999
 43
6.350005079999999
 44
215.9
 45
279.4
 46
0.0
 47
0.0
 48
0.0
 49
0.0
140
0.0
141
0.0
142
1.0
143
1.0
 70
  1712
 72
     0
 73
     0
 74
     0
  7

 75
     0
147
1.0
 76
     0
 77
     2
 78
   300
148
0.0
149
0.0
100
AcDbLayout
  1
Model
 70
     1
 71
     0
 10
0.0
 20
0.0
 11
11.0
 21
8.5
 12
0.0
 22
0.0
 32
0.0
 14
0.0
 24
0.0
 34
0.0
 15
11.0
 25
8.5
 35
0.0
146
0.0
 13
0.0
 23
0.0
 33
0.0
 16
1.0
 26
0.0
 36
0.0
 17
0.0
 27
1.0
 37
0.0
 76
     0
330
1F
  0
MLINESTYLE
  5
18
102
{ACAD_REACTORS
330
17
102
}
330
17
100
AcDbMlineStyle
  2
STANDARD
 70
     0
  3

 62
   256
 51
90.0
 52
90.0
 71
     2
 49
0.5
 62
   256
  6
BYLAYER
 49
-0.5
 62
   256
  6
BYLAYER
  0
ACDBPLACEHOLDER
  5
F
102
{ACAD_REACTORS
330
E
102
}
330
E
  0
ACAD_PROXY_OBJECT
  5
48
102
{ACAD_REACTORS
330
47
102
}
330
47
100
AcDbProxyObject
 90
      499
 91
      503
 95
   393239
 70
     0
 93
       41
310
903313A31580
 94
        0
  0
ACAD_PROXY_OBJECT
  5
49
102
{ACAD_REACTORS
330
47
102
}
330
47
100
AcDbProxyObject
 90
      499
 91
      503
 95
   393239
 70
     0
 93
      105
310
903313A324000000000000004000
 94
        0
  0
ACAD_PROXY_OBJECT
  5
4A
102
{ACAD_REACTORS
330
47
102
}
330
47
100
AcDbProxyObject
 90
      499
 91
      503
 95
   393239
 70
     0
 93
      105
310
903313A344000000000000104000
 94
        0
  0
ACAD_PROXY_OBJECT
  5
4B
102
{ACAD_REACTORS
330
47
102
}
330
47
100
AcDbProxyObject
 90
      499
 91
      503
 95
   393239
 70
     0
 93
      105
310
903313A354000000000000144000
 94
        0
  0
ACAD_PROXY_OBJECT
  5
4C
102
{ACAD_REACTORS
330
47
102
}
330
47
100
AcDbProxyObject
 90
      499
 91
      503
 95
   393239
 70
     0
 93
      105
310
903313A384000000000000204000
 94
        0
  0
ACAD_PROXY_OBJECT
  5
4D
102
{ACAD_REACTORS
330
47
102
}
330
47
100
AcDbProxyObject
 90
      499
 91
      503
 95
   393239
 70
     0
 93
      113
310
904313A31304000000000000244000
 94
        0
  0
ACAD_PROXY_OBJECT
  5
4E
102
{ACAD_REACTORS
330
47
102
}
330
47
100
AcDbProxyObject
 90
      499
 91
      503
 95
   393239
 70
     0
 93
      113
310
904313A31364000000000000304000
 94
        0
  0
ACAD_PROXY_OBJECT
  5
4F
102
{ACAD_REACTORS
330
47
102
}
330
47
100
AcDbProxyObject
 90
      499
 91
      503
 95
   393239
 70
     0
 93
      113
310
904313A32304000000000000344000
 94
        0
  0
ACAD_PROXY_OBJECT
  5
50
102
{ACAD_REACTORS
330
47
102
}
330
47
100
AcDbProxyObject
 90
      499
 91
      503
 95
   393239
 70
     0
 93
      113
310
904313A333040000000000003E4000
 94
        0
  0
ACAD_PROXY_OBJECT
  5
51
102
{ACAD_REACTORS
330
47
102
}
330
47
100
AcDbProxyObject
 90
      499
 91
      503
 95
   393239
 70
     0
 93
      113
310
904313A34304000000000000444000
 94
        0
  0
ACAD_PROXY_OBJECT
  5
52
102
{ACAD_REACTORS
330
47
102
}
330
47
100
AcDbProxyObject
 90
      499
 91
      503
 95
   393239
 70
     0
 93
      113
310
904313A35304000000000000494000
 94
        0
  0
ACAD_PROXY_OBJECT
  5
53
102
{ACAD_REACTORS
330
47
102
}
330
47
100
AcDbProxyObject
 90
      499
 91
      503
 95
   393239
 70
     0
 93
      121
310
905313A3130304000000000000594000
 94
        0
  0
ACAD_PROXY_OBJECT
  5
54
102
{ACAD_REACTORS
330
47
102
}
330
47
100
AcDbProxyObject
 90
      499
 91
      503
 95
   393239
 70
     0
 93
      105
310
903323A310000000000000010140
 94
        0
  0
ACAD_PROXY_OBJECT
  5
55
102
{ACAD_REACTORS
330
47
102
}
330
47
100
AcDbProxyObject
 90
      499
 91
      503
 95
   393239
 70
     0
 93
      105
310
903343A310000000000000410159
 94
        0
  0
ACAD_PROXY_OBJECT
  5
56
102
{ACAD_REACTORS
330
47
102
}
330
47
100
AcDbProxyObject
 90
      499
 91
      503
 95
   393239
 70
     0
 93
      105
310
903383A310000000000000810140
 94
        0
  0
ACAD_PROXY_OBJECT
  5
57
102
{ACAD_REACTORS
330
47
102
}
330
47
100
AcDbProxyObject
 90
      499
 91
      503
 95
   393239
 70
     0
 93
      113
310
90431303A310000000000000910140
 94
        0
  0
ACAD_PROXY_OBJECT
  5
58
102
{ACAD_REACTORS
330
47
102
}
330
47
100
AcDbProxyObject
 90
      499
 91
      503
 95
   393239
 70
     0
 93
      121
310
9053130303A310000000000001650100
 94
        0
  0
ACAD_PROXY_OBJECT
  5
59
102
{ACAD_REACTORS
330
47
102
}
330
47
100
AcDbProxyObject
 90
      499
 91
      503
 95
   393239
 70
     0
 93
      257
310
90E312F31323822203D2031272D3022000000000000200FC000000000000284000
 94
        0
  0
ACAD_PROXY_OBJECT
  5
5A
102
{ACAD_REACTORS
330
47
102
}
330
47
100
AcDbProxyObject
 90
      499
 91
      503
 95
   393239
 70
     0
 93
      249
310
90D312F363422203D2031272D3022000000000000240FC000000000000284000
 94
        0
  0
ACAD_PROXY_OBJECT
  5
5B
102
{ACAD_REACTORS
330
47
102
}
330
47
100
AcDbProxyObject
 90
      499
 91
      503
 95
   393239
 70
     0
 93
      249
310
90D312F333222203D2031272D3022000000000000280FC000000000000284040
 94
        0
  0
ACAD_PROXY_OBJECT
  5
5C
102
{ACAD_REACTORS
330
47
102
}
330
47
100
AcDbProxyObject
 90
      499
 91
      503
 95
   393239
 70
     0
 93
      249
310
90D312F313622203D2031272D30220000000000002C0FC000000000000284000
 94
        0
  0
ACAD_PROXY_OBJECT
  5
5D
102
{ACAD_REACTORS
330
47
102
}
330
47
100
AcDbProxyObject
 90
      499
 91
      503
 95
   393239
 70
     0
 93
      249
310
90D332F333222203D2031272D30220000000000002E0FC000000000000284040
 94
        0
  0
ACAD_PROXY_OBJECT
  5
5E
102
{ACAD_REACTORS
330
47
102
}
330
47
100
AcDbProxyObject
 90
      499
 91
      503
 95
   393239
 70
     0
 93
      241
310
90C312F3822203D2031272D3022000000000000300FC000000000000284040
 94
        0
  0
ACAD_PROXY_OBJECT
  5
5F
102
{ACAD_REACTORS
330
47
102
}
330
47
100
AcDbProxyObject
 90
      499
 91
      503
 95
   393239
 70
     0
 93
      249
310
90D332F313622203D2031272D3022000000000000320FC000000000000284040
 94
        0
  0
ACAD_PROXY_OBJECT
  5
60
102
{ACAD_REACTORS
330
47
102
}
330
47
100
AcDbProxyObject
 90
      499
 91
      503
 95
   393239
 70
     0
 93
      241
310
90C312F3422203D2031272D3022000000000000340FC000000000000284040
 94
        0
  0
ACAD_PROXY_OBJECT
  5
61
102
{ACAD_REACTORS
330
47
102
}
330
47
100
AcDbProxyObject
 90
      499
 91
      503
 95
   393239
 70
     0
 93
      241
310
90C332F3822203D2031272D3022000000000000360FC000000000000284040
 94
        0
  0
ACAD_PROXY_OBJECT
  5
62
102
{ACAD_REACTORS
330
47
102
}
330
47
100
AcDbProxyObject
 90
      499
 91
      503
 95
   393239
 70
     0
 93
      241
310
90C312F3222203D2031272D3022000000000000380FC000000000000284040
 94
        0
  0
ACAD_PROXY_OBJECT
  5
63
102
{ACAD_REACTORS
330
47
102
}
330
47
100
AcDbProxyObject
 90
      499
 91
      503
 95
   393239
 70
     0
 93
      241
310
90C332F3422203D2031272D30220000000000003A0FC000000000000284040
 94
        0
  0
ACAD_PROXY_OBJECT
  5
64
102
{ACAD_REACTORS
330
47
102
}
330
47
100
AcDbProxyObject
 90
      499
 91
      503
 95
   393239
 70
     0
 93
      161
310
90A3122203D2031272D30224000000000000284000
 94
        0
  0
ACAD_PROXY_OBJECT
  5
65
102
{ACAD_REACTORS
330
47
102
}
330
47
100
AcDbProxyObject
 90
      499
 91
      503
 95
   393239
 70
     0
 93
      257
310
90E312D312F3222203D2031272D30220000000000003E0FC000000000000284000
 94
        0
  0
ACAD_PROXY_OBJECT
  5
66
102
{ACAD_REACTORS
330
47
102
}
330
47
100
AcDbProxyObject
 90
      499
 91
      503
 95
   393239
 70
     0
 93
      225
310
90A3322203D2031272D302200000000000002100000000000000284028
 94
        0
  0
ACAD_PROXY_OBJECT
  5
67
102
{ACAD_REACTORS
330
47
102
}
330
47
100
AcDbProxyObject
 90
      499
 91
      503
 95
   393239
 70
     0
 93
      225
310
90A3622203D2031272D302200000000000006100000000000000284000
 94
        0
  0
ACAD_PROXY_OBJECT
  5
68
102
{ACAD_REACTORS
330
47
102
}
330
47
100
AcDbProxyObject
 90
      499
 91
      503
 95
   393239
 70
     0
 93
      249
310
90D31272D3022203D2031272D30220000000000000A100000000000000284000
 94
        0
  0
ENDSEC
  0
EOF
