  0
SECTION
  2
HEADER
  9
$ACADVER
  1
AC1027
  9
$ACADMAINTVER
 70
   125
  9
$DWGCODEPAGE
  3
ANSI_1252
  9
$LASTSAVEDBY
  1
717874
  9
$REQUIREDVERSIONS
160
                 0
  9
$INSBASE
 10
0.0
 20
0.0
 30
0.0
  9
$EXTMIN
 10
-1669.727972433093
 20
-901.6172228322036
 30
0.0
  9
$EXTMAX
 10
-829.7279724330953
 20
286.3827771677953
 30
0.0
  9
$LIMMIN
 10
0.0
 20
0.0
  9
$LIMMAX
 10
12.0
 20
9.0
  9
$ORTHOMODE
 70
     1
  9
$REGENMODE
 70
     1
  9
$FILLMODE
 70
     1
  9
$QTEXTMODE
 70
     0
  9
$MIRRTEXT
 70
     1
  9
$LTSCALE
 40
1.0
  9
$ATTMODE
 70
     1
  9
$TEXTSIZE
 40
0.25
  9
$TRACEWID
 40
0.05
  9
$TEXTSTYLE
  7
STANDARD
  9
$CLAYER
  8
0
  9
$CELTYPE
  6
BYLAYER
  9
$CECOLOR
 62
   256
  9
$CELTSCALE
 40
1.0
  9
$DISPSILH
 70
     0
  9
$DIMSCALE
 40
1.0
  9
$DIMASZ
 40
3.5
  9
$DIMEXO
 40
2.0
  9
$DIMDLI
 40
12.0
  9
$DIMRND
 40
0.0
  9
$DIMDLE
 40
0.0
  9
$DIMEXE
 40
1.5
  9
$DIMTP
 40
0.0
  9
$DIMTM
 40
0.0
  9
$DIMTXT
 40
3.0
  9
$DIMCEN
 40
4.0
  9
$DIMTSZ
 40
0.0
  9
$DIMTOL
 70
     0
  9
$DIMLIM
 70
     0
  9
$DIMTIH
 70
     1
  9
$DIMTOH
 70
     1
  9
$DIMSE1
 70
     0
  9
$DIMSE2
 70
     0
  9
$DIMTAD
 70
     0
  9
$DIMZIN
 70
     3
  9
$DIMBLK
  1
Closed
  9
$DIMASO
 70
     1
  9
$DIMSHO
 70
     1
  9
$DIMPOST
  1

  9
$DIMAPOST
  1

  9
$DIMALT
 70
     0
  9
$DIMALTD
 70
     2
  9
$DIMALTF
 40
25.4
  9
$DIMLFAC
 40
0.039370078
  9
$DIMTOFL
 70
     1
  9
$DIMTVP
 40
0.0
  9
$DIMTIX
 70
     0
  9
$DIMSOXD
 70
     0
  9
$DIMSAH
 70
     0
  9
$DIMBLK1
  1
Closed
  9
$DIMBLK2
  1
Dot
  9
$DIMSTYLE
  2
new 1
  9
$DIMCLRD
 70
     0
  9
$DIMCLRE
 70
     0
  9
$DIMCLRT
 70
     0
  9
$DIMTFAC
 40
0.8
  9
$DIMGAP
 40
1.5
  9
$DIMJUST
 70
     0
  9
$DIMSD1
 70
     0
  9
$DIMSD2
 70
     0
  9
$DIMTOLJ
 70
     1
  9
$DIMTZIN
 70
     0
  9
$DIMALTZ
 70
     0
  9
$DIMALTTZ
 70
     0
  9
$DIMUPT
 70
     0
  9
$DIMDEC
 70
     4
  9
$DIMTDEC
 70
     4
  9
$DIMALTU
 70
     2
  9
$DIMALTTD
 70
     2
  9
$DIMTXSTY
  7
STANDARD
  9
$DIMAUNIT
 70
     0
  9
$DIMADEC
 70
     2
  9
$DIMALTRND
 40
0.0
  9
$DIMAZIN
 70
     3
  9
$DIMDSEP
 70
    46
  9
$DIMATFIT
 70
     3
  9
$DIMFRAC
 70
     0
  9
$DIMLDRBLK
  1
Closed
  9
$DIMLUNIT
 70
     4
  9
$DIMLWD
 70
    -2
  9
$DIMLWE
 70
    -1
  9
$DIMTMOVE
 70
     2
  9
$DIMFXL
 40
1.0
  9
$DIMFXLON
 70
     0
  9
$DIMJOGANG
 40
1.570796326794896
  9
$DIMTFILL
 70
     1
  9
$DIMTFILLCLR
 70
     0
  9
$DIMARCSYM
 70
     0
  9
$DIMLTYPE
  6

  9
$DIMLTEX1
  6
BYLAYER
  9
$DIMLTEX2
  6
BYLAYER
  9
$DIMTXTDIRECTION
 70
     0
  9
$LUNITS
 70
     2
  9
$LUPREC
 70
     0
  9
$SKETCHINC
 40
0.1
  9
$FILLETRAD
 40
0.5
  9
$AUNITS
 70
     0
  9
$AUPREC
 70
     0
  9
$MENU
  1
.
  9
$ELEVATION
 40
0.0
  9
$PELEVATION
 40
0.0
  9
$THICKNESS
 40
0.0
  9
$LIMCHECK
 70
     0
  9
$CHAMFERA
 40
0.5
  9
$CHAMFERB
 40
0.5
  9
$CHAMFERC
 40
1.0
  9
$CHAMFERD
 40
0.0
  9
$SKPOLY
 70
     0
  9
$TDCREATE
 40
2451667.537939815
  9
$TDUCREATE
 40
2451667.246273149
  9
$TDUPDATE
 40
2460374.590243056
  9
$TDUUPDATE
 40
2460374.298576389
  9
$TDINDWG
 40
1.9200575116
  9
$TDUSRTIMER
 40
1.9200575116
  9
$USRTIMER
 70
     1
  9
$ANGBASE
 50
0.0
  9
$ANGDIR
 70
     0
  9
$PDMODE
 70
     0
  9
$PDSIZE
 40
0.0
  9
$PLINEWID
 40
0.0
  9
$SPLFRAME
 70
     0
  9
$SPLINETYPE
 70
     6
  9
$SPLINESEGS
 70
     8
  9
$HANDSEED
  5
149B2
  9
$SURFTAB1
 70
     6
  9
$SURFTAB2
 70
     6
  9
$SURFTYPE
 70
     6
  9
$SURFU
 70
     6
  9
$SURFV
 70
     6
  9
$UCSBASE
  2

  9
$UCSNAME
  2

  9
$UCSORG
 10
592.4002916125872
 20
0.0
 30
0.0
  9
$UCSXDIR
 10
1.0
 20
0.0
 30
0.0
  9
$UCSYDIR
 10
0.0
 20
1.0
 30
0.0
  9
$UCSORTHOREF
  2

  9
$UCSORTHOVIEW
 70
     0
  9
$UCSORGTOP
 10
0.0
 20
0.0
 30
0.0
  9
$UCSORGBOTTOM
 10
0.0
 20
0.0
 30
0.0
  9
$UCSORGLEFT
 10
0.0
 20
0.0
 30
0.0
  9
$UCSORGRIGHT
 10
0.0
 20
0.0
 30
0.0
  9
$UCSORGFRONT
 10
0.0
 20
0.0
 30
0.0
  9
$UCSORGBACK
 10
0.0
 20
0.0
 30
0.0
  9
$PUCSBASE
  2

  9
$PUCSNAME
  2

  9
$PUCSORG
 10
0.0
 20
0.0
 30
0.0
  9
$PUCSXDIR
 10
1.0
 20
0.0
 30
0.0
  9
$PUCSYDIR
 10
0.0
 20
1.0
 30
0.0
  9
$PUCSORTHOREF
  2

  9
$PUCSORTHOVIEW
 70
     0
  9
$PUCSORGTOP
 10
0.0
 20
0.0
 30
0.0
  9
$PUCSORGBOTTOM
 10
0.0
 20
0.0
 30
0.0
  9
$PUCSORGLEFT
 10
0.0
 20
0.0
 30
0.0
  9
$PUCSORGRIGHT
 10
0.0
 20
0.0
 30
0.0
  9
$PUCSORGFRONT
 10
0.0
 20
0.0
 30
0.0
  9
$PUCSORGBACK
 10
0.0
 20
0.0
 30
0.0
  9
$USERI1
 70
     0
  9
$USERI2
 70
     0
  9
$USERI3
 70
     0
  9
$USERI4
 70
     0
  9
$USERI5
 70
     0
  9
$USERR1
 40
0.0
  9
$USERR2
 40
0.0
  9
$USERR3
 40
0.0
  9
$USERR4
 40
0.0
  9
$USERR5
 40
0.0
  9
$WORLDVIEW
 70
     1
  9
$SHADEDGE
 70
     3
  9
$SHADEDIF
 70
    70
  9
$TILEMODE
 70
     0
  9
$MAXACTVP
 70
    48
  9
$PINSBASE
 10
0.0
 20
0.0
 30
0.0
  9
$PLIMCHECK
 70
     0
  9
$PEXTMIN
 10
-7.314289607997523
 20
-4.940328651957656
 30
-0.0015258207003583
  9
$PEXTMAX
 10
214.5628923997821
 20
299.131421733077
 30
0.0000000349246037
  9
$PLIMMIN
 10
0.0
 20
0.0
  9
$PLIMMAX
 10
210.0
 20
297.0
  9
$UNITMODE
 70
     0
  9
$VISRETAIN
 70
     1
  9
$PLINEGEN
 70
     0
  9
$PSLTSCALE
 70
     1
  9
$TREEDEPTH
 70
  3020
  9
$CMLSTYLE
  2
STANDARD
  9
$CMLJUST
 70
     0
  9
$CMLSCALE
 40
1.0
  9
$PROXYGRAPHICS
 70
     1
  9
$MEASUREMENT
 70
     0
  9
$CELWEIGHT
370
    -1
  9
$ENDCAPS
280
     0
  9
$JOINSTYLE
280
     0
  9
$LWDISPLAY
290
     1
  9
$INSUNITS
 70
     4
  9
$HYPERLINKBASE
  1

  9
$STYLESHEET
  1

  9
$XEDIT
290
     1
  9
$CEPSNTYPE
380
     0
  9
$PSTYLEMODE
290
     1
  9
$FINGERPRINTGUID
  2
{F1C9EDB5-A23C-6A47-A128-A2D269DD3D0B}
  9
$VERSIONGUID
  2
{FF3DEA8E-E0D8-2245-A283-E3F373C75368}
  9
$EXTNAMES
290
     1
  9
$PSVPSCALE
 40
0.0
  9
$OLESTARTUP
290
     0
  9
$SORTENTS
280
   127
  9
$INDEXCTL
280
     0
  9
$HIDETEXT
280
     0
  9
$XCLIPFRAME
280
     2
  9
$HALOGAP
280
     0
  9
$OBSCOLOR
 70
   257
  9
$OBSLTYPE
280
     0
  9
$INTERSECTIONDISPLAY
280
     0
  9
$INTERSECTIONCOLOR
 70
   257
  9
$DIMASSOC
280
     1
  9
$PROJECTNAME
  1

  9
$CAMERADISPLAY
290
     0
  9
$LENSLENGTH
 40
50.0
  9
$CAMERAHEIGHT
 40
0.0
  9
$STEPSPERSEC
 40
2.0
  9
$STEPSIZE
 40
6.0
  9
$3DDWFPREC
 40
2.0
  9
$PSOLWIDTH
 40
0.25
  9
$PSOLHEIGHT
 40
4.0
  9
$LOFTANG1
 40
1.570796326794896
  9
$LOFTANG2
 40
1.570796326794896
  9
$LOFTMAG1
 40
0.0
  9
$LOFTMAG2
 40
0.0
  9
$LOFTPARAM
 70
     7
  9
$LOFTNORMALS
280
     1
  9
$LATITUDE
 40
37.795
  9
$LONGITUDE
 40
-122.394
  9
$NORTHDIRECTION
 40
0.0
  9
$TIMEZONE
 70
 -8000
  9
$LIGHTGLYPHDISPLAY
280
     1
  9
$TILEMODELIGHTSYNCH
280
     1
  9
$CMATERIAL
347
1CF
  9
$SOLIDHIST
280
     0
  9
$SHOWHIST
280
     1
  9
$DWFFRAME
280
     2
  9
$DGNFRAME
280
     0
  9
$REALWORLDSCALE
290
     1
  9
$INTERFERECOLOR
 62
     1
  9
$INTERFEREOBJVS
345
1F1
  9
$INTERFEREVPVS
346
1EE
  9
$CSHADOW
280
     0
  9
$SHADOWPLANELOCATION
 40
0.0
  0
ENDSEC
  0
SECTION
  2
CLASSES
  0
CLASS
  1
ACDBDICTIONARYWDFLT
  2
AcDbDictionaryWithDefault
  3
ObjectDBX Classes
 90
        0
 91
        1
280
     1
281
     0
  0
CLASS
  1
DICTIONARYVAR
  2
AcDbDictionaryVar
  3
ObjectDBX Classes
 90
        0
 91
       12
280
     0
281
     0
  0
CLASS
  1
MATERIAL
  2
AcDbMaterial
  3
ObjectDBX Classes
 90
     1153
 91
        3
280
     0
281
     0
  0
CLASS
  1
VISUALSTYLE
  2
AcDbVisualStyle
  3
ObjectDBX Classes
 90
     4095
 91
       24
280
     0
281
     0
  0
CLASS
  1
TABLESTYLE
  2
AcDbTableStyle
  3
ObjectDBX Classes
 90
     4095
 91
        1
280
     0
281
     0
  0
CLASS
  1
SCALE
  2
AcDbScale
  3
ObjectDBX Classes
 90
     1153
 91
       24
280
     0
281
     0
  0
CLASS
  1
MLEADERSTYLE
  2
AcDbMLeaderStyle
  3
ACDB_MLEADERSTYLE_CLASS
 90
     4095
 91
        1
280
     0
281
     0
  0
CLASS
  1
ACDBSECTIONVIEWSTYLE
  2
AcDbSectionViewStyle
  3
ObjectDBX Classes
 90
     1025
 91
        1
280
     0
281
     0
  0
CLASS
  1
ACDBDETAILVIEWSTYLE
  2
AcDbDetailViewStyle
  3
ObjectDBX Classes
 90
     1025
 91
        1
280
     0
281
     0
  0
CLASS
  1
SORTENTSTABLE
  2
AcDbSortentsTable
  3
ObjectDBX Classes
 90
        0
 91
        1
280
     0
281
     0
  0
CLASS
  1
PLOTSETTINGS
  2
AcDbPlotSettings
  3
ObjectDBX Classes
 90
        0
 91
        1
280
     0
281
     0
  0
CLASS
  1
CELLSTYLEMAP
  2
AcDbCellStyleMap
  3
ObjectDBX Classes
 90
     1152
 91
        3
280
     0
281
     0
  0
CLASS
  1
ACDB_ALDIMOBJECTCONTEXTDATA_CLASS
  2
AcDbAlignedDimensionObjectContextData
  3
ObjectDBX Classes
 90
     1153
 91
        0
280
     0
281
     0
  0
CLASS
  1
EXACXREFPANELOBJECT
  2
ExAcXREFPanelObject
  3
EXAC_ESW
 90
     1025
 91
        0
280
     0
281
     0
  0
CLASS
  1
NPOCOLLECTION
  2
AcDbImpNonPersistentObjectsCollection
  3
ObjectDBX Classes
 90
     1153
 91
        0
280
     0
281
     0
  0
CLASS
  1
ACDB_DMDIMOBJECTCONTEXTDATA_CLASS
  2
AcDbDiametricDimensionObjectContextData
  3
ObjectDBX Classes
 90
     1153
 91
        0
280
     0
281
     0
  0
ENDSEC
  0
SECTION
  2
TABLES
  0
TABLE
  2
VPORT
  5
1AE
330
0
100
AcDbSymbolTable
 70
     1
1001
ACAD
1000
DbSaveVer
1071
      298
  0
VPORT
  5
1CA
330
1AE
100
AcDbSymbolTableRecord
100
AcDbViewportTableRecord
  2
*ACTIVE
 70
     0
 10
0.0
 20
0.0
 11
1.0
 21
1.0
 12
-1249.706554017436
 22
-307.6172200661761
 13
0.0
 23
0.0
 14
0.5
 24
0.5
 15
0.5
 25
0.5
 16
0.0
 26
0.0
 36
1.0
 17
0.0
 27
0.0
 37
0.0
 40
1197.37856075604
 41
2.508496732026143
 42
50.0
 43
0.0
 44
0.0
 50
0.0
 51
0.0
 71
     0
 72
   100
 73
     1
 74
     3
 75
     0
 76
     0
 77
     0
 78
     0
281
     0
 65
     1
110
592.4002916125872
120
0.0
130
0.0
111
1.0
121
0.0
131
0.0
112
0.0
122
1.0
132
0.0
 79
     0
146
0.0
348
1ED
 60
     3
 61
     5
292
     1
282
     1
141
0.0
142
0.0
 63
   250
421
  3355443
1001
ACAD_NAV_VCDISPLAY
1070
     3
  0
ENDTAB
  0
TABLE
  2
LTYPE
  5
1A7
330
0
100
AcDbSymbolTable
 70
     3
  0
LTYPE
  5
1A8
102
{ACAD_XDICTIONARY
360
1A9
102
}
330
1A7
100
AcDbSymbolTableRecord
100
AcDbLinetypeTableRecord
  2
BYBLOCK
 70
     0
  3

 72
    65
 73
     0
 40
0.0
  0
LTYPE
  5
1AA
102
{ACAD_XDICTIONARY
360
1AB
102
}
330
1A7
100
AcDbSymbolTableRecord
100
AcDbLinetypeTableRecord
  2
BYLAYER
 70
     0
  3

 72
    65
 73
     0
 40
0.0
  0
LTYPE
  5
5
102
{ACAD_XDICTIONARY
360
6
102
}
330
1A7
100
AcDbSymbolTableRecord
100
AcDbLinetypeTableRecord
  2
CONTINUOUS
 70
     0
  3
Solid line
 72
    65
 73
     0
 40
0.0
  0
LTYPE
  5
12E48
330
1A7
100
AcDbSymbolTableRecord
100
AcDbLinetypeTableRecord
  2
CENTERX2
 70
     0
  3
Center (2x) ________  __  ________  __  _____
 72
    65
 73
     4
 40
0.8
 49
0.5
 74
     0
 49
-0.1
 74
     0
 49
0.1
 74
     0
 49
-0.1
 74
     0
  0
ENDTAB
  0
TABLE
  2
LAYER
  5
1A5
102
{ACAD_XDICTIONARY
360
22C
102
}
330
0
100
AcDbSymbolTable
 70
     3
  0
LAYER
  5
61
102
{ACAD_XDICTIONARY
360
686
102
}
330
1A5
100
AcDbSymbolTableRecord
100
AcDbLayerTableRecord
  2
0
 70
     0
 62
     7
  6
CONTINUOUS
370
    -3
390
1CD
347
1DF
348
0
  0
LAYER
  5
85C
330
1A5
100
AcDbSymbolTableRecord
100
AcDbLayerTableRecord
  2
Defpoints
 70
     0
 62
     7
  6
CONTINUOUS
290
     0
370
    -3
390
1CD
347
1DF
348
0
  0
LAYER
  5
F68
102
{ACAD_XDICTIONARY
360
F69
102
}
330
1A5
100
AcDbSymbolTableRecord
100
AcDbLayerTableRecord
  2
OBJ
 70
     0
 62
   179
  6
CONTINUOUS
370
    -3
390
1CD
347
1DF
348
0
  0
ENDTAB
  0
TABLE
  2
STYLE
  5
1A6
330
0
100
AcDbSymbolTable
 70
     2
  0
STYLE
  5
A
102
{ACAD_XDICTIONARY
360
B
102
}
330
1A6
100
AcDbSymbolTableRecord
100
AcDbTextStyleTableRecord
  2
STANDARD
 70
     0
 40
0.0
 41
1.0
 50
0.0
 71
     0
 42
0.25
  3
txt
  4

  0
STYLE
  5
F6A
330
1A6
100
AcDbSymbolTableRecord
100
AcDbTextStyleTableRecord
  2
SLDTEXTSTYLE0
 70
     0
 40
0.0
 41
0.605
 50
0.0
 71
     0
 42
0.125
  3
TXT
  4

  0
ENDTAB
  0
TABLE
  2
VIEW
  5
1AC
330
0
100
AcDbSymbolTable
 70
     3
  0
ENDTAB
  0
TABLE
  2
UCS
  5
1AD
330
0
100
AcDbSymbolTable
 70
     0
  0
ENDTAB
  0
TABLE
  2
APPID
  5
1B0
330
0
100
AcDbSymbolTable
 70
    12
  0
APPID
  5
1B1
330
1B0
100
AcDbSymbolTableRecord
100
AcDbRegAppTableRecord
  2
ACAD
 70
     0
  0
APPID
  5
222
330
1B0
100
AcDbSymbolTableRecord
100
AcDbRegAppTableRecord
  2
ACAD_EXEMPT_FROM_CAD_STANDARDS
 70
     0
  0
APPID
  5
232
330
1B0
100
AcDbSymbolTableRecord
100
AcDbRegAppTableRecord
  2
ACAD_NAV_VCDISPLAY
 70
     0
  0
APPID
  5
238
330
1B0
100
AcDbSymbolTableRecord
100
AcDbRegAppTableRecord
  2
ACAD_PSEXT
 70
     0
  0
APPID
  5
19B9
330
1B0
100
AcDbSymbolTableRecord
100
AcDbRegAppTableRecord
  2
PLOTTRANSPARENCY
 70
     0
  0
APPID
  5
1B92
330
1B0
100
AcDbSymbolTableRecord
100
AcDbRegAppTableRecord
  2
AcadAnnoMonitorAlertIconDisabled
 70
     0
  0
APPID
  5
1BD0
330
1B0
100
AcDbSymbolTableRecord
100
AcDbRegAppTableRecord
  2
ACAD_DSTYLE_DIMJAG
 70
     0
  0
APPID
  5
1BD1
330
1B0
100
AcDbSymbolTableRecord
100
AcDbRegAppTableRecord
  2
ACAD_DSTYLE_DIMBREAK
 70
     0
  0
APPID
  5
1BD2
330
1B0
100
AcDbSymbolTableRecord
100
AcDbRegAppTableRecord
  2
ACAD_DSTYLE_DIMTALN
 70
     0
  0
APPID
  5
1C03
330
1B0
100
AcDbSymbolTableRecord
100
AcDbRegAppTableRecord
  2
AcadAnnotative
 70
     0
  0
APPID
  5
1FB1
330
1B0
100
AcDbSymbolTableRecord
100
AcDbRegAppTableRecord
  2
ACAD_DSTYLE_DIMRADIAL_EXTENSION
 70
     0
  0
APPID
  5
12564
330
1B0
100
AcDbSymbolTableRecord
100
AcDbRegAppTableRecord
  2
ACAD_MLEADERVER
 70
     0
  0
ENDTAB
  0
TABLE
  2
DIMSTYLE
  5
1B2
330
0
100
AcDbSymbolTable
 70
     6
100
AcDbDimStyleTable
 71
     2
340
1BD3
340
1BB
  0
DIMSTYLE
105
1BB
102
{ACAD_XDICTIONARY
360
1BC
102
}
330
1B2
100
AcDbSymbolTableRecord
100
AcDbDimStyleTableRecord
  2
STANDARD
 70
     0
340
A
  0
DIMSTYLE
105
1BD3
330
1B2
100
AcDbSymbolTableRecord
100
AcDbDimStyleTableRecord
  2
new 1
 70
     0
 41
3.5
 42
2.0
 43
12.0
 44
1.5
 50
90.0
 69
     1
 78
     3
 79
     3
140
3.0
141
4.0
144
0.039370078
146
0.8
147
1.5
172
     1
179
     2
277
     4
279
     2
340
A
341
1BF7
342
1BF7
343
1BF7
344
1BFE
346
1AA
347
1AA
372
    -1
1001
AcadAnnotative
1000
AnnotativeData
1002
{
1070
     1
1070
     1
1002
}
1001
ACAD_DSTYLE_DIMJAG
1070
   388
1040
1.5
1001
ACAD_DSTYLE_DIMBREAK
1070
   391
1040
0.13
1001
ACAD_DSTYLE_DIMTALN
1070
   392
1070
     0
  0
DIMSTYLE
105
12E49
330
1B2
100
AcDbSymbolTableRecord
100
AcDbDimStyleTableRecord
  2
SLDDIMSTYLE0
 70
     0
 41
0.13
 44
0.0
 45
0.000000001
 73
     0
 74
     0
 77
     1
 78
    12
 79
     3
140
0.1377952755905512
144
5.0
147
0.0344488188976378
173
     1
271
     6
272
     2
276
     2
277
     5
284
    12
340
F6A
  0
DIMSTYLE
105
12E4A
330
1B2
100
AcDbSymbolTableRecord
100
AcDbDimStyleTableRecord
  2
SLDDIMSTYLE1
 70
     0
 41
0.13
 44
0.0
 45
0.000000001
 73
     0
 74
     0
 77
     1
 78
    12
 79
     3
140
0.1377952755905512
144
5.0
147
0.0344488188976378
172
     1
173
     1
271
     6
272
     2
276
     2
277
     5
284
    12
289
     0
340
F6A
  0
DIMSTYLE
105
12E4B
330
1B2
100
AcDbSymbolTableRecord
100
AcDbDimStyleTableRecord
  2
SLDDIMSTYLE2
 70
     0
 41
0.13
 44
0.0
 45
0.000000001
 73
     0
 74
     0
 77
     1
 78
    12
 79
     3
140
0.1377952755905512
144
5.0
147
0.0344488188976378
172
     1
173
     1
271
     2
272
     2
276
     2
277
     5
284
    12
289
     0
340
F6A
  0
ENDTAB
  0
TABLE
  2
BLOCK_RECORD
  5
1
330
0
100
AcDbSymbolTable
 70
    27
  0
BLOCK_RECORD
  5
2
102
{ACAD_XDICTIONARY
360
19C
102
}
330
1
100
AcDbSymbolTableRecord
100
AcDbBlockTableRecord
  2
*MODEL_SPACE
340
21D
 70
     0
280
     1
281
     0
  0
BLOCK_RECORD
  5
1A0
102
{ACAD_XDICTIONARY
360
1A1
102
}
330
1
100
AcDbSymbolTableRecord
100
AcDbBlockTableRecord
  2
*PAPER_SPACE
340
21E
 70
     0
280
     1
281
     0
  0
BLOCK_RECORD
  5
1BF7
330
1
100
AcDbSymbolTableRecord
100
AcDbBlockTableRecord
  2
_Closed
340
0
102
{BLKREFS
102
}
 70
     0
280
     1
281
     0
  0
BLOCK_RECORD
  5
1BFE
330
1
100
AcDbSymbolTableRecord
100
AcDbBlockTableRecord
  2
_Dot
340
0
 70
     0
280
     1
281
     0
  0
BLOCK_RECORD
  5
12DB2
330
1
100
AcDbSymbolTableRecord
100
AcDbBlockTableRecord
  2
_D
340
0
 70
     0
280
     1
281
     0
  0
BLOCK_RECORD
  5
12DBF
330
1
100
AcDbSymbolTableRecord
100
AcDbBlockTableRecord
  2
SW_CENTERMARKSYMBOL_0
340
0
 70
     0
280
     1
281
     0
  0
BLOCK_RECORD
  5
12DCA
330
1
100
AcDbSymbolTableRecord
100
AcDbBlockTableRecord
  2
SW_CENTERMARKSYMBOL_1
340
0
 70
     0
280
     1
281
     0
  0
BLOCK_RECORD
  5
12DD5
330
1
100
AcDbSymbolTableRecord
100
AcDbBlockTableRecord
  2
SW_CENTERMARKSYMBOL_2
340
0
 70
     0
280
     1
281
     0
  0
BLOCK_RECORD
  5
12DE0
330
1
100
AcDbSymbolTableRecord
100
AcDbBlockTableRecord
  2
SW_CENTERMARKSYMBOL_3
340
0
 70
     0
280
     1
281
     0
  0
BLOCK_RECORD
  5
12DEB
330
1
100
AcDbSymbolTableRecord
100
AcDbBlockTableRecord
  2
SW_CENTERMARKSYMBOL_4
340
0
 70
     0
280
     1
281
     0
  0
BLOCK_RECORD
  5
12DF6
330
1
100
AcDbSymbolTableRecord
100
AcDbBlockTableRecord
  2
SW_CENTERMARKSYMBOL_5
340
0
 70
     0
280
     1
281
     0
  0
BLOCK_RECORD
  5
12E01
330
1
100
AcDbSymbolTableRecord
100
AcDbBlockTableRecord
  2
SW_CENTERMARKSYMBOL_6
340
0
 70
     0
280
     1
281
     0
  0
BLOCK_RECORD
  5
12E0C
330
1
100
AcDbSymbolTableRecord
100
AcDbBlockTableRecord
  2
SW_CENTERMARKSYMBOL_7
340
0
 70
     0
280
     1
281
     0
  0
BLOCK_RECORD
  5
12E17
330
1
100
AcDbSymbolTableRecord
100
AcDbBlockTableRecord
  2
_D_1
340
0
 70
     0
280
     1
281
     0
  0
BLOCK_RECORD
  5
12E24
330
1
100
AcDbSymbolTableRecord
100
AcDbBlockTableRecord
  2
_D_2
340
0
 70
     0
280
     1
281
     0
  0
BLOCK_RECORD
  5
12E2F
330
1
100
AcDbSymbolTableRecord
100
AcDbBlockTableRecord
  2
SW_CENTERMARKSYMBOL_8
340
0
 70
     0
280
     1
281
     0
  0
ENDTAB
  0
ENDSEC
  0
SECTION
  2
BLOCKS
  0
BLOCK
  5
19E
330
2
100
AcDbEntity
  8
0
100
AcDbBlockBegin
  2
*MODEL_SPACE
 70
     0
 10
0.0
 20
0.0
 30
0.0
  3
*MODEL_SPACE
  1

  0
ENDBLK
  5
19F
330
2
100
AcDbEntity
  8
0
100
AcDbBlockEnd
  0
BLOCK
  5
1A3
330
1A0
100
AcDbEntity
 67
     1
  8
0
100
AcDbBlockBegin
  2
*PAPER_SPACE
 70
     0
 10
0.0
 20
0.0
 30
0.0
  3
*PAPER_SPACE
  1

  0
ENDBLK
  5
1A4
330
1A0
100
AcDbEntity
 67
     1
  8
0
100
AcDbBlockEnd
  0
BLOCK
  5
1BFC
330
1BF7
100
AcDbEntity
  8
0
100
AcDbBlockBegin
  2
_Closed
 70
     0
 10
0.0
 20
0.0
 30
0.0
  3
_Closed
  1

  0
LINE
  5
1BF8
330
1BF7
100
AcDbEntity
  8
0
  6
ByBlock
 62
     0
370
    -2
100
AcDbLine
 10
-1.0
 20
0.1666666666666666
 30
0.0
 11
0.0
 21
0.0
 31
0.0
  0
LINE
  5
1BF9
330
1BF7
100
AcDbEntity
  8
0
  6
ByBlock
 62
     0
370
    -2
100
AcDbLine
 10
0.0
 20
0.0
 30
0.0
 11
-1.0
 21
-0.1666666666666666
 31
0.0
  0
LINE
  5
1BFA
330
1BF7
100
AcDbEntity
  8
0
  6
ByBlock
 62
     0
370
    -2
100
AcDbLine
 10
-1.0
 20
0.1666666666666666
 30
0.0
 11
-1.0
 21
-0.1666666666666666
 31
0.0
  0
LINE
  5
1BFB
330
1BF7
100
AcDbEntity
  8
0
  6
ByBlock
 62
     0
370
    -2
100
AcDbLine
 10
0.0
 20
0.0
 30
0.0
 11
-1.0
 21
0.0
 31
0.0
  0
ENDBLK
  5
1BFD
330
1BF7
100
AcDbEntity
  8
0
100
AcDbBlockEnd
  0
BLOCK
  5
1C01
330
1BFE
100
AcDbEntity
  8
0
100
AcDbBlockBegin
  2
_Dot
 70
     0
 10
0.0
 20
0.0
 30
0.0
  3
_Dot
  1

  0
LWPOLYLINE
  5
1BFF
330
1BFE
100
AcDbEntity
  8
0
  6
ByBlock
 62
     0
100
AcDbPolyline
 90
        2
 70
     1
 43
0.5
 10
-0.25
 20
0.0
 42
1.0
 10
0.25
 20
0.0
 42
1.0
  0
LINE
  5
1C00
330
1BFE
100
AcDbEntity
  8
0
  6
ByBlock
 62
     0
370
    -2
100
AcDbLine
 10
-0.5
 20
0.0
 30
0.0
 11
-1.0
 21
0.0
 31
0.0
  0
ENDBLK
  5
1C02
330
1BFE
100
AcDbEntity
  8
0
100
AcDbBlockEnd
  0
BLOCK
  5
12DB3
330
12DB2
100
AcDbEntity
  8
0
100
AcDbBlockBegin
  2
_D
 70
     0
 10
0.0
 20
0.0
 30
0.0
  3
_D
  1

  0
SOLID
  5
12DB4
330
12DB2
100
AcDbEntity
  8
0
  6
Continuous
 62
     7
440
 16777216
370
    18
100
AcDbTrace
 10
4.00843096548633
 20
9.080376137239181
 30
0.0
 11
3.98843096548633
 21
8.95037613723918
 31
0.0
 12
4.02843096548633
 22
8.95037613723918
 32
0.0
 13
4.02843096548633
 23
8.95037613723918
 33
0.0
  0
SOLID
  5
12DB5
330
12DB2
100
AcDbEntity
  8
0
  6
Continuous
 62
     7
440
 16777216
370
    18
100
AcDbTrace
 10
4.008430965486347
 20
2.637193278340028
 30
0.0
 11
4.028430965486347
 21
2.767193278340028
 31
0.0
 12
3.988430965486347
 22
2.767193278340028
 32
0.0
 13
3.988430965486347
 23
2.767193278340028
 33
0.0
  0
LINE
  5
12DB6
330
12DB2
100
AcDbEntity
  8
0
  6
Continuous
 62
     7
440
 16777216
370
     0
100
AcDbLine
 10
3.814101350606963
 20
6.327222928085975
 30
0.0
 11
3.814101350606961
 21
6.571235400899733
 31
0.0
  0
LINE
  5
12DB7
330
12DB2
100
AcDbEntity
  8
0
  6
Continuous
 62
     7
440
 16777216
370
     0
100
AcDbLine
 10
2.108397310195998
 20
9.080376137239175
 30
0.0
 11
4.047801044226488
 21
9.080376137239181
 31
0.0
  0
LINE
  5
12DB8
330
12DB2
100
AcDbEntity
  8
0
  6
Continuous
 62
     7
440
 16777216
370
     0
100
AcDbLine
 10
2.883751805297232
 20
2.637193278340024
 30
0.0
 11
4.047801044226504
 21
2.637193278340028
 31
0.0
  0
LINE
  5
12DB9
330
12DB2
100
AcDbEntity
  8
0
  6
Continuous
 62
     7
440
 16777216
370
     0
100
AcDbLine
 10
4.00843096548633
 20
9.080376137239181
 30
0.0
 11
4.008430965486347
 21
2.637193278340028
 31
0.0
  0
MTEXT
  5
12DBA
330
12DB2
100
AcDbEntity
  8
0
  6
Continuous
 62
     7
440
 16777216
370
    18
100
AcDbMText
 10
3.749265081510249
 20
6.103401290359299
 30
0.0
 40
0.1377952755905512
 41
0.0
 46
0.0
 71
     1
 72
     1
  1
32
  7
SLDTEXTSTYLE0
 11
-0.0000000000000097
 21
1.0
 31
0.0
 73
     1
 44
1.0
  0
MTEXT
  5
12DBB
330
12DB2
100
AcDbEntity
  8
0
  6
Continuous
 62
     7
440
 16777216
370
    18
100
AcDbMText
 10
3.648588407660774
 20
6.398321463832954
 30
0.0
 40
0.1377952755905512
 41
0.0
 46
0.0
 71
     1
 72
     1
  1
3
  7
SLDTEXTSTYLE0
 11
-0.0000000000000097
 21
1.0
 31
0.0
 73
     1
 44
1.0
  0
MTEXT
  5
12DBC
330
12DB2
100
AcDbEntity
  8
0
  6
Continuous
 62
     7
440
 16777216
370
    18
100
AcDbMText
 10
3.830803524753484
 20
6.347413763173058
 30
0.0
 40
0.1377952755905512
 41
0.0
 46
0.0
 71
     1
 72
     1
  1
16
  7
SLDTEXTSTYLE0
 11
-0.0000000000000097
 21
1.0
 31
0.0
 73
     1
 44
1.0
  0
MTEXT
  5
12DBD
330
12DB2
100
AcDbEntity
  8
0
  6
Continuous
 62
     7
440
 16777216
370
    18
100
AcDbMText
 10
3.749265081510245
 20
6.591426235986816
 30
0.0
 40
0.1377952755905512
 41
0.0
 46
0.0
 71
     1
 72
     1
  1
"
  7
SLDTEXTSTYLE0
 11
-0.0000000000000097
 21
1.0
 31
0.0
 73
     1
 44
1.0
  0
ENDBLK
  5
12DBE
330
12DB2
100
AcDbEntity
  8
0
100
AcDbBlockEnd
  0
BLOCK
  5
12DC0
330
12DBF
100
AcDbEntity
  8
0
100
AcDbBlockBegin
  2
SW_CENTERMARKSYMBOL_0
 70
     0
 10
0.0
 20
0.0
 30
0.0
  3
SW_CENTERMARKSYMBOL_0
  1

  0
LINE
  5
12DC1
330
12DBF
100
AcDbEntity
  8
0
  6
Continuous
 62
     0
370
    18
100
AcDbLine
 10
0.0
 20
0.0
 30
0.0
 11
0.0
 21
0.0196850393700788
 31
0.0
  0
LINE
  5
12DC2
330
12DBF
100
AcDbEntity
  8
0
  6
Continuous
 62
     0
370
    18
100
AcDbLine
 10
0.0
 20
0.0
 30
0.0
 11
-0.0196850393700788
 21
0.0
 31
0.0
  0
LINE
  5
12DC3
330
12DBF
100
AcDbEntity
  8
0
  6
Continuous
 62
     0
370
    18
100
AcDbLine
 10
0.0
 20
0.0
 30
0.0
 11
0.0
 21
-0.0196850393700788
 31
0.0
  0
LINE
  5
12DC4
330
12DBF
100
AcDbEntity
  8
0
  6
Continuous
 62
     0
370
    18
100
AcDbLine
 10
0.0
 20
0.0
 30
0.0
 11
0.0196850393700788
 21
0.0
 31
0.0
  0
LINE
  5
12DC5
330
12DBF
100
AcDbEntity
  8
0
  6
Continuous
 62
     0
370
    18
100
AcDbLine
 10
0.0
 20
0.0393700787401575
 30
0.0
 11
0.0
 21
0.0396850393700769
 31
0.0
  0
LINE
  5
12DC6
330
12DBF
100
AcDbEntity
  8
0
  6
Continuous
 62
     0
370
    18
100
AcDbLine
 10
-0.0393700787401575
 20
0.0
 30
0.0
 11
-0.0396850393700769
 21
0.0
 31
0.0
  0
LINE
  5
12DC7
330
12DBF
100
AcDbEntity
  8
0
  6
Continuous
 62
     0
370
    18
100
AcDbLine
 10
0.0
 20
-0.0393700787401575
 30
0.0
 11
0.0
 21
-0.0396850393700769
 31
0.0
  0
LINE
  5
12DC8
330
12DBF
100
AcDbEntity
  8
0
  6
Continuous
 62
     0
370
    18
100
AcDbLine
 10
0.0393700787401575
 20
0.0
 30
0.0
 11
0.0396850393700769
 21
0.0
 31
0.0
  0
ENDBLK
  5
12DC9
330
12DBF
100
AcDbEntity
  8
0
100
AcDbBlockEnd
  0
BLOCK
  5
12DCB
330
12DCA
100
AcDbEntity
  8
0
100
AcDbBlockBegin
  2
SW_CENTERMARKSYMBOL_1
 70
     0
 10
0.0
 20
0.0
 30
0.0
  3
SW_CENTERMARKSYMBOL_1
  1

  0
LINE
  5
12DCC
330
12DCA
100
AcDbEntity
  8
0
  6
Continuous
 62
     0
370
    18
100
AcDbLine
 10
0.0
 20
0.0
 30
0.0
 11
0.0
 21
0.0196850393700788
 31
0.0
  0
LINE
  5
12DCD
330
12DCA
100
AcDbEntity
  8
0
  6
Continuous
 62
     0
370
    18
100
AcDbLine
 10
0.0
 20
0.0
 30
0.0
 11
-0.0196850393700788
 21
0.0
 31
0.0
  0
LINE
  5
12DCE
330
12DCA
100
AcDbEntity
  8
0
  6
Continuous
 62
     0
370
    18
100
AcDbLine
 10
0.0
 20
0.0
 30
0.0
 11
0.0
 21
-0.0196850393700788
 31
0.0
  0
LINE
  5
12DCF
330
12DCA
100
AcDbEntity
  8
0
  6
Continuous
 62
     0
370
    18
100
AcDbLine
 10
0.0
 20
0.0
 30
0.0
 11
0.0196850393700788
 21
0.0
 31
0.0
  0
LINE
  5
12DD0
330
12DCA
100
AcDbEntity
  8
0
  6
Continuous
 62
     0
370
    18
100
AcDbLine
 10
0.0
 20
0.0393700787401575
 30
0.0
 11
0.0
 21
0.0396850393700802
 31
0.0
  0
LINE
  5
12DD1
330
12DCA
100
AcDbEntity
  8
0
  6
Continuous
 62
     0
370
    18
100
AcDbLine
 10
-0.039370078740157
 20
0.0
 30
0.0
 11
-0.0396850393700796
 21
0.0
 31
0.0
  0
LINE
  5
12DD2
330
12DCA
100
AcDbEntity
  8
0
  6
Continuous
 62
     0
370
    18
100
AcDbLine
 10
0.0
 20
-0.0393700787401575
 30
0.0
 11
0.0
 21
-0.0396850393700791
 31
0.0
  0
LINE
  5
12DD3
330
12DCA
100
AcDbEntity
  8
0
  6
Continuous
 62
     0
370
    18
100
AcDbLine
 10
0.0393700787401575
 20
0.0
 30
0.0
 11
0.0396850393700796
 21
0.0
 31
0.0
  0
ENDBLK
  5
12DD4
330
12DCA
100
AcDbEntity
  8
0
100
AcDbBlockEnd
  0
BLOCK
  5
12DD6
330
12DD5
100
AcDbEntity
  8
0
100
AcDbBlockBegin
  2
SW_CENTERMARKSYMBOL_2
 70
     0
 10
0.0
 20
0.0
 30
0.0
  3
SW_CENTERMARKSYMBOL_2
  1

  0
LINE
  5
12DD7
330
12DD5
100
AcDbEntity
  8
0
  6
Continuous
 62
     0
370
    18
100
AcDbLine
 10
0.0
 20
0.0
 30
0.0
 11
0.0
 21
0.0196850393700788
 31
0.0
  0
LINE
  5
12DD8
330
12DD5
100
AcDbEntity
  8
0
  6
Continuous
 62
     0
370
    18
100
AcDbLine
 10
0.0
 20
0.0
 30
0.0
 11
-0.0196850393700788
 21
0.0
 31
0.0
  0
LINE
  5
12DD9
330
12DD5
100
AcDbEntity
  8
0
  6
Continuous
 62
     0
370
    18
100
AcDbLine
 10
0.0
 20
0.0
 30
0.0
 11
0.0
 21
-0.0196850393700788
 31
0.0
  0
LINE
  5
12DDA
330
12DD5
100
AcDbEntity
  8
0
  6
Continuous
 62
     0
370
    18
100
AcDbLine
 10
0.0
 20
0.0
 30
0.0
 11
0.0196850393700788
 21
0.0
 31
0.0
  0
LINE
  5
12DDB
330
12DD5
100
AcDbEntity
  8
0
  6
Continuous
 62
     0
370
    18
100
AcDbLine
 10
0.0
 20
0.0196850393700788
 30
0.0
 11
0.0
 21
0.0376850393700784
 31
0.0
  0
LINE
  5
12DDC
330
12DD5
100
AcDbEntity
  8
0
  6
Continuous
 62
     0
370
    18
100
AcDbLine
 10
-0.0196850393700788
 20
0.0
 30
0.0
 11
-0.037685039370079
 21
0.0
 31
0.0
  0
LINE
  5
12DDD
330
12DD5
100
AcDbEntity
  8
0
  6
Continuous
 62
     0
370
    18
100
AcDbLine
 10
0.0
 20
-0.0196850393700788
 30
0.0
 11
0.0
 21
-0.0376850393700784
 31
0.0
  0
LINE
  5
12DDE
330
12DD5
100
AcDbEntity
  8
0
  6
Continuous
 62
     0
370
    18
100
AcDbLine
 10
0.0196850393700788
 20
0.0
 30
0.0
 11
0.0376850393700784
 21
0.0
 31
0.0
  0
ENDBLK
  5
12DDF
330
12DD5
100
AcDbEntity
  8
0
100
AcDbBlockEnd
  0
BLOCK
  5
12DE1
330
12DE0
100
AcDbEntity
  8
0
100
AcDbBlockBegin
  2
SW_CENTERMARKSYMBOL_3
 70
     0
 10
0.0
 20
0.0
 30
0.0
  3
SW_CENTERMARKSYMBOL_3
  1

  0
LINE
  5
12DE2
330
12DE0
100
AcDbEntity
  8
0
  6
Continuous
 62
     0
370
    18
100
AcDbLine
 10
0.0
 20
0.0
 30
0.0
 11
0.0
 21
0.0196850393700788
 31
0.0
  0
LINE
  5
12DE3
330
12DE0
100
AcDbEntity
  8
0
  6
Continuous
 62
     0
370
    18
100
AcDbLine
 10
0.0
 20
0.0
 30
0.0
 11
-0.0196850393700788
 21
0.0
 31
0.0
  0
LINE
  5
12DE4
330
12DE0
100
AcDbEntity
  8
0
  6
Continuous
 62
     0
370
    18
100
AcDbLine
 10
0.0
 20
0.0
 30
0.0
 11
0.0
 21
-0.0196850393700788
 31
0.0
  0
LINE
  5
12DE5
330
12DE0
100
AcDbEntity
  8
0
  6
Continuous
 62
     0
370
    18
100
AcDbLine
 10
0.0
 20
0.0
 30
0.0
 11
0.0196850393700788
 21
0.0
 31
0.0
  0
LINE
  5
12DE6
330
12DE0
100
AcDbEntity
  8
0
  6
Continuous
 62
     0
370
    18
100
AcDbLine
 10
0.0
 20
0.0196850393700788
 30
0.0
 11
0.0
 21
0.0376850393700828
 31
0.0
  0
LINE
  5
12DE7
330
12DE0
100
AcDbEntity
  8
0
  6
Continuous
 62
     0
370
    18
100
AcDbLine
 10
-0.0196850393700788
 20
0.0
 30
0.0
 11
-0.0376850393700822
 21
0.0
 31
0.0
  0
LINE
  5
12DE8
330
12DE0
100
AcDbEntity
  8
0
  6
Continuous
 62
     0
370
    18
100
AcDbLine
 10
0.0
 20
-0.0196850393700788
 30
0.0
 11
0.0
 21
-0.0376850393700822
 31
0.0
  0
LINE
  5
12DE9
330
12DE0
100
AcDbEntity
  8
0
  6
Continuous
 62
     0
370
    18
100
AcDbLine
 10
0.0196850393700788
 20
0.0
 30
0.0
 11
0.0376850393700822
 21
0.0
 31
0.0
  0
ENDBLK
  5
12DEA
330
12DE0
100
AcDbEntity
  8
0
100
AcDbBlockEnd
  0
BLOCK
  5
12DEC
330
12DEB
100
AcDbEntity
  8
0
100
AcDbBlockBegin
  2
SW_CENTERMARKSYMBOL_4
 70
     0
 10
0.0
 20
0.0
 30
0.0
  3
SW_CENTERMARKSYMBOL_4
  1

  0
LINE
  5
12DED
330
12DEB
100
AcDbEntity
  8
0
  6
Continuous
 62
     0
370
    18
100
AcDbLine
 10
0.0
 20
0.0
 30
0.0
 11
0.0
 21
0.0196850393700788
 31
0.0
  0
LINE
  5
12DEE
330
12DEB
100
AcDbEntity
  8
0
  6
Continuous
 62
     0
370
    18
100
AcDbLine
 10
0.0
 20
0.0
 30
0.0
 11
-0.0196850393700788
 21
0.0
 31
0.0
  0
LINE
  5
12DEF
330
12DEB
100
AcDbEntity
  8
0
  6
Continuous
 62
     0
370
    18
100
AcDbLine
 10
0.0
 20
0.0
 30
0.0
 11
0.0
 21
-0.0196850393700788
 31
0.0
  0
LINE
  5
12DF0
330
12DEB
100
AcDbEntity
  8
0
  6
Continuous
 62
     0
370
    18
100
AcDbLine
 10
0.0
 20
0.0
 30
0.0
 11
0.0196850393700788
 21
0.0
 31
0.0
  0
LINE
  5
12DF1
330
12DEB
100
AcDbEntity
  8
0
  6
Continuous
 62
     0
370
    18
100
AcDbLine
 10
0.0
 20
0.0196850393700788
 30
0.0
 11
0.0
 21
0.0376850393700795
 31
0.0
  0
LINE
  5
12DF2
330
12DEB
100
AcDbEntity
  8
0
  6
Continuous
 62
     0
370
    18
100
AcDbLine
 10
-0.0196850393700788
 20
0.0
 30
0.0
 11
-0.0376850393700787
 21
0.0
 31
0.0
  0
LINE
  5
12DF3
330
12DEB
100
AcDbEntity
  8
0
  6
Continuous
 62
     0
370
    18
100
AcDbLine
 10
0.0
 20
-0.0196850393700788
 30
0.0
 11
0.0
 21
-0.0376850393700795
 31
0.0
  0
LINE
  5
12DF4
330
12DEB
100
AcDbEntity
  8
0
  6
Continuous
 62
     0
370
    18
100
AcDbLine
 10
0.0196850393700788
 20
0.0
 30
0.0
 11
0.037685039370079
 21
0.0
 31
0.0
  0
ENDBLK
  5
12DF5
330
12DEB
100
AcDbEntity
  8
0
100
AcDbBlockEnd
  0
BLOCK
  5
12DF7
330
12DF6
100
AcDbEntity
  8
0
100
AcDbBlockBegin
  2
SW_CENTERMARKSYMBOL_5
 70
     0
 10
0.0
 20
0.0
 30
0.0
  3
SW_CENTERMARKSYMBOL_5
  1

  0
LINE
  5
12DF8
330
12DF6
100
AcDbEntity
  8
0
  6
Continuous
 62
     0
370
    18
100
AcDbLine
 10
0.0
 20
0.0
 30
0.0
 11
0.0
 21
0.0196850393700788
 31
0.0
  0
LINE
  5
12DF9
330
12DF6
100
AcDbEntity
  8
0
  6
Continuous
 62
     0
370
    18
100
AcDbLine
 10
0.0
 20
0.0
 30
0.0
 11
-0.0196850393700788
 21
0.0
 31
0.0
  0
LINE
  5
12DFA
330
12DF6
100
AcDbEntity
  8
0
  6
Continuous
 62
     0
370
    18
100
AcDbLine
 10
0.0
 20
0.0
 30
0.0
 11
0.0
 21
-0.0196850393700788
 31
0.0
  0
LINE
  5
12DFB
330
12DF6
100
AcDbEntity
  8
0
  6
Continuous
 62
     0
370
    18
100
AcDbLine
 10
0.0
 20
0.0
 30
0.0
 11
0.0196850393700788
 21
0.0
 31
0.0
  0
LINE
  5
12DFC
330
12DF6
100
AcDbEntity
  8
0
  6
Continuous
 62
     0
370
    18
100
AcDbLine
 10
0.0
 20
0.0196850393700788
 30
0.0
 11
0.0
 21
0.0376850393700795
 31
0.0
  0
LINE
  5
12DFD
330
12DF6
100
AcDbEntity
  8
0
  6
Continuous
 62
     0
370
    18
100
AcDbLine
 10
-0.0196850393700788
 20
0.0
 30
0.0
 11
-0.037685039370079
 21
0.0
 31
0.0
  0
LINE
  5
12DFE
330
12DF6
100
AcDbEntity
  8
0
  6
Continuous
 62
     0
370
    18
100
AcDbLine
 10
0.0
 20
-0.0196850393700788
 30
0.0
 11
0.0
 21
-0.0376850393700795
 31
0.0
  0
LINE
  5
12DFF
330
12DF6
100
AcDbEntity
  8
0
  6
Continuous
 62
     0
370
    18
100
AcDbLine
 10
0.0196850393700788
 20
0.0
 30
0.0
 11
0.0376850393700784
 21
0.0
 31
0.0
  0
ENDBLK
  5
12E00
330
12DF6
100
AcDbEntity
  8
0
100
AcDbBlockEnd
  0
BLOCK
  5
12E02
330
12E01
100
AcDbEntity
  8
0
100
AcDbBlockBegin
  2
SW_CENTERMARKSYMBOL_6
 70
     0
 10
0.0
 20
0.0
 30
0.0
  3
SW_CENTERMARKSYMBOL_6
  1

  0
LINE
  5
12E03
330
12E01
100
AcDbEntity
  8
0
  6
Continuous
 62
     0
370
    18
100
AcDbLine
 10
0.0
 20
0.0
 30
0.0
 11
0.0
 21
0.0196850393700788
 31
0.0
  0
LINE
  5
12E04
330
12E01
100
AcDbEntity
  8
0
  6
Continuous
 62
     0
370
    18
100
AcDbLine
 10
0.0
 20
0.0
 30
0.0
 11
-0.0196850393700788
 21
0.0
 31
0.0
  0
LINE
  5
12E05
330
12E01
100
AcDbEntity
  8
0
  6
Continuous
 62
     0
370
    18
100
AcDbLine
 10
0.0
 20
0.0
 30
0.0
 11
0.0
 21
-0.0196850393700788
 31
0.0
  0
LINE
  5
12E06
330
12E01
100
AcDbEntity
  8
0
  6
Continuous
 62
     0
370
    18
100
AcDbLine
 10
0.0
 20
0.0
 30
0.0
 11
0.0196850393700788
 21
0.0
 31
0.0
  0
LINE
  5
12E07
330
12E01
100
AcDbEntity
  8
0
  6
Continuous
 62
     0
370
    18
100
AcDbLine
 10
0.0
 20
0.0196850393700788
 30
0.0
 11
0.0
 21
0.0376850393700817
 31
0.0
  0
LINE
  5
12E08
330
12E01
100
AcDbEntity
  8
0
  6
Continuous
 62
     0
370
    18
100
AcDbLine
 10
-0.0196850393700788
 20
0.0
 30
0.0
 11
-0.0376850393700811
 21
0.0
 31
0.0
  0
LINE
  5
12E09
330
12E01
100
AcDbEntity
  8
0
  6
Continuous
 62
     0
370
    18
100
AcDbLine
 10
0.0
 20
-0.0196850393700788
 30
0.0
 11
0.0
 21
-0.0376850393700806
 31
0.0
  0
LINE
  5
12E0A
330
12E01
100
AcDbEntity
  8
0
  6
Continuous
 62
     0
370
    18
100
AcDbLine
 10
0.0196850393700788
 20
0.0
 30
0.0
 11
0.0376850393700817
 21
0.0
 31
0.0
  0
ENDBLK
  5
12E0B
330
12E01
100
AcDbEntity
  8
0
100
AcDbBlockEnd
  0
BLOCK
  5
12E0D
330
12E0C
100
AcDbEntity
  8
0
100
AcDbBlockBegin
  2
SW_CENTERMARKSYMBOL_7
 70
     0
 10
0.0
 20
0.0
 30
0.0
  3
SW_CENTERMARKSYMBOL_7
  1

  0
LINE
  5
12E0E
330
12E0C
100
AcDbEntity
  8
0
  6
Continuous
 62
     0
370
    18
100
AcDbLine
 10
0.0
 20
0.0
 30
0.0
 11
0.0
 21
0.0196850393700788
 31
0.0
  0
LINE
  5
12E0F
330
12E0C
100
AcDbEntity
  8
0
  6
Continuous
 62
     0
370
    18
100
AcDbLine
 10
0.0
 20
0.0
 30
0.0
 11
-0.0196850393700788
 21
0.0
 31
0.0
  0
LINE
  5
12E10
330
12E0C
100
AcDbEntity
  8
0
  6
Continuous
 62
     0
370
    18
100
AcDbLine
 10
0.0
 20
0.0
 30
0.0
 11
0.0
 21
-0.0196850393700788
 31
0.0
  0
LINE
  5
12E11
330
12E0C
100
AcDbEntity
  8
0
  6
Continuous
 62
     0
370
    18
100
AcDbLine
 10
0.0
 20
0.0
 30
0.0
 11
0.0196850393700788
 21
0.0
 31
0.0
  0
LINE
  5
12E12
330
12E0C
100
AcDbEntity
  8
0
  6
Continuous
 62
     0
370
    18
100
AcDbLine
 10
0.0
 20
0.0196850393700788
 30
0.0
 11
0.0
 21
0.0376850393701287
 31
0.0
  0
LINE
  5
12E13
330
12E0C
100
AcDbEntity
  8
0
  6
Continuous
 62
     0
370
    18
100
AcDbLine
 10
-0.0196850393700788
 20
0.0
 30
0.0
 11
-0.0376850393701292
 21
0.0
 31
0.0
  0
LINE
  5
12E14
330
12E0C
100
AcDbEntity
  8
0
  6
Continuous
 62
     0
370
    18
100
AcDbLine
 10
0.0
 20
-0.0196850393700788
 30
0.0
 11
0.0
 21
-0.0376850393701298
 31
0.0
  0
LINE
  5
12E15
330
12E0C
100
AcDbEntity
  8
0
  6
Continuous
 62
     0
370
    18
100
AcDbLine
 10
0.0196850393700788
 20
0.0
 30
0.0
 11
0.0376850393701292
 21
0.0
 31
0.0
  0
ENDBLK
  5
12E16
330
12E0C
100
AcDbEntity
  8
0
100
AcDbBlockEnd
  0
BLOCK
  5
12E18
330
12E17
100
AcDbEntity
  8
0
100
AcDbBlockBegin
  2
_D_1
 70
     0
 10
0.0
 20
0.0
 30
0.0
  3
_D_1
  1

  0
SOLID
  5
12E19
330
12E17
100
AcDbEntity
  8
0
  6
Continuous
 62
     7
440
 16777216
370
    18
100
AcDbTrace
 10
2.160630226643001
 20
9.80844873635657
 30
0.0
 11
2.030630226643001
 21
9.828448736356568
 31
0.0
 12
2.030630226643002
 22
9.788448736356569
 32
0.0
 13
2.030630226643002
 23
9.788448736356569
 33
0.0
  0
SOLID
  5
12E1A
330
12E17
100
AcDbEntity
  8
0
  6
Continuous
 62
     7
440
 16777216
370
    18
100
AcDbTrace
 10
2.873130226643035
 20
9.808448736356581
 30
0.0
 11
3.003130226643035
 21
9.788448736356583
 31
0.0
 12
3.003130226643035
 22
9.828448736356582
 32
0.0
 13
3.003130226643035
 23
9.828448736356582
 33
0.0
  0
LINE
  5
12E1B
330
12E17
100
AcDbEntity
  8
0
  6
Continuous
 62
     7
440
 16777216
370
     0
100
AcDbLine
 10
2.384523550010336
 20
10.00277835123595
 30
0.0
 11
2.628536022824094
 21
10.00277835123595
 31
0.0
  0
LINE
  5
12E1C
330
12E17
100
AcDbEntity
  8
0
  6
Continuous
 62
     7
440
 16777216
370
     0
100
AcDbLine
 10
2.160630226643001
 20
9.80844873635657
 30
0.0
 11
1.910630226643001
 21
9.808448736356568
 31
0.0
  0
LINE
  5
12E1D
330
12E17
100
AcDbEntity
  8
0
  6
Continuous
 62
     7
440
 16777216
370
     0
100
AcDbLine
 10
2.160630226643001
 20
9.80844873635657
 30
0.0
 11
2.873130226643035
 21
9.808448736356581
 31
0.0
  0
LINE
  5
12E1E
330
12E17
100
AcDbEntity
  8
0
  6
Continuous
 62
     7
440
 16777216
370
     0
100
AcDbLine
 10
2.873130226643035
 20
9.808448736356581
 30
0.0
 11
3.123130226643035
 21
9.808448736356584
 31
0.0
  0
MTEXT
  5
12E1F
330
12E17
100
AcDbEntity
  8
0
  6
Continuous
 62
     7
440
 16777216
370
    18
100
AcDbMText
 10
2.262517313603456
 20
10.06761462033266
 30
0.0
 40
0.1377952755905512
 41
0.0
 46
0.0
 71
     1
 72
     1
  1
3
  7
SLDTEXTSTYLE0
 73
     1
 44
1.0
  0
MTEXT
  5
12E20
330
12E17
100
AcDbEntity
  8
0
  6
Continuous
 62
     7
440
 16777216
370
    18
100
AcDbMText
 10
2.455622085757315
 20
10.16829129418214
 30
0.0
 40
0.1377952755905512
 41
0.0
 46
0.0
 71
     1
 72
     1
  1
9
  7
SLDTEXTSTYLE0
 73
     1
 44
1.0
  0
MTEXT
  5
12E21
330
12E17
100
AcDbEntity
  8
0
  6
Continuous
 62
     7
440
 16777216
370
    18
100
AcDbMText
 10
2.404714385097419
 20
9.986076177089428
 30
0.0
 40
0.1377952755905512
 41
0.0
 46
0.0
 71
     1
 72
     1
  1
16
  7
SLDTEXTSTYLE0
 73
     1
 44
1.0
  0
MTEXT
  5
12E22
330
12E17
100
AcDbEntity
  8
0
  6
Continuous
 62
     7
440
 16777216
370
    18
100
AcDbMText
 10
2.648726848744616
 20
10.06761462033266
 30
0.0
 40
0.1377952755905512
 41
0.0
 46
0.0
 71
     1
 72
     1
  1
"
  7
SLDTEXTSTYLE0
 73
     1
 44
1.0
  0
ENDBLK
  5
12E23
330
12E17
100
AcDbEntity
  8
0
100
AcDbBlockEnd
  0
BLOCK
  5
12E25
330
12E24
100
AcDbEntity
  8
0
100
AcDbBlockBegin
  2
_D_2
 70
     0
 10
0.0
 20
0.0
 30
0.0
  3
_D_2
  1

  0
SOLID
  5
12E26
330
12E24
100
AcDbEntity
  8
0
  6
Continuous
 62
     7
440
 16777216
370
    18
100
AcDbTrace
 10
5.898810803547744
 20
8.805904620439889
 30
0.0
 11
5.768810803547745
 21
8.825904620439894
 31
0.0
 12
5.768810803547744
 22
8.785904620439895
 32
0.0
 13
5.768810803547744
 23
8.785904620439895
 33
0.0
  0
SOLID
  5
12E27
330
12E24
100
AcDbEntity
  8
0
  6
Continuous
 62
     7
440
 16777216
370
    18
100
AcDbTrace
 10
6.498810803547742
 20
8.805904620439864
 30
0.0
 11
6.628810803547741
 21
8.785904620439859
 31
0.0
 12
6.628810803547743
 22
8.825904620439859
 32
0.0
 13
6.628810803547743
 23
8.825904620439859
 33
0.0
  0
LINE
  5
12E28
330
12E24
100
AcDbEntity
  8
0
  6
Continuous
 62
     7
440
 16777216
370
     0
100
AcDbLine
 10
5.898810803547746
 20
8.85420057353499
 30
0.0
 11
5.898810803547742
 21
8.766534541699732
 31
0.0
  0
LINE
  5
12E29
330
12E24
100
AcDbEntity
  8
0
  6
Continuous
 62
     7
440
 16777216
370
     0
100
AcDbLine
 10
6.498810803547751
 20
9.04103193649585
 30
0.0
 11
6.49881080354774
 21
8.766534541699707
 31
0.0
  0
LINE
  5
12E2A
330
12E24
100
AcDbEntity
  8
0
  6
Continuous
 62
     7
440
 16777216
370
     0
100
AcDbLine
 10
5.898810803547744
 20
8.805904620439889
 30
0.0
 11
5.648810803547744
 21
8.805904620439902
 31
0.0
  0
LINE
  5
12E2B
330
12E24
100
AcDbEntity
  8
0
  6
Continuous
 62
     7
440
 16777216
370
     0
100
AcDbLine
 10
5.898810803547744
 20
8.805904620439889
 30
0.0
 11
6.498810803547742
 21
8.805904620439864
 31
0.0
  0
LINE
  5
12E2C
330
12E24
100
AcDbEntity
  8
0
  6
Continuous
 62
     7
440
 16777216
370
     0
100
AcDbLine
 10
6.498810803547742
 20
8.805904620439864
 30
0.0
 11
6.748810803547742
 21
8.805904620439854
 31
0.0
  0
MTEXT
  5
12E2D
330
12E24
100
AcDbEntity
  8
0
  6
Continuous
 62
     7
440
 16777216
370
    18
100
AcDbMText
 10
6.125742974366845
 20
8.983532058021722
 30
0.0
 40
0.1377952755905512
 41
0.0
 46
0.0
 71
     1
 72
     1
  1
3"
  7
SLDTEXTSTYLE0
 73
     1
 44
1.0
  0
ENDBLK
  5
12E2E
330
12E24
100
AcDbEntity
  8
0
100
AcDbBlockEnd
  0
BLOCK
  5
12E30
330
12E2F
100
AcDbEntity
  8
0
100
AcDbBlockBegin
  2
SW_CENTERMARKSYMBOL_8
 70
     0
 10
0.0
 20
0.0
 30
0.0
  3
SW_CENTERMARKSYMBOL_8
  1

  0
LINE
  5
12E31
330
12E2F
100
AcDbEntity
  8
0
  6
Continuous
 62
     0
370
    18
100
AcDbLine
 10
0.0
 20
0.0
 30
0.0
 11
0.0196235894114555
 21
-0.0015541922700087
 31
0.0
  0
LINE
  5
12E32
330
12E2F
100
AcDbEntity
  8
0
  6
Continuous
 62
     0
370
    18
100
AcDbLine
 10
0.0
 20
0.0
 30
0.0
 11
0.0015541922700082
 21
0.019623589411456
 31
0.0
  0
LINE
  5
12E33
330
12E2F
100
AcDbEntity
  8
0
  6
Continuous
 62
     0
370
    18
100
AcDbLine
 10
0.0
 20
0.0
 30
0.0
 11
-0.0196235894114566
 21
0.0015541922700087
 31
0.0
  0
LINE
  5
12E34
330
12E2F
100
AcDbEntity
  8
0
  6
Continuous
 62
     0
370
    18
100
AcDbLine
 10
0.0
 20
0.0
 30
0.0
 11
-0.0015541922700093
 21
-0.019623589411456
 31
0.0
  0
LINE
  5
12E35
330
12E2F
100
AcDbEntity
  8
0
  6
Continuous
 62
     0
370
    18
100
AcDbLine
 10
0.0196235894114555
 20
-0.0015541922700087
 30
0.0
 11
0.0359723942219334
 21
-0.0028490209339982
 31
0.0
  0
LINE
  5
12E36
330
12E2F
100
AcDbEntity
  8
0
  6
Continuous
 62
     0
370
    18
100
AcDbLine
 10
-0.0196235894114566
 20
0.0015541922700087
 30
0.0
 11
-0.0359723942219345
 21
0.0028490209339987
 31
0.0
  0
LINE
  5
12E37
330
12E2F
100
AcDbEntity
  8
0
  6
Continuous
 62
     0
370
    18
100
AcDbLine
 10
-0.0197382418291126
 20
-0.2492195855254894
 30
0.0
 11
-0.0001146524176572
 21
-0.2507737777954981
 31
0.0
  0
LINE
  5
12E38
330
12E2F
100
AcDbEntity
  8
0
  6
Continuous
 62
     0
370
    18
100
AcDbLine
 10
-0.0197382418291126
 20
-0.2492195855254894
 30
0.0
 11
-0.0181840495591045
 21
-0.2295959961140334
 31
0.0
  0
LINE
  5
12E39
330
12E2F
100
AcDbEntity
  8
0
  6
Continuous
 62
     0
370
    18
100
AcDbLine
 10
-0.0197382418291126
 20
-0.2492195855254894
 30
0.0
 11
-0.0393618312405681
 21
-0.2476653932554807
 31
0.0
  0
LINE
  5
12E3A
330
12E2F
100
AcDbEntity
  8
0
  6
Continuous
 62
     0
370
    18
100
AcDbLine
 10
-0.0197382418291126
 20
-0.2492195855254894
 30
0.0
 11
-0.0212924340991208
 21
-0.2688431749369454
 31
0.0
  0
LINE
  5
12E3B
330
12E2F
100
AcDbEntity
  8
0
  6
Continuous
 62
     0
370
    18
100
AcDbLine
 10
-0.0001146524176572
 20
-0.2507737777954981
 30
0.0
 11
0.0162341523928207
 21
-0.2520686064594881
 31
0.0
  0
LINE
  5
12E3C
330
12E2F
100
AcDbEntity
  8
0
  6
Continuous
 62
     0
370
    18
100
AcDbLine
 10
-0.0393618312405681
 20
-0.2476653932554807
 30
0.0
 11
-0.055710636051046
 21
-0.2463705645914907
 31
0.0
  0
LINE
  5
12E3D
330
12E2F
100
AcDbEntity
  8
0
  6
Continuous
 62
     0
370
    18
100
AcDbLine
 10
-0.0212924340991208
 20
-0.2688431749369454
 30
0.0
 11
-0.0225872627631114
 21
-0.2851919797474233
 31
0.0
  0
LINE
  5
12E3E
330
12E2F
100
AcDbEntity
  8
0
  6
Continuous
 62
     0
370
    18
100
AcDbLine
 10
0.0197382418291115
 20
0.2492195855254889
 30
0.0
 11
0.039361831240567
 21
0.2476653932554802
 31
0.0
  0
LINE
  5
12E3F
330
12E2F
100
AcDbEntity
  8
0
  6
Continuous
 62
     0
370
    18
100
AcDbLine
 10
0.0197382418291115
 20
0.2492195855254889
 30
0.0
 11
0.0212924340991197
 21
0.2688431749369443
 31
0.0
  0
LINE
  5
12E40
330
12E2F
100
AcDbEntity
  8
0
  6
Continuous
 62
     0
370
    18
100
AcDbLine
 10
0.0197382418291115
 20
0.2492195855254889
 30
0.0
 11
0.0001146524176561
 21
0.250773777795497
 31
0.0
  0
LINE
  5
12E41
330
12E2F
100
AcDbEntity
  8
0
  6
Continuous
 62
     0
370
    18
100
AcDbLine
 10
0.0197382418291115
 20
0.2492195855254889
 30
0.0
 11
0.0181840495591034
 21
0.2295959961140329
 31
0.0
  0
LINE
  5
12E42
330
12E2F
100
AcDbEntity
  8
0
  6
Continuous
 62
     0
370
    18
100
AcDbLine
 10
0.039361831240567
 20
0.2476653932554802
 30
0.0
 11
0.0557106360510449
 21
0.2463705645914902
 31
0.0
  0
LINE
  5
12E43
330
12E2F
100
AcDbEntity
  8
0
  6
Continuous
 62
     0
370
    18
100
AcDbLine
 10
0.0212924340991197
 20
0.2688431749369443
 30
0.0
 11
0.0225872627631103
 21
0.2851919797474222
 31
0.0
  0
LINE
  5
12E44
330
12E2F
100
AcDbEntity
  8
0
  6
Continuous
 62
     0
370
    18
100
AcDbLine
 10
0.0001146524176561
 20
0.250773777795497
 30
0.0
 11
-0.0162341523928218
 21
0.252068606459487
 31
0.0
  0
LINE
  5
12E45
330
12E2F
100
AcDbEntity
  8
0
  6
CENTERX2
 62
     0
370
    18
100
AcDbLine
 10
0.0166298572890941
 20
0.2099724067025774
 30
0.0
 11
0.0031083845400174
 21
0.0392471788229115
 31
0.0
  0
LINE
  5
12E46
330
12E2F
100
AcDbEntity
  8
0
  6
CENTERX2
 62
     0
370
    18
100
AcDbLine
 10
-0.0031083845400185
 20
-0.0392471788229115
 30
0.0
 11
-0.0166298572890952
 21
-0.209972406702578
 31
0.0
  0
ENDBLK
  5
12E47
330
12E2F
100
AcDbEntity
  8
0
100
AcDbBlockEnd
  0
ENDSEC
  0
SECTION
  2
ENTITIES
  0
MTEXT
  5
3273
330
2
100
AcDbEntity
  8
OBJ
 62
     7
100
AcDbMText
 10
-1020.145259560668
 20
-793.3934299366524
 30
0.0
 40
22.0
 41
0.0
 46
0.0
 71
     8
 72
     1
  1
{\fArial|b0|i0|c0|p34;BPH7118 - SIDE VIEW}
  7
SLDTEXTSTYLE0
 73
     1
 44
1.0
  0
MTEXT
  5
4AE9
330
2
100
AcDbEntity
  8
OBJ
 62
     7
100
AcDbMText
 10
-1394.246094650625
 20
-793.4138937838549
 30
0.0
 40
22.0
 41
0.0
 46
0.0
 71
     8
 72
     1
  1
{\fArial|b0|i0|c0|p34;BPH7118 - FRONT VIEW}
  7
SLDTEXTSTYLE0
 73
     1
 44
1.0
  0
LWPOLYLINE
  5
BB29
330
2
100
AcDbEntity
  8
Defpoints
100
AcDbPolyline
 90
        4
 70
     1
 43
0.0
 10
-1669.727972433093
 20
-901.6172228322036
 10
-829.7279724330953
 20
-901.6172228322036
 10
-829.7279724330953
 20
286.3827771677953
 10
-1669.727972433093
 20
286.3827771677953
  0
MTEXT
  5
10064
330
2
100
AcDbEntity
  8
OBJ
 62
     7
100
AcDbMText
 10
-1394.246094650625
 20
-69.15879539295116
 30
0.0
 40
22.0
 41
0.0
 46
26.92223738062756
 71
     8
 72
     1
  1
{\fArial|b0|i0|c0|p34;BPH7118 - TOP  VIEW}
  7
SLDTEXTSTYLE0
 73
     1
 44
1.0
  0
LWPOLYLINE
  5
1455C
330
2
100
AcDbEntity
  8
0
  6
Continuous
 62
     7
370
    25
100
AcDbPolyline
 90
        9
 70
   128
 43
0.0
 10
-1482.327288261865
 20
-684.0948340597257
 10
-1482.202532655161
 20
-684.0948355194454
 10
-1482.071584673693
 20
-684.0948368033417
 10
-1481.935255851055
 20
-684.0948379034929
 10
-1481.794391067876
 20
-684.0948388130751
 10
-1481.649863315847
 20
-684.094839526425
 10
-1481.502568287441
 20
-684.0948400391493
 10
-1481.353418824975
 20
-684.0948403480648
 10
-1481.203339263404
 20
-684.0948404512463
  0
LWPOLYLINE
  5
1455D
330
2
100
AcDbEntity
  8
0
  6
Continuous
 62
     7
370
    25
100
AcDbPolyline
 90
        9
 70
   128
 43
0.0
 10
-1481.225767189236
 20
-684.0935084894444
 10
-1481.372405865625
 20
-684.0935085879492
 10
-1481.518177021864
 20
-684.093508882872
 10
-1481.662218270043
 20
-684.0935093724477
 10
-1481.803677456523
 20
-684.0935100538017
 10
-1481.941717703176
 20
-684.0935109229109
 10
-1482.07552235852
 20
-684.0935119746178
 10
-1482.204299828928
 20
-684.0935132027156
 10
-1482.327288261865
 20
-684.0935145999118
  0
LINE
  5
1455E
330
2
100
AcDbEntity
  8
0
  6
Continuous
 62
     7
370
    25
100
AcDbLine
 10
-1481.225767189236
 20
-684.0935084894444
 30
0.0
 11
-1307.266528632733
 21
-684.0935084894444
 31
0.0
  0
LWPOLYLINE
  5
1455F
330
2
100
AcDbEntity
  8
0
  6
Continuous
 62
     7
370
    25
100
AcDbPolyline
 90
        9
 70
   128
 43
0.0
 10
-1306.165007560105
 20
-684.0935145999118
 10
-1306.287995993042
 20
-684.0935132027156
 10
-1306.416773463456
 20
-684.0935119746178
 10
-1306.550578118793
 20
-684.0935109229109
 10
-1306.688618365453
 20
-684.0935100538017
 10
-1306.830077551927
 20
-684.0935093724477
 10
-1306.974118800112
 20
-684.093508882872
 10
-1307.119889956345
 20
-684.0935085879492
 10
-1307.266528632733
 20
-684.0935084894444
  0
LWPOLYLINE
  5
14560
330
2
100
AcDbEntity
  8
0
  6
Continuous
 62
     7
370
    25
100
AcDbPolyline
 90
        9
 70
   128
 43
0.0
 10
-1307.288956396426
 20
-684.0948404512463
 10
-1307.138876859856
 20
-684.0948403480648
 10
-1306.989727421938
 20
-684.0948400391493
 10
-1306.842432417144
 20
-684.094839526425
 10
-1306.69790468735
 20
-684.0948388130751
 10
-1306.557039924587
 20
-684.0948379034929
 10
-1306.420711120142
 20
-684.0948368033417
 10
-1306.289763154247
 20
-684.0948355194454
 10
-1306.165007560105
 20
-684.0948340597257
  0
LINE
  5
14561
330
2
100
AcDbEntity
  8
0
  6
Continuous
 62
     7
370
    25
100
AcDbLine
 10
-1307.288956396426
 20
-684.0948404512463
 30
0.0
 11
-1481.203339263404
 21
-684.0948404512463
 31
0.0
  0
LINE
  5
14562
330
2
100
AcDbEntity
  8
0
  6
Continuous
 62
     7
370
    25
100
AcDbLine
 10
-1481.203339263404
 20
-684.0948404512463
 30
0.0
 11
-1481.203339263404
 21
-686.842208871884
 31
0.0
  0
LWPOLYLINE
  5
14563
330
2
100
AcDbEntity
  8
0
  6
Continuous
 62
     7
370
    25
100
AcDbPolyline
 90
        9
 70
   128
 43
0.0
 10
-1481.203339263404
 20
-686.842208871884
 10
-1481.353418824975
 20
-686.8422087686901
 10
-1481.502568287441
 20
-686.8422084597869
 10
-1481.649863315847
 20
-686.8422079470625
 10
-1481.794391067876
 20
-686.8422072337003
 10
-1481.935255851055
 20
-686.8422063241427
 10
-1482.071584673693
 20
-686.8422052239792
 10
-1482.202532655161
 20
-686.8422039400705
 10
-1482.327288261865
 20
-686.8422024803631
  0
LINE
  5
14564
330
2
100
AcDbEntity
  8
0
  6
Continuous
 62
     7
370
    25
100
AcDbLine
 10
-1482.327288261865
 20
-684.0948340597257
 30
0.0
 11
-1482.327288261865
 21
-686.8422024803631
 31
0.0
  0
LWPOLYLINE
  5
14565
330
2
100
AcDbEntity
  8
0
  6
Continuous
 62
     7
370
    25
100
AcDbPolyline
 90
        9
 70
   128
 43
0.0
 10
-1306.165007560105
 20
-686.8422024803631
 10
-1306.289763154247
 20
-686.8422039400705
 10
-1306.420711120142
 20
-686.8422052239792
 10
-1306.557039924587
 20
-686.8422063241427
 10
-1306.69790468735
 20
-686.8422072337003
 10
-1306.842432417144
 20
-686.8422079470625
 10
-1306.989727421938
 20
-686.8422084597869
 10
-1307.138876859856
 20
-686.8422087686901
 10
-1307.288956396426
 20
-686.842208871884
  0
LINE
  5
14566
330
2
100
AcDbEntity
  8
0
  6
Continuous
 62
     7
370
    25
100
AcDbLine
 10
-1307.288956396426
 20
-686.842208871884
 30
0.0
 11
-1307.288956396426
 21
-684.0948404512463
 31
0.0
  0
LINE
  5
14567
330
2
100
AcDbEntity
  8
0
  6
Continuous
 62
     7
370
    25
100
AcDbLine
 10
-1306.165007560105
 20
-684.0948340597257
 30
0.0
 11
-1306.165007560105
 21
-686.8422024803631
 31
0.0
  0
LINE
  5
14568
330
2
100
AcDbEntity
  8
0
  6
Continuous
 62
     7
370
    25
100
AcDbLine
 10
-1307.288956396426
 20
-686.842208871884
 30
0.0
 11
-1481.203339263404
 21
-686.842208871884
 31
0.0
  0
SPLINE
  5
14569
330
2
100
AcDbEntity
  8
0
  6
Continuous
 62
     7
370
    25
100
AcDbSpline
210
0.0
220
0.0
230
1.0
 70
     8
 71
     3
 72
    13
 73
     9
 74
     0
 42
0.00000001
 43
0.0000000001
 40
0.0
 40
0.0
 40
0.0
 40
0.0
 40
0.1657192555254166
 40
0.3311862163705241
 40
0.4968769609007375
 40
0.6632656407360483
 40
0.8308204763910779
 40
1.0
 40
1.0
 40
1.0
 40
1.0
 10
-1305.376603304629
 20
-686.7831250729424
 30
0.0
 10
-1305.414696795451
 20
-686.7886289546166
 30
0.0
 10
-1305.490825782719
 20
-686.7996283387002
 30
0.0
 10
-1305.613401872758
 20
-686.8138379383359
 30
0.0
 10
-1305.741803771486
 20
-686.8258173085374
 30
0.0
 10
-1305.876710858566
 20
-686.8348872763005
 30
0.0
 10
-1306.017523619993
 20
-686.8409910344718
 30
0.0
 10
-1306.115688370469
 20
-686.8417973682586
 30
0.0
 10
-1306.165007560105
 20
-686.8422024803631
 30
0.0
  0
SPLINE
  5
1456A
330
2
100
AcDbEntity
  8
0
  6
Continuous
 62
     7
370
    25
100
AcDbSpline
210
0.0
220
0.0
230
1.0
 70
     8
 71
     3
 72
     8
 73
     4
 74
     0
 42
0.00000001
 43
0.0000000001
 40
0.0
 40
0.0
 40
0.0
 40
0.0
 40
1.0
 40
1.0
 40
1.0
 40
1.0
 10
-1305.785967052668
 20
-684.0664258697639
 30
0.0
 10
-1305.8941483941
 20
-684.0827313727801
 30
0.0
 10
-1306.020740492874
 20
-684.0948311615594
 30
0.0
 10
-1306.165007560105
 20
-684.0948340597257
 30
0.0
  0
LINE
  5
1456B
330
2
100
AcDbEntity
  8
0
  6
Continuous
 62
     7
370
    25
100
AcDbLine
 10
-1305.785967052668
 20
-684.0664258697639
 30
0.0
 11
-1305.376603304629
 21
-686.7831250729424
 31
0.0
  0
SPLINE
  5
1456C
330
2
100
AcDbEntity
  8
0
  6
Continuous
 62
     7
370
    25
100
AcDbSpline
210
0.0
220
0.0
230
1.0
 70
     8
 71
     3
 72
     8
 73
     4
 74
     0
 42
0.00000001
 43
0.0000000001
 40
0.0
 40
0.0
 40
0.0
 40
0.0
 40
1.0
 40
1.0
 40
1.0
 40
1.0
 10
-1306.165007560105
 20
-684.0935145999118
 30
0.0
 10
-1306.0200003852
 20
-684.0935174262755
 30
0.0
 10
-1305.892021062184
 20
-684.0812847413618
 30
0.0
 10
-1305.781860579871
 20
-684.064505505771
 30
0.0
  0
SPLINE
  5
1456D
330
2
100
AcDbEntity
  8
0
  6
Continuous
 62
     7
370
    25
100
AcDbSpline
210
0.0
220
0.0
230
1.0
 70
     8
 71
     3
 72
    10
 73
     6
 74
     0
 42
0.00000001
 43
0.0000000001
 40
0.0
 40
0.0
 40
0.0
 40
0.0
 40
0.5
 40
0.5
 40
1.0
 40
1.0
 40
1.0
 40
1.0
 10
-1304.983510787962
 20
-683.8025418588726
 30
0.0
 10
-1304.744090096167
 20
-683.6769860483392
 30
0.0
 10
-1304.531356324886
 20
-683.5164750725038
 30
0.0
 10
-1304.171727157716
 20
-683.150900708477
 30
0.0
 10
-1304.024790537253
 20
-682.9459510944606
 30
0.0
 10
-1303.912170132529
 20
-682.7312033803833
 30
0.0
  0
SPLINE
  5
1456E
330
2
100
AcDbEntity
  8
0
  6
Continuous
 62
     7
370
    25
100
AcDbSpline
210
0.0
220
0.0
230
1.0
 70
     8
 71
     3
 72
     8
 73
     4
 74
     0
 42
0.00000001
 43
0.0000000001
 40
0.0
 40
0.0
 40
0.0
 40
0.0
 40
1.0
 40
1.0
 40
1.0
 40
1.0
 10
-1303.912170132529
 20
-682.7312033803833
 30
0.0
 10
-1303.781478586689
 20
-682.4819940180378
 30
0.0
 10
-1303.692547035072
 20
-682.2109948270471
 30
0.0
 10
-1303.650166246939
 20
-681.9328039550147
 30
0.0
  0
SPLINE
  5
1456F
330
2
100
AcDbEntity
  8
0
  6
Continuous
 62
     7
370
    25
100
AcDbSpline
210
0.0
220
0.0
230
1.0
 70
     8
 71
     3
 72
     8
 73
     4
 74
     0
 42
0.00000001
 43
0.0000000001
 40
0.0
 40
0.0
 40
0.0
 40
0.0
 40
1.0
 40
1.0
 40
1.0
 40
1.0
 10
-1303.621147910988
 20
-681.5509660395677
 30
0.0
 10
-1303.621147910988
 20
-681.7710296807514
 30
0.0
 10
-1303.647103386171
 20
-681.9240664801737
 30
0.0
 10
-1303.663108268295
 20
-682.0110869708488
 30
0.0
  0
SPLINE
  5
14570
330
2
100
AcDbEntity
  8
0
  6
Continuous
 62
     7
370
    25
100
AcDbSpline
210
0.0
220
0.0
230
1.0
 70
     8
 71
     3
 72
     8
 73
     4
 74
     0
 42
0.00000001
 43
0.0000000001
 40
0.0
 40
0.0
 40
0.0
 40
0.0
 40
1.0
 40
1.0
 40
1.0
 40
1.0
 10
-1303.663108268295
 20
-682.0110869708488
 30
0.0
 10
-1303.707895053546
 20
-682.2545979303978
 30
0.0
 10
-1303.788472499141
 20
-682.4914718187059
 30
0.0
 10
-1303.901464180497
 20
-682.7117825113731
 30
0.0
  0
SPLINE
  5
14571
330
2
100
AcDbEntity
  8
0
  6
Continuous
 62
     7
370
    25
100
AcDbSpline
210
0.0
220
0.0
230
1.0
 70
     8
 71
     3
 72
    10
 73
     6
 74
     0
 42
0.00000001
 43
0.0000000001
 40
0.0
 40
0.0
 40
0.0
 40
0.0
 40
0.5
 40
0.5
 40
1.0
 40
1.0
 40
1.0
 40
1.0
 10
-1303.901464180497
 20
-682.7117825113731
 30
0.0
 10
-1304.027247578551
 20
-682.9570381862384
 30
0.0
 10
-1304.188420560002
 20
-683.1726550180634
 30
0.0
 10
-1304.551755219638
 20
-683.5344352455887
 30
0.0
 10
-1304.75378954166
 20
-683.6806845319784
 30
0.0
 10
-1304.962758414168
 20
-683.7927581563207
 30
0.0
  0
SPLINE
  5
14572
330
2
100
AcDbEntity
  8
0
  6
Continuous
 62
     7
370
    25
100
AcDbSpline
210
0.0
220
0.0
230
1.0
 70
     8
 71
     3
 72
     8
 73
     4
 74
     0
 42
0.00000001
 43
0.0000000001
 40
0.0
 40
0.0
 40
0.0
 40
0.0
 40
1.0
 40
1.0
 40
1.0
 40
1.0
 10
-1304.962758414168
 20
-683.7927581563207
 30
0.0
 10
-1305.218856113129
 20
-683.9301111646299
 30
0.0
 10
-1305.498611192396
 20
-684.0231127655614
 30
0.0
 10
-1305.785967052668
 20
-684.0664258697639
 30
0.0
  0
SPLINE
  5
14573
330
2
100
AcDbEntity
  8
0
  6
Continuous
 62
     7
370
    25
100
AcDbSpline
210
0.0
220
0.0
230
1.0
 70
     8
 71
     3
 72
    13
 73
     9
 74
     0
 42
0.00000001
 43
0.0000000001
 40
0.0
 40
0.0
 40
0.0
 40
0.0
 40
0.169179442795699
 40
0.3367342287864469
 40
0.5031228911803935
 40
0.6688136513201773
 40
0.8342806613819682
 40
1.0
 40
1.0
 40
1.0
 40
1.0
 10
-1482.327288261865
 20
-686.8422024803631
 30
0.0
 10
-1482.376607430295
 20
-686.8417973685795
 30
0.0
 10
-1482.474772147418
 20
-686.8409910353972
 30
0.0
 10
-1482.615584865473
 20
-686.834887281372
 30
0.0
 10
-1482.750491931001
 20
-686.8258173180387
 30
0.0
 10
-1482.878893829365
 20
-686.8138379509592
 30
0.0
 10
-1483.001469940135
 20
-686.7996283517306
 30
0.0
 10
-1483.077598947355
 20
-686.7886289658826
 30
0.0
 10
-1483.115692452047
 20
-686.7831250827768
 30
0.0
  0
LINE
  5
14574
330
2
100
AcDbEntity
  8
0
  6
Continuous
 62
     7
370
    25
100
AcDbLine
 10
-1482.706328737923
 20
-684.0664258745024
 30
0.0
 11
-1483.115692452047
 21
-686.7831250827768
 31
0.0
  0
SPLINE
  5
14575
330
2
100
AcDbEntity
  8
0
  6
Continuous
 62
     7
370
    25
100
AcDbSpline
210
0.0
220
0.0
230
1.0
 70
     8
 71
     3
 72
     8
 73
     4
 74
     0
 42
0.00000001
 43
0.0000000001
 40
0.0
 40
0.0
 40
0.0
 40
0.0
 40
1.0
 40
1.0
 40
1.0
 40
1.0
 10
-1482.327288261865
 20
-684.0948340597257
 30
0.0
 10
-1482.471555256602
 20
-684.0948311615594
 30
0.0
 10
-1482.598147345591
 20
-684.0827313838113
 30
0.0
 10
-1482.706328737923
 20
-684.0664258745024
 30
0.0
  0
SPLINE
  5
14576
330
2
100
AcDbEntity
  8
0
  6
Continuous
 62
     7
370
    25
100
AcDbSpline
210
0.0
220
0.0
230
1.0
 70
     8
 71
     3
 72
     8
 73
     4
 74
     0
 42
0.00000001
 43
0.0000000001
 40
0.0
 40
0.0
 40
0.0
 40
0.0
 40
1.0
 40
1.0
 40
1.0
 40
1.0
 10
-1482.706328737923
 20
-684.0664258745024
 30
0.0
 10
-1482.993684665161
 20
-684.0231127638586
 30
0.0
 10
-1483.273439808431
 20
-683.9301111332014
 30
0.0
 10
-1483.529537557435
 20
-683.7927580760532
 30
0.0
  0
SPLINE
  5
14577
330
2
100
AcDbEntity
  8
0
  6
Continuous
 62
     7
370
    25
100
AcDbSpline
210
0.0
220
0.0
230
1.0
 70
     8
 71
     3
 72
    10
 73
     6
 74
     0
 42
0.00000001
 43
0.0000000001
 40
0.0
 40
0.0
 40
0.0
 40
0.0
 40
0.5
 40
0.5
 40
1.0
 40
1.0
 40
1.0
 40
1.0
 10
-1483.529537557435
 20
-683.7927580760532
 30
0.0
 10
-1483.763058038318
 20
-683.667517901776
 30
0.0
 10
-1483.97284413114
 20
-683.5077189383176
 30
0.0
 10
-1484.33019847753
 20
-683.1400303737254
 30
0.0
 10
-1484.477767840288
 20
-682.9322364413589
 30
0.0
 10
-1484.590831717396
 20
-682.7117823632887
 30
0.0
  0
SPLINE
  5
14578
330
2
100
AcDbEntity
  8
0
  6
Continuous
 62
     7
370
    25
100
AcDbSpline
210
0.0
220
0.0
230
1.0
 70
     8
 71
     3
 72
     8
 73
     4
 74
     0
 42
0.00000001
 43
0.0000000001
 40
0.0
 40
0.0
 40
0.0
 40
0.0
 40
1.0
 40
1.0
 40
1.0
 40
1.0
 10
-1484.590831717396
 20
-682.7117823632887
 30
0.0
 10
-1484.703823269468
 20
-682.4914718872263
 30
0.0
 10
-1484.784400651108
 20
-682.2545982514058
 30
0.0
 10
-1484.82918744718
 20
-682.0110875497986
 30
0.0
  0
SPLINE
  5
14579
330
2
100
AcDbEntity
  8
0
  6
Continuous
 62
     7
370
    25
100
AcDbSpline
210
0.0
220
0.0
230
1.0
 70
     8
 71
     3
 72
     8
 73
     4
 74
     0
 42
0.00000001
 43
0.0000000001
 40
0.0
 40
0.0
 40
0.0
 40
0.0
 40
1.0
 40
1.0
 40
1.0
 40
1.0
 10
-1484.82918744718
 20
-682.0110875497986
 30
0.0
 10
-1484.862583939326
 20
-681.8295052932281
 30
0.0
 10
-1484.871147910988
 20
-681.6746199070943
 30
0.0
 10
-1484.871147910988
 20
-681.5509660395183
 30
0.0
  0
SPLINE
  5
1457A
330
2
100
AcDbEntity
  8
0
  6
Continuous
 62
     7
370
    25
100
AcDbSpline
210
0.0
220
0.0
230
1.0
 70
     8
 71
     3
 72
     8
 73
     4
 74
     0
 42
0.00000001
 43
0.0000000001
 40
0.0
 40
0.0
 40
0.0
 40
0.0
 40
1.0
 40
1.0
 40
1.0
 40
1.0
 10
-1484.842129575037
 20
-681.9328039550147
 30
0.0
 10
-1484.799748786898
 20
-682.2109948270471
 30
0.0
 10
-1484.71081723528
 20
-682.4819940180378
 30
0.0
 10
-1484.580125689441
 20
-682.7312033803833
 30
0.0
  0
SPLINE
  5
1457B
330
2
100
AcDbEntity
  8
0
  6
Continuous
 62
     7
370
    25
100
AcDbSpline
210
0.0
220
0.0
230
1.0
 70
     8
 71
     3
 72
    10
 73
     6
 74
     0
 42
0.00000001
 43
0.0000000001
 40
0.0
 40
0.0
 40
0.0
 40
0.0
 40
0.5
 40
0.5
 40
1.0
 40
1.0
 40
1.0
 40
1.0
 10
-1484.580125689441
 20
-682.7312033803833
 30
0.0
 10
-1484.454562107873
 20
-682.9706306053241
 30
0.0
 10
-1484.294047370056
 20
-683.1833676456052
 30
0.0
 10
-1483.928472524443
 20
-683.542996323224
 30
0.0
 10
-1483.723526189113
 20
-683.6899291739431
 30
0.0
 10
-1483.508785034008
 20
-683.8025418588726
 30
0.0
  0
SPLINE
  5
1457C
330
2
100
AcDbEntity
  8
0
  6
Continuous
 62
     7
370
    25
100
AcDbSpline
210
0.0
220
0.0
230
1.0
 70
     8
 71
     3
 72
     8
 73
     4
 74
     0
 42
0.00000001
 43
0.0000000001
 40
0.0
 40
0.0
 40
0.0
 40
0.0
 40
1.0
 40
1.0
 40
1.0
 40
1.0
 10
-1482.710435242105
 20
-684.064505505771
 30
0.0
 10
-1482.600274692487
 20
-684.0812847516279
 30
0.0
 10
-1482.472295368638
 20
-684.093517426263
 30
0.0
 10
-1482.327288261865
 20
-684.0935145999118
 30
0.0
  0
SPLINE
  5
1457D
330
2
100
AcDbEntity
  8
0
  6
Continuous
 62
     7
370
    25
100
AcDbSpline
210
0.0
220
0.0
230
1.0
 70
     8
 71
     3
 72
     8
 73
     4
 74
     0
 42
0.00000001
 43
0.0000000001
 40
0.0
 40
0.0
 40
0.0
 40
0.0
 40
1.0
 40
1.0
 40
1.0
 40
1.0
 10
-1303.664329336561
 20
-686.2139386885379
 30
0.0
 10
-1304.196983999468
 20
-686.4996034798934
 30
0.0
 10
-1304.778935150999
 20
-686.6930527981452
 30
0.0
 10
-1305.376603304629
 20
-686.7831250729424
 30
0.0
  0
SPLINE
  5
1457E
330
2
100
AcDbEntity
  8
0
  6
Continuous
 62
     7
370
    25
100
AcDbSpline
210
0.0
220
0.0
230
1.0
 70
     8
 71
     3
 72
    27
 73
    23
 74
     0
 42
0.00000001
 43
0.0000000001
 40
0.0
 40
0.0
 40
0.0
 40
0.0
 40
0.059980547720561
 40
0.1175131495487824
 40
0.172752310562521
 40
0.2258725516731294
 40
0.2770700671716459
 40
0.3265639217785432
 40
0.3745964958212
 40
0.4214328617218207
 40
0.4673588091839617
 40
0.5126773551591775
 40
0.5577037812820157
 40
0.6027595020300336
 40
0.6481653097978865
 40
0.6942346843510491
 40
0.7412678391640459
 40
0.7895470119034533
 40
0.8393332537725228
 40
0.89086471727095
 40
0.9443562500067246
 40
1.0
 40
1.0
 40
1.0
 40
1.0
 10
-1301.456837330518
 20
-683.965510075422
 30
0.0
 10
-1301.483164016799
 20
-684.0157180567035
 30
0.0
 10
-1301.534742935956
 20
-684.1140849145737
 30
0.0
 10
-1301.620020040898
 20
-684.2618625342462
 30
0.0
 10
-1301.708884963411
 20
-684.4056799086327
 30
0.0
 10
-1301.801778955959
 20
-684.5456836152626
 30
0.0
 10
-1301.898364938975
 20
-684.6817406086707
 30
0.0
 10
-1301.998501759031
 20
-684.8137961816379
 30
0.0
 10
-1302.101997001228
 20
-684.9417820963004
 30
0.0
 10
-1302.20866816935
 20
-685.0656385895903
 30
0.0
 10
-1302.318325777681
 20
-685.1853081301463
 30
0.0
 10
-1302.43077699817
 20
-685.3007373991846
 30
0.0
 10
-1302.54582529076
 20
-685.4118784079133
 30
0.0
 10
-1302.663272514763
 20
-685.51869072946
 30
0.0
 10
-1302.782921820616
 20
-685.6211440444787
 30
0.0
 10
-1302.904580028181
 20
-685.719218804414
 30
0.0
 10
-1303.028062506141
 20
-685.8129106886946
 30
0.0
 10
-1303.153185080942
 20
-685.9022149623807
 30
0.0
 10
-1303.279801037638
 20
-685.9871834960373
 30
0.0
 10
-1303.407656646639
 20
-686.0676942393808
 30
0.0
 10
-1303.536956113544
 20
-686.1443494240441
 30
0.0
 10
-1303.621317045127
 20
-686.1904392931836
 30
0.0
 10
-1303.664329336561
 20
-686.2139386885379
 30
0.0
  0
SPLINE
  5
1457F
330
2
100
AcDbEntity
  8
0
  6
Continuous
 62
     7
370
    25
100
AcDbSpline
210
0.0
220
0.0
230
1.0
 70
     8
 71
     3
 72
     8
 73
     4
 74
     0
 42
0.00000001
 43
0.0000000001
 40
0.0
 40
0.0
 40
0.0
 40
0.0
 40
1.0
 40
1.0
 40
1.0
 40
1.0
 10
-1300.96105703314
 20
-682.508029989211
 30
0.0
 10
-1301.054210504099
 20
-683.014527364007
 30
0.0
 10
-1301.221822308847
 20
-683.5072676797714
 30
0.0
 10
-1301.456837330518
 20
-683.965510075422
 30
0.0
  0
SPLINE
  5
14580
330
2
100
AcDbEntity
  8
0
  6
Continuous
 62
     7
370
    25
100
AcDbSpline
210
0.0
220
0.0
230
1.0
 70
     8
 71
     3
 72
    14
 73
    10
 74
     0
 42
0.00000001
 43
0.0000000001
 40
0.0
 40
0.0
 40
0.0
 40
0.0
 40
0.1810891007223174
 40
0.3489763515377331
 40
0.5038659525673505
 40
0.6460182674194405
 40
0.7757704962718944
 40
0.893566509881945
 40
1.0
 40
1.0
 40
1.0
 40
1.0
 10
-1300.873779489931
 20
-681.5509660395677
 30
0.0
 10
-1300.874426950058
 20
-681.6137572822023
 30
0.0
 10
-1300.875674668843
 20
-681.734762128288
 30
0.0
 10
-1300.884909728277
 20
-681.9056187880495
 30
0.0
 10
-1300.897595410893
 20
-682.0596283673024
 30
0.0
 10
-1300.912798269074
 20
-682.1966943001106
 30
0.0
 10
-1300.929078609688
 20
-682.3166130678973
 30
0.0
 10
-1300.945369807234
 20
-682.4205338705516
 30
0.0
 10
-1300.956007643771
 20
-682.4798668217253
 30
0.0
 10
-1300.96105703314
 20
-682.508029989211
 30
0.0
  0
SPLINE
  5
14581
330
2
100
AcDbEntity
  8
0
  6
Continuous
 62
     7
370
    25
100
AcDbSpline
210
0.0
220
0.0
230
1.0
 70
     8
 71
     3
 72
    13
 73
     9
 74
     0
 42
0.00000001
 43
0.0000000001
 40
0.0
 40
0.0
 40
0.0
 40
0.0
 40
0.2083022644296256
 40
0.3994973053022345
 40
0.5738492573880201
 40
0.7317068592184823
 40
0.8735406043250023
 40
1.0
 40
1.0
 40
1.0
 40
1.0
 10
-1487.531238567333
 20
-682.5080311934938
 30
0.0
 10
-1487.541830290645
 20
-682.4470551021951
 30
0.0
 10
-1487.562143871646
 20
-682.3301106982081
 30
0.0
 10
-1487.584765326795
 20
-682.1551838504136
 30
0.0
 10
-1487.601076425919
 20
-681.9904825276365
 30
0.0
 10
-1487.61149853888
 20
-681.8356184253767
 30
0.0
 10
-1487.617448450267
 20
-681.6915138560565
 30
0.0
 10
-1487.618174234974
 20
-681.5959906823064
 30
0.0
 10
-1487.618516332045
 20
-681.5509660395183
 30
0.0
  0
SPLINE
  5
14582
330
2
100
AcDbEntity
  8
0
  6
Continuous
 62
     7
370
    25
100
AcDbSpline
210
0.0
220
0.0
230
1.0
 70
     8
 71
     3
 72
     8
 73
     4
 74
     0
 42
0.00000001
 43
0.0000000001
 40
0.0
 40
0.0
 40
0.0
 40
0.0
 40
1.0
 40
1.0
 40
1.0
 40
1.0
 10
-1487.035458649376
 20
-683.9655097674444
 30
0.0
 10
-1487.270473402161
 20
-683.5072678222537
 30
0.0
 10
-1487.438085073854
 20
-683.0145280318371
 30
0.0
 10
-1487.531238567333
 20
-682.5080311934938
 30
0.0
  0
SPLINE
  5
14583
330
2
100
AcDbEntity
  8
0
  6
Continuous
 62
     7
370
    25
100
AcDbSpline
210
0.0
220
0.0
230
1.0
 70
     8
 71
     3
 72
    27
 73
    23
 74
     0
 42
0.00000001
 43
0.0000000001
 40
0.0
 40
0.0
 40
0.0
 40
0.0
 40
0.0592586145042982
 40
0.1161228210655873
 40
0.1707525682353416
 40
0.2233282019173944
 40
0.2740519826489582
 40
0.3231490630089967
 40
0.3708676271296463
 40
0.4174778847712685
 40
0.4632696697011526
 40
0.5085485357516591
 40
0.5536304672632941
 40
0.5988355784920922
 40
0.6444813921897888
 40
0.6908763836188827
 40
0.7383144152611351
 40
0.7870704934198863
 40
0.8373980223065032
 40
0.8895274944452157
 40
0.9436663923139942
 40
0.9999999999999998
 40
0.9999999999999998
 40
0.9999999999999998
 40
0.9999999999999998
 10
-1484.827966796651
 20
-686.2139385216113
 30
0.0
 10
-1484.875829558749
 20
-686.1877311927438
 30
0.0
 10
-1484.969621136663
 20
-686.1363754702812
 30
0.0
 10
-1485.111145635182
 20
-686.0515551632824
 30
0.0
 10
-1485.249362956441
 20
-685.9631340848562
 30
0.0
 10
-1485.384428739154
 20
-685.8706216850508
 30
0.0
 10
-1485.51617927282
 20
-685.7742928678138
 30
0.0
 10
-1485.644534897073
 20
-685.6742328413705
 30
0.0
 10
-1485.769396783318
 20
-685.5705799889261
 30
0.0
 10
-1485.890672177095
 20
-685.4634658571232
 30
0.0
 10
-1486.008267741617
 20
-685.3530318387946
 30
0.0
 10
-1486.122092135722
 20
-685.2394254860558
 30
0.0
 10
-1486.232057445576
 20
-685.1228007204923
 30
0.0
 10
-1486.338081682971
 20
-685.003315605193
 30
0.0
 10
-1486.440091423794
 20
-684.8811294798257
 30
0.0
 10
-1486.538022449963
 20
-684.7564006840281
 30
0.0
 10
-1486.631824179299
 20
-684.6292821579396
 30
0.0
 10
-1486.721443949665
 20
-684.499928940325
 30
0.0
 10
-1486.8068846589
 20
-684.3684645554884
 30
0.0
 10
-1486.887972238768
 20
-684.2351131100407
 30
0.0
 10
-1486.965263799379
 20
-684.0996826734801
 30
0.0
 10
-1487.011752508973
 20
-684.0108225183022
 30
0.0
 10
-1487.035458649376
 20
-683.9655097674444
 30
0.0
  0
SPLINE
  5
14584
330
2
100
AcDbEntity
  8
0
  6
Continuous
 62
     7
370
    25
100
AcDbSpline
210
0.0
220
0.0
230
1.0
 70
     8
 71
     3
 72
     8
 73
     4
 74
     0
 42
0.00000001
 43
0.0000000001
 40
0.0
 40
0.0
 40
0.0
 40
0.0
 40
1.0
 40
1.0
 40
1.0
 40
1.0
 10
-1483.115692452047
 20
-686.7831250827768
 30
0.0
 10
-1483.713360744969
 20
-686.6930527946037
 30
0.0
 10
-1484.295312029667
 20
-686.4996034145564
 30
0.0
 10
-1484.827966796651
 20
-686.2139385216113
 30
0.0
  0
LINE
  5
14585
330
2
100
AcDbEntity
  8
0
  6
Continuous
 62
     7
370
    25
100
AcDbLine
 10
-1303.621147910988
 20
-680.2804941740033
 30
0.0
 11
-1300.873779489931
 21
-680.2804941740033
 31
0.0
  0
LINE
  5
14586
330
2
100
AcDbEntity
  8
0
  6
Continuous
 62
     7
370
    25
100
AcDbLine
 10
-1300.873779489931
 20
-245.2801893287004
 30
0.0
 11
-1300.873779489931
 21
-681.5509660395677
 31
0.0
  0
LINE
  5
14587
330
2
100
AcDbEntity
  8
0
  6
Continuous
 62
     7
370
    25
100
AcDbLine
 10
-1303.621147910988
 20
-681.5509660395677
 30
0.0
 11
-1300.873779489931
 21
-681.5509660395677
 31
0.0
  0
LINE
  5
14588
330
2
100
AcDbEntity
  8
0
  6
Continuous
 62
     7
370
    25
100
AcDbLine
 10
-1303.621147910988
 20
-681.5509660395677
 30
0.0
 11
-1303.621147910988
 21
-245.2801893287004
 31
0.0
  0
LINE
  5
14589
330
2
100
AcDbEntity
  8
0
  6
Continuous
 62
     7
370
    25
100
AcDbLine
 10
-1487.618516332045
 20
-680.2804930471128
 30
0.0
 11
-1484.871147910988
 21
-680.2804930471128
 31
0.0
  0
LINE
  5
1458A
330
2
100
AcDbEntity
  8
0
  6
Continuous
 62
     7
370
    25
100
AcDbLine
 10
-1484.871147910988
 20
-245.2833527379772
 30
0.0
 11
-1484.871147910988
 21
-681.5509660395183
 31
0.0
  0
LINE
  5
1458B
330
2
100
AcDbEntity
  8
0
  6
Continuous
 62
     7
370
    25
100
AcDbLine
 10
-1484.871147910988
 20
-681.5509660395183
 30
0.0
 11
-1487.618516332045
 21
-681.5509660395183
 31
0.0
  0
LINE
  5
1458C
330
2
100
AcDbEntity
  8
0
  6
Continuous
 62
     7
370
    25
100
AcDbLine
 10
-1487.618516332045
 20
-681.5509660395183
 30
0.0
 11
-1487.618516332045
 21
-245.2833527379772
 31
0.0
  0
LINE
  5
1458D
330
2
100
AcDbEntity
  8
0
  6
Continuous
 62
     7
370
    25
100
AcDbLine
 10
-1300.873779489931
 20
-250.6475011969742
 30
0.0
 11
-1303.621147910988
 21
-250.6475011969742
 31
0.0
  0
LINE
  5
14590
330
2
100
AcDbEntity
  8
0
  6
Continuous
 62
     7
370
    25
100
AcDbLine
 10
-1484.871147910988
 20
-250.6506576266248
 30
0.0
 11
-1487.618516332045
 21
-250.6506576266248
 31
0.0
  0
LINE
  5
14593
330
2
100
AcDbEntity
  8
0
  6
Continuous
 62
     7
370
    25
100
AcDbLine
 10
-1303.663108268295
 20
-682.0110869708488
 30
0.0
 11
-1300.96105703314
 21
-682.508029989211
 31
0.0
  0
LINE
  5
14594
330
2
100
AcDbEntity
  8
0
  6
Continuous
 62
     7
370
    25
100
AcDbLine
 10
-1484.82918744718
 20
-682.0110875497986
 30
0.0
 11
-1487.531238567333
 21
-682.5080311934938
 31
0.0
  0
LINE
  5
14595
330
2
100
AcDbEntity
  8
0
  6
Continuous
 62
     7
370
    25
100
AcDbLine
 10
-1304.962758414168
 20
-683.7927581563207
 30
0.0
 11
-1303.664329336561
 21
-686.2139386885379
 31
0.0
  0
LINE
  5
14596
330
2
100
AcDbEntity
  8
0
  6
Continuous
 62
     7
370
    25
100
AcDbLine
 10
-1483.529537557435
 20
-683.7927580760532
 30
0.0
 11
-1484.827966796651
 21
-686.2139385216113
 31
0.0
  0
LINE
  5
14597
330
2
100
AcDbEntity
  8
0
  6
Continuous
 62
     7
370
    25
100
AcDbLine
 10
-1303.901464180497
 20
-682.7117825113731
 30
0.0
 11
-1301.456837330518
 21
-683.965510075422
 31
0.0
  0
LINE
  5
14598
330
2
100
AcDbEntity
  8
0
  6
Continuous
 62
     7
370
    25
100
AcDbLine
 10
-1484.590831717396
 20
-682.7117823632887
 30
0.0
 11
-1487.035458649376
 21
-683.9655097674444
 31
0.0
  0
LINE
  5
14599
330
2
100
AcDbEntity
  8
0
  6
Continuous
 62
     7
370
    25
100
AcDbLine
 10
-1487.618516332045
 20
-245.2833527379772
 30
0.0
 11
-1484.871147910988
 21
-245.2833527379772
 31
0.0
  0
LINE
  5
1459C
330
2
100
AcDbEntity
  8
0
  6
Continuous
 62
     7
370
    25
100
AcDbLine
 10
-1303.621147910988
 20
-245.2801893287004
 30
0.0
 11
-1300.873779489931
 21
-245.2801893287004
 31
0.0
  0
SPLINE
  5
1459F
330
2
100
AcDbEntity
  8
0
  6
Continuous
 62
     7
370
    25
100
AcDbSpline
210
0.0
220
0.0
230
1.0
 70
     8
 71
     3
 72
    19
 73
    15
 74
     0
 42
0.00000001
 43
0.0000000001
 40
0.0
 40
0.0
 40
0.0
 40
0.0
 40
0.0811941069595997
 40
0.155356610613866
 40
0.2230717148373788
 40
0.2851060436866578
 40
0.3424544923404169
 40
0.3963719748560663
 40
0.4483624430233825
 40
0.5000981742355087
 40
0.604384344377746
 40
0.7150530090581918
 40
0.8442955260442333
 40
1.0
 40
1.0
 40
1.0
 40
1.0
 10
-1487.909537353233
 20
-248.3309487904675
 30
0.0
 10
-1487.922507642192
 20
-248.3806408616823
 30
0.0
 10
-1487.947324962155
 20
-248.4757215522568
 30
0.0
 10
-1487.992276858752
 20
-248.6044237332231
 30
0.0
 10
-1488.041320695349
 20
-248.7141416441291
 30
0.0
 10
-1488.095282223676
 20
-248.8044726002904
 30
0.0
 10
-1488.154387138294
 20
-248.8753999671494
 30
0.0
 10
-1488.218960146043
 20
-248.9267005789088
 30
0.0
 10
-1488.289265443473
 20
-248.9580276511822
 30
0.0
 10
-1488.389801452885
 20
-248.9730860014308
 30
0.0
 10
-1488.529372023281
 20
-248.9405587266042
 30
0.0
 10
-1488.694808531543
 20
-248.8107464483507
 30
0.0
 10
-1488.851091329966
 20
-248.6021405985334
 30
0.0
 10
-1488.935017099793
 20
-248.4267745874514
 30
0.0
 10
-1488.980876920243
 20
-248.3309487904675
 30
0.0
  0
SPLINE
  5
145A0
330
2
100
AcDbEntity
  8
0
  6
Continuous
 62
     7
370
    25
100
AcDbSpline
210
0.0
220
0.0
230
1.0
 70
     8
 71
     3
 72
     8
 73
     4
 74
     0
 42
0.00000001
 43
0.0000000001
 40
0.0
 40
0.0
 40
0.0
 40
0.0
 40
1.0
 40
1.0
 40
1.0
 40
1.0
 10
-1487.647535900314
 20
-246.2373001063983
 30
0.0
 10
-1487.689914898514
 20
-246.935183001088
 30
0.0
 10
-1487.778854339112
 20
-247.6330658957777
 30
0.0
 10
-1487.909537353233
 20
-248.3309487904675
 30
0.0
  0
SPLINE
  5
145A1
330
2
100
AcDbEntity
  8
0
  6
Continuous
 62
     7
370
    25
100
AcDbSpline
210
0.0
220
0.0
230
1.0
 70
     8
 71
     3
 72
     8
 73
     4
 74
     0
 42
0.00000001
 43
0.0000000001
 40
0.0
 40
0.0
 40
0.0
 40
0.0
 40
1.0
 40
1.0
 40
1.0
 40
1.0
 10
-1487.909537353233
 20
-604.7299862035639
 30
0.0
 10
-1487.759006259479
 20
-605.5338632503127
 30
0.0
 10
-1487.664040276107
 20
-606.3377402970492
 30
0.0
 10
-1487.631427578203
 20
-607.1416173437857
 30
0.0
  0
SPLINE
  5
145A2
330
2
100
AcDbEntity
  8
0
  6
Continuous
 62
     7
370
    25
100
AcDbSpline
210
0.0
220
0.0
230
1.0
 70
     8
 71
     3
 72
    19
 73
    15
 74
     0
 42
0.00000001
 43
0.0000000001
 40
0.0
 40
0.0
 40
0.0
 40
0.0
 40
0.0811941069373817
 40
0.1553566105748624
 40
0.2230717147876175
 40
0.2851060436325925
 40
0.3424544922888661
 40
0.3963719748140018
 40
0.4483624429971594
 40
0.5000981742303442
 40
0.6043843443618119
 40
0.7150530090353424
 40
0.8442955260258246
 40
1.0
 40
1.0
 40
1.0
 40
1.0
 10
-1488.980876920243
 20
-604.7299862035639
 30
0.0
 10
-1488.956651380453
 20
-604.6802941323491
 30
0.0
 10
-1488.910298290386
 20
-604.5852134417993
 30
0.0
 10
-1488.834036527372
 20
-604.4565112608453
 30
0.0
 10
-1488.756939046468
 20
-604.3467933499515
 30
0.0
 10
-1488.678644702561
 20
-604.2564623938027
 30
0.0
 10
-1488.599509745031
 20
-604.1855350269312
 30
0.0
 10
-1488.519824930382
 20
-604.1342344151718
 30
0.0
 10
-1488.440028624868
 20
-604.1029073428614
 30
0.0
 10
-1488.335144377115
 20
-604.0878489925882
 30
0.0
 10
-1488.207846355375
 20
-604.12037626739
 30
0.0
 10
-1488.081537700781
 20
-604.2501885456314
 30
0.0
 10
-1487.979964683338
 20
-604.4587943954732
 30
0.0
 10
-1487.934422894889
 20
-604.6341604065674
 30
0.0
 10
-1487.909537353233
 20
-604.7299862035639
 30
0.0
  0
SPLINE
  5
145A3
330
2
100
AcDbEntity
  8
0
  6
Continuous
 62
     7
370
    25
100
AcDbSpline
210
0.0
220
0.0
230
1.0
 70
     8
 71
     3
 72
     8
 73
     4
 74
     0
 42
0.00000001
 43
0.0000000001
 40
0.0
 40
0.0
 40
0.0
 40
0.0
 40
1.0
 40
1.0
 40
1.0
 40
1.0
 10
-1489.779229426746
 20
-606.8236348876454
 30
0.0
 10
-1489.501068493175
 20
-606.1257519929557
 30
0.0
 10
-1489.23005844901
 20
-605.4278690982536
 30
0.0
 10
-1488.980876920243
 20
-604.7299862035639
 30
0.0
  0
SPLINE
  5
145A4
330
2
100
AcDbEntity
  8
0
  6
Continuous
 62
     7
370
    25
100
AcDbSpline
210
0.0
220
0.0
230
1.0
 70
     8
 71
     3
 72
     8
 73
     4
 74
     0
 42
0.00000001
 43
0.0000000001
 40
0.0
 40
0.0
 40
0.0
 40
0.0
 40
1.0
 40
1.0
 40
1.0
 40
1.0
 10
-1490.162375981162
 20
-607.4274770486296
 30
0.0
 10
-1490.034172589645
 20
-607.2261963282975
 30
0.0
 10
-1489.90597031342
 20
-607.0249156079652
 30
0.0
 10
-1489.779229426746
 20
-606.8236348876454
 30
0.0
  0
LINE
  5
145A5
330
2
100
AcDbEntity
  8
0
  6
Continuous
 62
     7
370
    25
100
AcDbLine
 10
-1490.162375981162
 20
-245.633457945414
 30
0.0
 11
-1490.162375981162
 21
-607.4274770486296
 31
0.0
  0
SPLINE
  5
145A6
330
2
100
AcDbEntity
  8
0
  6
Continuous
 62
     7
370
    25
100
AcDbSpline
210
0.0
220
0.0
230
1.0
 70
     8
 71
     3
 72
     8
 73
     4
 74
     0
 42
0.00000001
 43
0.0000000001
 40
0.0
 40
0.0
 40
0.0
 40
0.0
 40
1.0
 40
1.0
 40
1.0
 40
1.0
 10
-1489.779229426746
 20
-246.2373001063983
 30
0.0
 10
-1489.90597031342
 20
-246.0360193860661
 30
0.0
 10
-1490.034172589645
 20
-245.8347386657463
 30
0.0
 10
-1490.162375981162
 20
-245.633457945414
 30
0.0
  0
SPLINE
  5
145A7
330
2
100
AcDbEntity
  8
0
  6
Continuous
 62
     7
370
    25
100
AcDbSpline
210
0.0
220
0.0
230
1.0
 70
     8
 71
     3
 72
     8
 73
     4
 74
     0
 42
0.00000001
 43
0.0000000001
 40
0.0
 40
0.0
 40
0.0
 40
0.0
 40
1.0
 40
1.0
 40
1.0
 40
1.0
 10
-1488.980876920243
 20
-248.3309487904675
 30
0.0
 10
-1489.23005844901
 20
-247.6330658957777
 30
0.0
 10
-1489.501068493175
 20
-246.935183001088
 30
0.0
 10
-1489.779229426746
 20
-246.2373001063983
 30
0.0
  0
SPLINE
  5
145A8
330
2
100
AcDbEntity
  8
0
  6
Continuous
 62
     7
370
    25
100
AcDbSpline
210
0.0
220
0.0
230
1.0
 70
     8
 71
     3
 72
     8
 73
     4
 74
     0
 42
0.00000001
 43
0.0000000001
 40
0.0
 40
0.0
 40
0.0
 40
0.0
 40
1.0
 40
1.0
 40
1.0
 40
1.0
 10
-1300.582758468743
 20
-248.3277853811907
 30
0.0
 10
-1300.713441482864
 20
-247.6299024865009
 30
0.0
 10
-1300.802380923456
 20
-246.9320195918113
 30
0.0
 10
-1300.844759921656
 20
-246.2341366971215
 30
0.0
  0
SPLINE
  5
145A9
330
2
100
AcDbEntity
  8
0
  6
Continuous
 62
     7
370
    25
100
AcDbSpline
210
0.0
220
0.0
230
1.0
 70
     8
 71
     3
 72
    19
 73
    15
 74
     0
 42
0.00000001
 43
0.0000000001
 40
0.0
 40
0.0
 40
0.0
 40
0.0
 40
0.0811941069763318
 40
0.1553566106427696
 40
0.2230717148737713
 40
0.2851060437256069
 40
0.3424544923770397
 40
0.3963719748857749
 40
0.4483624430422969
 40
0.5000981742409851
 40
0.6043843444041613
 40
0.7150530090933093
 40
0.8442955260706359
 40
1.0
 40
1.0
 40
1.0
 40
1.0
 10
-1299.511418901726
 20
-248.3277853811907
 30
0.0
 10
-1299.535644441535
 20
-248.3774774524178
 30
0.0
 10
-1299.58199753164
 20
-248.4725581430047
 30
0.0
 10
-1299.65825929469
 20
-248.6012603239957
 30
0.0
 10
-1299.735356775619
 20
-248.7109782349139
 30
0.0
 10
-1299.813651119525
 20
-248.801309191063
 30
0.0
 10
-1299.892786077056
 20
-248.8722365579219
 30
0.0
 10
-1299.972470891668
 20
-248.9235371696814
 30
0.0
 10
-1300.052267197151
 20
-248.9548642419425
 30
0.0
 10
-1300.157151444879
 20
-248.9699225921417
 30
0.0
 10
-1300.284449466613
 20
-248.9373953172781
 30
0.0
 10
-1300.410758121225
 20
-248.8075830390121
 30
0.0
 10
-1300.512331138644
 20
-248.5989771892196
 30
0.0
 10
-1300.557872927081
 20
-248.4236111781622
 30
0.0
 10
-1300.582758468743
 20
-248.3277853811907
 30
0.0
  0
SPLINE
  5
145AA
330
2
100
AcDbEntity
  8
0
  6
Continuous
 62
     7
370
    25
100
AcDbSpline
210
0.0
220
0.0
230
1.0
 70
     8
 71
     3
 72
     8
 73
     4
 74
     0
 42
0.00000001
 43
0.0000000001
 40
0.0
 40
0.0
 40
0.0
 40
0.0
 40
1.0
 40
1.0
 40
1.0
 40
1.0
 10
-1298.713066395224
 20
-246.2341366971215
 30
0.0
 10
-1298.991227328795
 20
-246.9320195918113
 30
0.0
 10
-1299.26223737296
 20
-247.6299024865009
 30
0.0
 10
-1299.511418901726
 20
-248.3277853811907
 30
0.0
  0
SPLINE
  5
145AB
330
2
100
AcDbEntity
  8
0
  6
Continuous
 62
     7
370
    25
100
AcDbSpline
210
0.0
220
0.0
230
1.0
 70
     8
 71
     3
 72
     8
 73
     4
 74
     0
 42
0.00000001
 43
0.0000000001
 40
0.0
 40
0.0
 40
0.0
 40
0.0
 40
1.0
 40
1.0
 40
1.0
 40
1.0
 10
-1298.329919840808
 20
-245.6302945361372
 30
0.0
 10
-1298.458123232325
 20
-245.8315752564693
 30
0.0
 10
-1298.586325508549
 20
-246.0328559767893
 30
0.0
 10
-1298.713066395224
 20
-246.2341366971215
 30
0.0
  0
LINE
  5
145AC
330
2
100
AcDbEntity
  8
0
  6
Continuous
 62
     7
370
    25
100
AcDbLine
 10
-1298.329919840808
 20
-607.4274770486296
 30
0.0
 11
-1298.329919840808
 21
-245.6302945361372
 31
0.0
  0
SPLINE
  5
145AD
330
2
100
AcDbEntity
  8
0
  6
Continuous
 62
     7
370
    25
100
AcDbSpline
210
0.0
220
0.0
230
1.0
 70
     8
 71
     3
 72
     8
 73
     4
 74
     0
 42
0.00000001
 43
0.0000000001
 40
0.0
 40
0.0
 40
0.0
 40
0.0
 40
1.0
 40
1.0
 40
1.0
 40
1.0
 10
-1298.713066395224
 20
-606.8236348876454
 30
0.0
 10
-1298.586325508549
 20
-607.0249156079652
 30
0.0
 10
-1298.458123232325
 20
-607.2261963282975
 30
0.0
 10
-1298.329919840808
 20
-607.4274770486296
 30
0.0
  0
SPLINE
  5
145AE
330
2
100
AcDbEntity
  8
0
  6
Continuous
 62
     7
370
    25
100
AcDbSpline
210
0.0
220
0.0
230
1.0
 70
     8
 71
     3
 72
     8
 73
     4
 74
     0
 42
0.00000001
 43
0.0000000001
 40
0.0
 40
0.0
 40
0.0
 40
0.0
 40
1.0
 40
1.0
 40
1.0
 40
1.0
 10
-1299.511418901726
 20
-604.7299862035762
 30
0.0
 10
-1299.26223737296
 20
-605.4278690982658
 30
0.0
 10
-1298.991227328807
 20
-606.1257519929557
 30
0.0
 10
-1298.713066395224
 20
-606.8236348876454
 30
0.0
  0
SPLINE
  5
145AF
330
2
100
AcDbEntity
  8
0
  6
Continuous
 62
     7
370
    25
100
AcDbSpline
210
0.0
220
0.0
230
1.0
 70
     8
 71
     3
 72
    19
 73
    15
 74
     0
 42
0.00000001
 43
0.0000000001
 40
0.0
 40
0.0
 40
0.0
 40
0.0
 40
0.0811941069578639
 40
0.1553566106106126
 40
0.2230717148329355
 40
0.2851060436813526
 40
0.3424544923347022
 40
0.3963719748504395
 40
0.4483624430183692
 40
0.5000981742316412
 40
0.6043843443900569
 40
0.7150530090743129
 40
0.8442955260549574
 40
1.0
 40
1.0
 40
1.0
 40
1.0
 10
-1300.582758468743
 20
-604.7299862035762
 30
0.0
 10
-1300.569788179777
 20
-604.6802941323491
 30
0.0
 10
-1300.544970859833
 20
-604.585213441787
 30
0.0
 10
-1300.50001896323
 20
-604.4565112608205
 30
0.0
 10
-1300.450975126627
 20
-604.3467933499147
 30
0.0
 10
-1300.397013598306
 20
-604.2564623937534
 30
0.0
 10
-1300.337908683688
 20
-604.1855350268944
 30
0.0
 10
-1300.273335675939
 20
-604.1342344151347
 30
0.0
 10
-1300.203030378509
 20
-604.102907342849
 30
0.0
 10
-1300.102494369085
 20
-604.087848992613
 30
0.0
 10
-1299.962923798676
 20
-604.1203762674394
 30
0.0
 10
-1299.797487290408
 20
-604.250188545693
 30
0.0
 10
-1299.641204491986
 20
-604.4587943954979
 30
0.0
 10
-1299.557278722177
 20
-604.6341604065922
 30
0.0
 10
-1299.511418901726
 20
-604.7299862035762
 30
0.0
  0
SPLINE
  5
145B0
330
2
100
AcDbEntity
  8
0
  6
Continuous
 62
     7
370
    25
100
AcDbSpline
210
0.0
220
0.0
230
1.0
 70
     8
 71
     3
 72
     8
 73
     4
 74
     0
 42
0.00000001
 43
0.0000000001
 40
0.0
 40
0.0
 40
0.0
 40
0.0
 40
1.0
 40
1.0
 40
1.0
 40
1.0
 10
-1300.860868243767
 20
-607.1416173437857
 30
0.0
 10
-1300.828255545869
 20
-606.3377402970492
 30
0.0
 10
-1300.733289562497
 20
-605.5338632503127
 30
0.0
 10
-1300.582758468743
 20
-604.7299862035762
 30
0.0
  0
SPLINE
  5
145B1
330
2
100
AcDbEntity
  8
0
  6
Continuous
 62
     7
370
    25
100
AcDbSpline
210
0.0
220
0.0
230
1.0
 70
     8
 71
     3
 72
     8
 73
     4
 74
     0
 42
0.00000001
 43
0.0000000001
 40
0.0
 40
0.0
 40
0.0
 40
0.0
 40
1.0
 40
1.0
 40
1.0
 40
1.0
 10
-1300.787437887529
 20
-604.7299862035762
 30
0.0
 10
-1300.269066136233
 20
-605.4279689694557
 30
0.0
 10
-1299.705522213312
 20
-606.1256521217782
 30
0.0
 10
-1299.126864673994
 20
-606.8236348876454
 30
0.0
  0
SPLINE
  5
145B2
330
2
100
AcDbEntity
  8
0
  6
Continuous
 62
     7
370
    25
100
AcDbSpline
210
0.0
220
0.0
230
1.0
 70
     8
 71
     3
 72
     8
 73
     4
 74
     0
 42
0.00000001
 43
0.0000000001
 40
0.0
 40
0.0
 40
0.0
 40
0.0
 40
1.0
 40
1.0
 40
1.0
 40
1.0
 10
-1299.126864673994
 20
-246.2341366971215
 30
0.0
 10
-1299.705522213312
 20
-246.9321194629887
 30
0.0
 10
-1300.269066136221
 20
-247.6298026153111
 30
0.0
 10
-1300.787437887517
 20
-248.3277853811907
 30
0.0
  0
SPLINE
  5
145B3
330
2
100
AcDbEntity
  8
0
  6
Continuous
 62
     7
370
    25
100
AcDbSpline
210
0.0
220
0.0
230
1.0
 70
     8
 71
     3
 72
     8
 73
     4
 74
     0
 42
0.00000001
 43
0.0000000001
 40
0.0
 40
0.0
 40
0.0
 40
0.0
 40
1.0
 40
1.0
 40
1.0
 40
1.0
 10
-1489.365431147994
 20
-606.8236348876454
 30
0.0
 10
-1488.786773608658
 20
-606.1256521217659
 30
0.0
 10
-1488.223229685749
 20
-605.4279689694434
 30
0.0
 10
-1487.704857934453
 20
-604.7299862035639
 30
0.0
  0
SPLINE
  5
145B4
330
2
100
AcDbEntity
  8
0
  6
Continuous
 62
     7
370
    25
100
AcDbSpline
210
0.0
220
0.0
230
1.0
 70
     8
 71
     3
 72
     8
 73
     4
 74
     0
 42
0.00000001
 43
0.0000000001
 40
0.0
 40
0.0
 40
0.0
 40
0.0
 40
1.0
 40
1.0
 40
1.0
 40
1.0
 10
-1487.704857934453
 20
-248.3309487904675
 30
0.0
 10
-1488.223229685749
 20
-247.6329660245879
 30
0.0
 10
-1488.786773608658
 20
-246.9352828722655
 30
0.0
 10
-1489.365431147994
 20
-246.2373001063983
 30
0.0
  0
LINE
  5
145B5
330
2
100
AcDbEntity
  8
0
  6
Continuous
 62
     7
370
    25
100
AcDbLine
 10
-1300.787437887529
 20
-604.7299862035762
 30
0.0
 11
-1299.511418901726
 21
-604.7299862035762
 31
0.0
  0
LINE
  5
145B6
330
2
100
AcDbEntity
  8
0
  6
Continuous
 62
     7
370
    25
100
AcDbLine
 10
-1487.909537353233
 20
-604.7299862035639
 30
0.0
 11
-1488.980876920243
 21
-604.7299862035639
 31
0.0
  0
LINE
  5
145B7
330
2
100
AcDbEntity
  8
0
  6
Continuous
 62
     7
370
    25
100
AcDbLine
 10
-1300.582758468743
 20
-248.3277853811907
 30
0.0
 11
-1299.511418901726
 21
-248.3277853811907
 31
0.0
  0
LINE
  5
145B8
330
2
100
AcDbEntity
  8
0
  6
Continuous
 62
     7
370
    25
100
AcDbLine
 10
-1487.704857934453
 20
-248.3309487904675
 30
0.0
 11
-1488.980876920243
 21
-248.3309487904675
 31
0.0
  0
LINE
  5
145B9
330
2
100
AcDbEntity
  8
0
  6
Continuous
 62
     7
370
    25
100
AcDbLine
 10
-1299.126864673994
 20
-606.8236348876454
 30
0.0
 11
-1298.713066395224
 21
-606.8236348876454
 31
0.0
  0
LINE
  5
145BA
330
2
100
AcDbEntity
  8
0
  6
Continuous
 62
     7
370
    25
100
AcDbLine
 10
-1489.365431147994
 20
-606.8236348876454
 30
0.0
 11
-1489.779229426746
 21
-606.8236348876454
 31
0.0
  0
LINE
  5
145BB
330
2
100
AcDbEntity
  8
0
  6
Continuous
 62
     7
370
    25
100
AcDbLine
 10
-1299.126864673994
 20
-246.2341366971215
 30
0.0
 11
-1298.713066395224
 21
-246.2341366971215
 31
0.0
  0
LINE
  5
145BC
330
2
100
AcDbEntity
  8
0
  6
Continuous
 62
     7
370
    25
100
AcDbLine
 10
-1489.365431147994
 20
-246.2373001063983
 30
0.0
 11
-1489.779229426746
 21
-246.2373001063983
 31
0.0
  0
LINE
  5
145BD
330
2
100
AcDbEntity
  8
0
  6
Continuous
 62
     7
370
    25
100
AcDbLine
 10
-1209.294844297875
 20
-244.5810367103634
 30
0.0
 11
-1209.295213093873
 21
-223.4505822649317
 31
0.0
  0
ARC
  5
145BE
330
2
100
AcDbEntity
  8
0
  6
Continuous
 62
     7
370
    25
100
AcDbCircle
 10
-1217.308002191388
 20
-244.5811765663437
 30
0.0
 40
8.013157894736819
100
AcDbArc
 50
350.0493434886877
 51
0.0010000000033941
  0
LINE
  5
145BF
330
2
100
AcDbEntity
  8
0
  6
Continuous
 62
     7
370
    25
100
AcDbLine
 10
-1271.72842781331
 20
-601.1490979709657
 30
0.0
 11
-1209.415386754111
 21
-245.9658501759899
 31
0.0
  0
ARC
  5
145C0
330
2
100
AcDbEntity
  8
0
  6
Continuous
 62
     7
370
    25
100
AcDbCircle
 10
-1279.621043250593
 20
-599.7644243613198
 30
0.0
 40
8.013157894736874
100
AcDbArc
 50
270.0
 51
350.0493434886877
  0
LINE
  5
145C1
330
2
100
AcDbEntity
  8
0
  6
Continuous
 62
     7
370
    25
100
AcDbLine
 10
-1297.22839630091
 20
-607.7775822560664
 30
0.0
 11
-1279.621043250593
 21
-607.7775822560664
 31
0.0
  0
ARC
  5
145C2
330
2
100
AcDbEntity
  8
0
  6
Continuous
 62
     7
370
    25
100
AcDbCircle
 10
-1297.22839630091
 20
-247.1880840655425
 30
0.0
 40
1.907894736842177
100
AcDbArc
 50
90.0
 51
125.2643896827245
  0
LINE
  5
145C3
330
2
100
AcDbEntity
  8
0
  6
Continuous
 62
     7
370
    25
100
AcDbLine
 10
-1295.150117478772
 20
-245.2801893287004
 30
0.0
 11
-1297.22839630091
 21
-245.2801893287004
 31
0.0
  0
LINE
  5
145C4
330
2
100
AcDbEntity
  8
0
  6
Continuous
 62
     7
370
    25
100
AcDbLine
 10
-1295.150073080037
 20
-245.2801893283056
 30
0.0
 11
-1295.150117478772
 21
-245.2801893287004
 31
0.0
  0
LINE
  5
145C5
330
2
100
AcDbEntity
  8
0
  6
Continuous
 62
     7
370
    25
100
AcDbLine
 10
-1293.560182998943
 20
-245.2801615795039
 30
0.0
 11
-1295.150073080037
 21
-245.2801893283056
 31
0.0
  0
ARC
  5
145C6
330
2
100
AcDbEntity
  8
0
  6
Continuous
 62
     7
370
    25
100
AcDbCircle
 10
-1293.560210748146
 20
-243.6902492990366
 30
0.0
 40
1.589912280701884
100
AcDbArc
 50
270.001000000003
 51
0.0009999999960661
  0
LINE
  5
145C7
330
2
100
AcDbEntity
  8
0
  6
Continuous
 62
     7
370
    25
100
AcDbLine
 10
-1291.970651690852
 20
-223.4520252235444
 30
0.0
 11
-1291.970298467691
 21
-243.6902215498278
 31
0.0
  0
LINE
  5
145C8
330
2
100
AcDbEntity
  8
0
  6
Continuous
 62
     7
370
    25
100
AcDbLine
 10
-1209.295120744519
 20
-228.7418103342972
 30
0.0
 11
-1291.970559341497
 21
-228.7432532929222
 31
0.0
  0
CIRCLE
  5
145C9
330
2
100
AcDbEntity
  8
0
  6
Continuous
 62
     7
370
    25
100
AcDbCircle
 10
-1217.308002191388
 20
-244.5811765663437
 30
0.0
 40
2.289473684210884
  0
CIRCLE
  5
145CA
330
2
100
AcDbEntity
  8
0
  6
Continuous
 62
     7
370
    25
100
AcDbCircle
 10
-1275.435182998703
 20
-263.6611384483769
 30
0.0
 40
2.289473684210296
  0
CIRCLE
  5
145CB
330
2
100
AcDbEntity
  8
0
  6
Continuous
 62
     7
370
    25
100
AcDbCircle
 10
-1275.435182998703
 20
-575.9050938935683
 30
0.0
 40
2.289473684210567
  0
ARC
  5
145CC
330
2
100
AcDbEntity
  8
0
  6
Continuous
 62
     7
370
    25
100
AcDbCircle
 10
-1297.22839630091
 20
-605.8696875192119
 30
0.0
 40
1.907894736842177
100
AcDbArc
 50
234.7356103173959
 51
270.0
  0
ARC
  5
145CD
330
2
100
AcDbEntity
  8
0
  6
Continuous
 62
     7
370
    25
100
AcDbCircle
 10
-1494.932140572235
 20
-243.6934682067187
 30
0.0
 40
1.589912280701794
100
AcDbArc
 50
180.0010000000033
 51
270.0009999999965
  0
LINE
  5
145CE
330
2
100
AcDbEntity
  8
0
  6
Continuous
 62
     7
370
    25
100
AcDbLine
 10
-1493.342222741932
 20
-245.2833527383598
 30
0.0
 11
-1494.932112823026
 21
-245.2833804871738
 31
0.0
  0
LINE
  5
145CF
330
2
100
AcDbEntity
  8
0
  6
Continuous
 62
     7
370
    25
100
AcDbLine
 10
-1493.342178343204
 20
-245.2833527379772
 30
0.0
 11
-1493.342222741932
 21
-245.2833527383598
 31
0.0
  0
LINE
  5
145D0
330
2
100
AcDbEntity
  8
0
  6
Continuous
 62
     7
370
    25
100
AcDbLine
 10
-1491.263899521066
 20
-245.2833527379772
 30
0.0
 11
-1493.342178343204
 21
-245.2833527379772
 31
0.0
  0
ARC
  5
145D1
330
2
100
AcDbEntity
  8
0
  6
Continuous
 62
     7
370
    25
100
AcDbCircle
 10
-1491.263899521066
 20
-247.1912474748194
 30
0.0
 40
1.907894736842104
100
AcDbArc
 50
54.73561031722788
 51
90.0
  0
ARC
  5
145D2
330
2
100
AcDbEntity
  8
0
  6
Continuous
 62
     7
370
    25
100
AcDbCircle
 10
-1491.263899521066
 20
-605.8696875192119
 30
0.0
 40
1.907894736842152
100
AcDbArc
 50
270.0
 51
305.2643896827636
  0
LINE
  5
145D3
330
2
100
AcDbEntity
  8
0
  6
Continuous
 62
     7
370
    25
100
AcDbLine
 10
-1508.871272333983
 20
-607.7775822560664
 30
0.0
 11
-1491.263899521066
 21
-607.7775822560664
 31
0.0
  0
ARC
  5
145D4
330
2
100
AcDbEntity
  8
0
  6
Continuous
 62
     7
370
    25
100
AcDbCircle
 10
-1508.871272333983
 20
-599.7644243613198
 30
0.0
 40
8.01315789473684
100
AcDbArc
 50
189.9508222361373
 51
270.0
  0
LINE
  5
145D5
330
2
100
AcDbEntity
  8
0
  6
Continuous
 62
     7
370
    25
100
AcDbLine
 10
-1579.076929413208
 20
-245.9718828555458
 30
0.0
 11
-1516.763883766136
 21
-601.1491207998984
 31
0.0
  0
ARC
  5
145D6
330
2
100
AcDbEntity
  8
0
  6
Continuous
 62
     7
370
    25
100
AcDbCircle
 10
-1571.184317981048
 20
-244.587186416967
 30
0.0
 40
8.013157894736751
100
AcDbArc
 50
180.0010000000033
 51
189.9508222361373
  0
LINE
  5
145D7
330
2
100
AcDbEntity
  8
0
  6
Continuous
 62
     7
370
    25
100
AcDbLine
 10
-1579.197844667665
 20
-223.4570382837765
 30
0.0
 11
-1579.197475874567
 21
-244.5873262729474
 31
0.0
  0
LINE
  5
145D8
330
2
100
AcDbEntity
  8
0
  6
Continuous
 62
     7
370
    25
100
AcDbLine
 10
-1496.522313721345
 20
-228.7468233945169
 30
0.0
 11
-1579.197752318311
 21
-228.748266353142
 31
0.0
  0
LINE
  5
145D9
330
2
100
AcDbEntity
  8
0
  6
Continuous
 62
     7
370
    25
100
AcDbLine
 10
-1496.522052852696
 20
-243.6934959559153
 30
0.0
 11
-1496.522406070687
 21
-223.4555953251514
 31
0.0
  0
CIRCLE
  5
145DA
330
2
100
AcDbEntity
  8
0
  6
Continuous
 62
     7
370
    25
100
AcDbCircle
 10
-1513.057112823273
 20
-575.9056120047395
 30
0.0
 40
2.289473684210951
  0
CIRCLE
  5
145DB
330
2
100
AcDbEntity
  8
0
  6
Continuous
 62
     7
370
    25
100
AcDbCircle
 10
-1571.184317981048
 20
-244.587186416967
 30
0.0
 40
2.289473684210545
  0
CIRCLE
  5
145DC
330
2
100
AcDbEntity
  8
0
  6
Continuous
 62
     7
370
    25
100
AcDbCircle
 10
-1513.057112823273
 20
-263.6651192771806
 30
0.0
 40
2.28947368421181
  0
LINE
  5
145DE
330
2
100
AcDbEntity
  8
0
  6
Continuous
 62
     7
370
    25
100
AcDbLine
 10
-1209.295213093873
 20
-223.4505822649317
 30
0.0
 11
-1291.970651690852
 21
-223.4520252235444
 31
0.0
  0
LINE
  5
145E1
330
2
100
AcDbEntity
  8
0
  6
Continuous
 62
     7
370
    25
100
AcDbLine
 10
-1496.522406070687
 20
-223.4555953251514
 30
0.0
 11
-1579.197844667665
 21
-223.4570382837765
 31
0.0
  0
LINE
  5
145ED
330
2
100
AcDbEntity
  8
0
  6
Continuous
 62
     7
370
    25
100
AcDbLine
 10
-1487.618443377849
 20
36.40593460588537
 30
0.0
 11
-1484.871075538642
 21
36.40593460588537
 31
0.0
  0
LINE
  5
145EE
330
2
100
AcDbEntity
  8
0
  6
Continuous
 62
     7
370
    25
100
AcDbLine
 10
-1303.621113924747
 20
36.40593041477803
 30
0.0
 11
-1300.873746085539
 21
36.40593041477803
 31
0.0
  0
LWPOLYLINE
  5
145EF
330
2
100
AcDbEntity
  8
0
  6
Continuous
 62
     7
370
    25
100
AcDbPolyline
 90
        9
 70
   128
 43
0.0
 10
-1291.970527822681
 20
117.2302335982634
 10
-1291.970545839146
 20
117.3319030404194
 10
-1291.970563163239
 20
117.6330042672641
 10
-1291.97057912922
 20
118.1219661274757
 10
-1291.970593123522
 20
118.7799980909987
 10
-1291.970604608347
 20
119.5818123585078
 10
-1291.970613142342
 20
120.4965956573493
 10
-1291.970618397551
 20
121.4891933783917
 10
-1291.97062017201
 20
122.5214605478335
  0
LINE
  5
145F0
330
2
100
AcDbEntity
  8
0
  6
Continuous
 62
     7
370
    25
100
AcDbLine
 10
-1209.295151133872
 20
122.5214605478335
 30
0.0
 11
-1291.97062017201
 21
122.5214605478335
 31
0.0
  0
LWPOLYLINE
  5
145F1
330
2
100
AcDbEntity
  8
0
  6
Continuous
 62
     7
370
    25
100
AcDbPolyline
 90
        9
 70
   128
 43
0.0
 10
-1209.295199084492
 20
122.5214605478335
 10
-1209.29519731002
 20
121.4891933783917
 10
-1209.295192054812
 20
120.4965956573493
 10
-1209.295183520817
 20
119.5818123585078
 10
-1209.295172035998
 20
118.7799980909987
 10
-1209.295158041702
 20
118.1219661274757
 10
-1209.29514207572
 20
117.6330042672641
 10
-1209.295124751616
 20
117.3319030404194
 10
-1209.295106735163
 20
117.2302335982634
  0
LINE
  5
145F3
330
2
100
AcDbEntity
  8
0
  6
Continuous
 62
     7
370
    25
100
AcDbLine
 10
-1209.295106735163
 20
119.9776014374711
 30
0.0
 11
-1209.295106735163
 21
117.2302335982634
 31
0.0
  0
ARC
  5
145F6
330
2
100
AcDbEntity
  8
0
  6
Continuous
 62
     7
370
    25
100
AcDbCircle
 10
-1217.308307330324
 20
167.611363279157
 30
0.0
 40
8.013156197667095
100
AcDbArc
 50
0.0
 51
90.0
  0
LINE
  5
145F7
330
2
100
AcDbEntity
  8
0
  6
Continuous
 62
     7
370
    25
100
AcDbLine
 10
-1209.295151133872
 20
167.611363279157
 30
0.0
 11
-1209.295199084492
 21
167.611363279157
 31
0.0
  0
LINE
  5
145F8
330
2
100
AcDbEntity
  8
0
  6
Continuous
 62
     7
370
    25
100
AcDbLine
 10
-1209.295199084492
 20
122.5214605478335
 30
0.0
 11
-1209.295199084492
 21
167.611363279157
 31
0.0
  0
LINE
  5
145F9
330
2
100
AcDbEntity
  8
0
  6
Continuous
 62
     7
370
    25
100
AcDbLine
 10
-1291.97062017201
 20
162.9052239249754
 30
0.0
 11
-1291.97062017201
 21
122.5214605478335
 31
0.0
  0
ARC
  5
145FA
330
2
100
AcDbEntity
  8
0
  6
Continuous
 62
     7
370
    25
100
AcDbCircle
 10
-1279.251324622093
 20
162.9052239249754
 30
0.0
 40
12.71929555185295
100
AcDbArc
 50
90.0
 51
180.0
  0
LINE
  5
145FB
330
2
100
AcDbEntity
  8
0
  6
Continuous
 62
     7
370
    25
100
AcDbLine
 10
-1217.308307330324
 20
175.6245194768244
 30
0.0
 11
-1279.251324622093
 21
175.6245194768244
 31
0.0
  0
CIRCLE
  5
145FC
330
2
100
AcDbEntity
  8
0
  6
Continuous
 62
     7
370
    25
100
AcDbCircle
 10
-1217.308355280932
 20
167.611363279157
 30
0.0
 40
2.289473198984846
  0
CIRCLE
  5
145FD
330
2
100
AcDbEntity
  8
0
  6
Continuous
 62
     7
370
    25
100
AcDbCircle
 10
-1283.957463975565
 20
143.25391229735
 30
0.0
 40
2.289473198952989
  0
ARC
  5
145FF
330
2
100
AcDbEntity
  8
0
  6
Continuous
 62
     7
370
    25
100
AcDbCircle
 10
-1217.308307330324
 20
167.611363279157
 30
0.0
 40
2.289473199333359
100
AcDbArc
 50
90.00000001171176
 51
270.0000011238745
  0
ARC
  5
14601
330
2
100
AcDbEntity
  8
0
  6
Continuous
 62
     7
370
    25
100
AcDbCircle
 10
-1283.957416024957
 20
143.25391229735
 30
0.0
 40
2.289473199301953
100
AcDbArc
 50
90.00000001171176
 51
270.0000011238745
  0
LINE
  5
14602
330
2
100
AcDbEntity
  8
0
  6
Continuous
 62
     7
370
    25
100
AcDbLine
 10
-1496.522283280173
 20
122.5214605478335
 30
0.0
 11
-1579.197752318311
 21
122.5214605478335
 31
0.0
  0
LINE
  5
14603
330
2
100
AcDbEntity
  8
0
  6
Continuous
 62
     7
370
    25
100
AcDbLine
 10
-1579.197752318311
 20
167.611363279157
 30
0.0
 11
-1579.197752318311
 21
122.5214605478335
 31
0.0
  0
ARC
  5
14604
330
2
100
AcDbEntity
  8
0
  6
Continuous
 62
     7
370
    25
100
AcDbCircle
 10
-1571.184596121865
 20
167.611363279157
 30
0.0
 40
8.013156197667546
100
AcDbArc
 50
90.0
 51
180.0
  0
LINE
  5
14605
330
2
100
AcDbEntity
  8
0
  6
Continuous
 62
     7
370
    25
100
AcDbLine
 10
-1509.241578830084
 20
175.6245194768368
 30
0.0
 11
-1571.184596121865
 21
175.6245194768368
 31
0.0
  0
ARC
  5
14606
330
2
100
AcDbEntity
  8
0
  6
Continuous
 62
     7
370
    25
100
AcDbCircle
 10
-1509.241626780704
 20
162.9052239249754
 30
0.0
 40
12.71929555185272
100
AcDbArc
 50
0.0
 51
90.0
  0
LINE
  5
14607
330
2
100
AcDbEntity
  8
0
  6
Continuous
 62
     7
370
    25
100
AcDbLine
 10
-1496.522331230793
 20
122.5214605478335
 30
0.0
 11
-1496.522331230793
 21
162.9052239249754
 31
0.0
  0
CIRCLE
  5
14608
330
2
100
AcDbEntity
  8
0
  6
Continuous
 62
     7
370
    25
100
AcDbCircle
 10
-1571.184596121865
 20
167.611363279157
 30
0.0
 40
2.289473198984818
  0
CIRCLE
  5
14609
330
2
100
AcDbEntity
  8
0
  6
Continuous
 62
     7
370
    25
100
AcDbCircle
 10
-1504.535487427238
 20
130.5346167455133
 30
0.0
 40
2.289473199016421
  0
LINE
  5
1460B
330
2
100
AcDbEntity
  8
0
  6
Continuous
 62
     7
370
    25
100
AcDbLine
 10
-1496.522283280173
 20
162.9052239249754
 30
0.0
 11
-1496.522331230793
 21
162.9052239249754
 31
0.0
  0
LWPOLYLINE
  5
1460D
330
2
100
AcDbEntity
  8
0
  6
Continuous
 62
     7
370
    25
100
AcDbPolyline
 90
        9
 70
   128
 43
0.0
 10
-1579.197659968981
 20
117.2302335982634
 10
-1579.197677985447
 20
117.3319030404318
 10
-1579.197695309539
 20
117.6330042672641
 10
-1579.19771127552
 20
118.1219661274757
 10
-1579.197725269816
 20
118.7799980909987
 10
-1579.197736754648
 20
119.5818123585078
 10
-1579.197745288643
 20
120.4965956573493
 10
-1579.197750543852
 20
121.4891933783917
 10
-1579.197752318311
 20
122.5214605478335
  0
LWPOLYLINE
  5
1460E
330
2
100
AcDbEntity
  8
0
  6
Continuous
 62
     7
370
    25
100
AcDbPolyline
 90
        9
 70
   128
 43
0.0
 10
-1496.522331230793
 20
122.5214605478335
 10
-1496.522329456321
 20
121.4891933783917
 10
-1496.522324201118
 20
120.4965956573493
 10
-1496.522315667117
 20
119.5818123585078
 10
-1496.522304182298
 20
118.7799980909987
 10
-1496.522290188002
 20
118.1219661274757
 10
-1496.522274222021
 20
117.6330042672641
 10
-1496.522256897916
 20
117.3319030404194
 10
-1496.522238881463
 20
117.2302335982634
  0
LINE
  5
1460F
330
2
100
AcDbEntity
  8
0
  6
Continuous
 62
     7
370
    25
100
AcDbLine
 10
-1490.162302488224
 20
117.2302335982634
 30
0.0
 11
-1579.197659968981
 21
117.2302335982634
 31
0.0
  0
LINE
  5
14610
330
2
100
AcDbEntity
  8
0
  6
Continuous
 62
     7
370
    25
100
AcDbLine
 10
-1496.522238881463
 20
119.9776014374711
 30
0.0
 11
-1496.522238881463
 21
117.2302335982634
 31
0.0
  0
ARC
  5
14612
330
2
100
AcDbEntity
  8
0
  6
Continuous
 62
     7
370
    25
100
AcDbCircle
 10
-1504.535439476624
 20
130.5346167455133
 30
0.0
 40
2.289473199365216
100
AcDbArc
 50
90.00000001171176
 51
270.0000011238745
  0
ARC
  5
14614
330
2
100
AcDbEntity
  8
0
  6
Continuous
 62
     7
370
    25
100
AcDbCircle
 10
-1571.184548171257
 20
167.611363279157
 30
0.0
 40
2.289473199333359
100
AcDbArc
 50
90.00000001171176
 51
270.0000011238745
  0
LINE
  5
14617
330
2
100
AcDbEntity
  8
0
  6
Continuous
 62
     7
370
    25
100
AcDbLine
 10
-1490.162302488224
 20
119.9776014374711
 30
0.0
 11
-1496.522238881463
 21
119.9776014374711
 31
0.0
  0
LINE
  5
14618
330
2
100
AcDbEntity
  8
0
  6
Continuous
 62
     7
370
    25
100
AcDbLine
 10
-1293.560151143473
 20
117.2302335982634
 30
0.0
 11
-1293.560151143473
 21
119.9776014374711
 31
0.0
  0
LINE
  5
1461B
330
2
100
AcDbEntity
  8
0
  6
Continuous
 62
     7
370
    25
100
AcDbLine
 10
-1494.932038319922
 20
119.9776014374711
 30
0.0
 11
-1494.932038319922
 21
117.2302335982634
 31
0.0
  0
LINE
  5
1461E
330
2
100
AcDbEntity
  8
0
  6
Continuous
 62
     7
370
    25
100
AcDbLine
 10
-1295.150040887851
 20
119.9776014374711
 30
0.0
 11
-1295.150040887851
 21
117.2302335982634
 31
0.0
  0
LINE
  5
14621
330
2
100
AcDbEntity
  8
0
  6
Continuous
 62
     7
370
    25
100
AcDbLine
 10
-1297.228363668554
 20
119.9776014374711
 30
0.0
 11
-1297.228363668554
 21
117.2302335982634
 31
0.0
  0
LINE
  5
14622
330
2
100
AcDbEntity
  8
0
  6
Continuous
 62
     7
370
    25
100
AcDbLine
 10
-1298.329886975171
 20
117.2302335982634
 30
0.0
 11
-1298.329886975171
 21
119.9776014374711
 31
0.0
  0
LINE
  5
14623
330
2
100
AcDbEntity
  8
0
  6
Continuous
 62
     7
370
    25
100
AcDbLine
 10
-1209.294830288562
 20
117.2302335982634
 30
0.0
 11
-1298.329886975171
 21
117.2302335982634
 31
0.0
  0
LINE
  5
14624
330
2
100
AcDbEntity
  8
0
  6
Continuous
 62
     7
370
    25
100
AcDbLine
 10
-1298.329886975171
 20
119.9776014374711
 30
0.0
 11
-1291.970608798924
 21
119.9776014374711
 31
0.0
  0
LINE
  5
14626
330
2
100
AcDbEntity
  8
0
  6
Continuous
 62
     7
370
    25
100
AcDbLine
 10
-1300.873746085539
 20
113.5848511812902
 30
0.0
 11
-1303.621113924747
 21
113.5848511812902
 31
0.0
  0
LINE
  5
14628
330
2
100
AcDbEntity
  8
0
  6
Continuous
 62
     7
370
    25
100
AcDbLine
 10
-1303.621113924747
 20
114.686374487901
 30
0.0
 11
-1300.873746085539
 21
114.686374487901
 31
0.0
  0
LINE
  5
14629
330
2
100
AcDbEntity
  8
0
  6
Continuous
 62
     7
370
    25
100
AcDbLine
 10
-1295.150085286572
 20
117.2302335982634
 30
0.0
 11
-1295.150085286572
 21
119.9776014374711
 31
0.0
  0
LINE
  5
1462E
330
2
100
AcDbEntity
  8
0
  6
Continuous
 62
     7
370
    25
100
AcDbLine
 10
-1303.621113924747
 20
110.5807714184539
 30
0.0
 11
-1300.873746085539
 21
110.5807714184539
 31
0.0
  0
LINE
  5
14631
330
2
100
AcDbEntity
  8
0
  6
Continuous
 62
     7
370
    25
100
AcDbLine
 10
-1300.873746085539
 20
104.2990211031248
 30
0.0
 11
-1303.621113924747
 21
104.2990211031248
 31
0.0
  0
LINE
  5
14635
330
2
100
AcDbEntity
  8
0
  6
Continuous
 62
     7
370
    25
100
AcDbLine
 10
-1484.871075538654
 20
113.5848511812902
 30
0.0
 11
-1487.618443377855
 21
113.5848511812902
 31
0.0
  0
LINE
  5
14637
330
2
100
AcDbEntity
  8
0
  6
Continuous
 62
     7
370
    25
100
AcDbLine
 10
-1487.618443377855
 20
114.686374487901
 30
0.0
 11
-1484.871075538654
 21
114.686374487901
 31
0.0
  0
LINE
  5
14638
330
2
100
AcDbEntity
  8
0
  6
Continuous
 62
     7
370
    25
100
AcDbLine
 10
-1491.263825794835
 20
117.2302335982634
 30
0.0
 11
-1491.263825794835
 21
119.9776014374711
 31
0.0
  0
LINE
  5
14639
330
2
100
AcDbEntity
  8
0
  6
Continuous
 62
     7
370
    25
100
AcDbLine
 10
-1490.162302488224
 20
119.9776014374711
 30
0.0
 11
-1490.162302488224
 21
117.2302335982634
 31
0.0
  0
LINE
  5
1463C
330
2
100
AcDbEntity
  8
0
  6
Continuous
 62
     7
370
    25
100
AcDbLine
 10
-1487.618443377849
 20
110.5807653060491
 30
0.0
 11
-1484.871075538654
 21
110.5807653060491
 31
0.0
  0
LINE
  5
1463D
330
2
100
AcDbEntity
  8
0
  6
Continuous
 62
     7
370
    25
100
AcDbLine
 10
-1484.871075538654
 20
104.299016093302
 30
0.0
 11
-1487.618443377849
 21
104.299016093302
 31
0.0
  0
LINE
  5
14642
330
2
100
AcDbEntity
  8
0
  6
Continuous
 62
     7
370
    25
100
AcDbLine
 10
-1493.342104176828
 20
119.9776014374711
 30
0.0
 11
-1493.342104176828
 21
117.2302335982634
 31
0.0
  0
LINE
  5
14645
330
2
100
AcDbEntity
  8
0
  6
Continuous
 62
     7
370
    25
100
AcDbLine
 10
-1493.342148575544
 20
117.2302335982634
 30
0.0
 11
-1493.342148575544
 21
119.9776014374711
 31
0.0
  0
SPLINE
  5
1464A
330
2
100
AcDbEntity
  8
0
  6
Continuous
 62
     7
370
    25
100
AcDbSpline
210
0.0
220
0.0
230
1.0
 70
     8
 71
     3
 72
     8
 73
     4
 74
     0
 42
0.00000001
 43
0.0000000001
 40
0.0
 40
0.0
 40
0.0
 40
0.0
 40
1.0
 40
1.0
 40
1.0
 40
1.0
 10
-1298.329886975171
 20
117.2302335982634
 30
0.0
 10
-1298.45809033954
 20
117.2302335982634
 30
0.0
 10
-1298.586292588613
 20
117.2205235437854
 30
0.0
 10
-1298.713033448437
 20
117.2012140361518
 30
0.0
  0
LINE
  5
1464B
330
2
100
AcDbEntity
  8
0
  6
Continuous
 62
     7
370
    25
100
AcDbLine
 10
-1299.126831639573
 20
119.9172407482656
 30
0.0
 11
-1298.713033448437
 21
117.2012140361518
 31
0.0
  0
SPLINE
  5
1464C
330
2
100
AcDbEntity
  8
0
  6
Continuous
 62
     7
370
    25
100
AcDbSpline
210
0.0
220
0.0
230
1.0
 70
     8
 71
     3
 72
     8
 73
     4
 74
     0
 42
0.00000001
 43
0.0000000001
 40
0.0
 40
0.0
 40
0.0
 40
0.0
 40
1.0
 40
1.0
 40
1.0
 40
1.0
 10
-1298.329886975171
 20
119.9776014374711
 30
0.0
 10
-1298.596552638372
 20
119.9776014374711
 30
0.0
 10
-1298.863208016225
 20
119.9574049255824
 30
0.0
 10
-1299.126831639573
 20
119.9172407482656
 30
0.0
  0
LINE
  5
1464D
330
2
100
AcDbEntity
  8
0
  6
Continuous
 62
     7
370
    25
100
AcDbLine
 10
-1303.560753235529
 20
115.4833191522972
 30
0.0
 11
-1300.844726523427
 21
115.0695209611671
 31
0.0
  0
SPLINE
  5
1464E
330
2
100
AcDbEntity
  8
0
  6
Continuous
 62
     7
370
    25
100
AcDbSpline
210
0.0
220
0.0
230
1.0
 70
     8
 71
     3
 72
     8
 73
     4
 74
     0
 42
0.00000001
 43
0.0000000001
 40
0.0
 40
0.0
 40
0.0
 40
0.0
 40
1.0
 40
1.0
 40
1.0
 40
1.0
 10
-1300.844726523427
 20
115.0695209611671
 30
0.0
 10
-1300.864036031061
 20
114.9427801013369
 30
0.0
 10
-1300.873746085539
 20
114.814577852271
 30
0.0
 10
-1300.873746085539
 20
114.686374487901
 30
0.0
  0
SPLINE
  5
1464F
330
2
100
AcDbEntity
  8
0
  6
Continuous
 62
     7
370
    25
100
AcDbSpline
210
0.0
220
0.0
230
1.0
 70
     8
 71
     3
 72
     8
 73
     4
 74
     0
 42
0.00000001
 43
0.0000000001
 40
0.0
 40
0.0
 40
0.0
 40
0.0
 40
1.0
 40
1.0
 40
1.0
 40
1.0
 10
-1303.560753235529
 20
115.4833191522972
 30
0.0
 10
-1303.600917412858
 20
115.2196955289432
 30
0.0
 10
-1303.621113924747
 20
114.9530401510965
 30
0.0
 10
-1303.621113924747
 20
114.686374487901
 30
0.0
  0
SPLINE
  5
14650
330
2
100
AcDbEntity
  8
0
  6
Continuous
 62
     7
370
    25
100
AcDbSpline
210
0.0
220
0.0
230
1.0
 70
     8
 71
     3
 72
     8
 73
     4
 74
     0
 42
0.00000001
 43
0.0000000001
 40
0.0
 40
0.0
 40
0.0
 40
0.0
 40
1.0
 40
1.0
 40
1.0
 40
1.0
 10
-1487.618443377855
 20
114.686374487901
 30
0.0
 10
-1487.618443377855
 20
114.814577852271
 30
0.0
 10
-1487.62815343234
 20
114.9427801013369
 30
0.0
 10
-1487.647462939973
 20
115.0695209611671
 30
0.0
  0
LINE
  5
14651
330
2
100
AcDbEntity
  8
0
  6
Continuous
 62
     7
370
    25
100
AcDbLine
 10
-1484.931436227859
 20
115.4833191522972
 30
0.0
 11
-1487.647462939973
 21
115.0695209611671
 31
0.0
  0
SPLINE
  5
14652
330
2
100
AcDbEntity
  8
0
  6
Continuous
 62
     7
370
    25
100
AcDbSpline
210
0.0
220
0.0
230
1.0
 70
     8
 71
     3
 72
     8
 73
     4
 74
     0
 42
0.00000001
 43
0.0000000001
 40
0.0
 40
0.0
 40
0.0
 40
0.0
 40
1.0
 40
1.0
 40
1.0
 40
1.0
 10
-1484.871075538654
 20
114.686374487901
 30
0.0
 10
-1484.871075538654
 20
114.9530401510965
 30
0.0
 10
-1484.891272050543
 20
115.2196955289432
 30
0.0
 10
-1484.931436227859
 20
115.4833191522972
 30
0.0
  0
LINE
  5
14653
330
2
100
AcDbEntity
  8
0
  6
Continuous
 62
     7
370
    25
100
AcDbLine
 10
-1489.365357823822
 20
119.9172407482656
 30
0.0
 11
-1489.779156014952
 21
117.2012140361518
 31
0.0
  0
SPLINE
  5
14654
330
2
100
AcDbEntity
  8
0
  6
Continuous
 62
     7
370
    25
100
AcDbSpline
210
0.0
220
0.0
230
1.0
 70
     8
 71
     3
 72
     8
 73
     4
 74
     0
 42
0.00000001
 43
0.0000000001
 40
0.0
 40
0.0
 40
0.0
 40
0.0
 40
1.0
 40
1.0
 40
1.0
 40
1.0
 10
-1489.779156014952
 20
117.2012140361518
 30
0.0
 10
-1489.905896874776
 20
117.2205235437854
 30
0.0
 10
-1490.03409912386
 20
117.2302335982634
 30
0.0
 10
-1490.162302488224
 20
117.2302335982634
 30
0.0
  0
SPLINE
  5
14655
330
2
100
AcDbEntity
  8
0
  6
Continuous
 62
     7
370
    25
100
AcDbSpline
210
0.0
220
0.0
230
1.0
 70
     8
 71
     3
 72
     8
 73
     4
 74
     0
 42
0.00000001
 43
0.0000000001
 40
0.0
 40
0.0
 40
0.0
 40
0.0
 40
1.0
 40
1.0
 40
1.0
 40
1.0
 10
-1489.365357823822
 20
119.9172407482656
 30
0.0
 10
-1489.628981447176
 20
119.9574049255824
 30
0.0
 10
-1489.895636825029
 20
119.9776014374711
 30
0.0
 10
-1490.162302488224
 20
119.9776014374711
 30
0.0
  0
LINE
  5
14656
330
2
100
AcDbEntity
  8
0
  6
Continuous
 62
     7
370
    25
100
AcDbLine
 10
-1300.787404501418
 20
119.3722778415805
 30
0.0
 11
-1299.511385785866
 21
116.9392126387106
 31
0.0
  0
SPLINE
  5
14657
330
2
100
AcDbEntity
  8
0
  6
Continuous
 62
     7
370
    25
100
AcDbSpline
210
0.0
220
0.0
230
1.0
 70
     8
 71
     3
 72
     8
 73
     4
 74
     0
 42
0.00000001
 43
0.0000000001
 40
0.0
 40
0.0
 40
0.0
 40
0.0
 40
1.0
 40
1.0
 40
1.0
 40
1.0
 10
-1298.713033448437
 20
117.2012140361518
 30
0.0
 10
-1298.991194323118
 20
117.1588350469164
 30
0.0
 10
-1299.262204309868
 20
117.0698956251669
 30
0.0
 10
-1299.511385785866
 20
116.9392126387106
 30
0.0
  0
SPLINE
  5
14658
330
2
100
AcDbEntity
  8
0
  6
Continuous
 62
     7
370
    25
100
AcDbSpline
210
0.0
220
0.0
230
1.0
 70
     8
 71
     3
 72
     8
 73
     4
 74
     0
 42
0.00000001
 43
0.0000000001
 40
0.0
 40
0.0
 40
0.0
 40
0.0
 40
1.0
 40
1.0
 40
1.0
 40
1.0
 10
-1299.126831639573
 20
119.9172407482656
 30
0.0
 10
-1299.705489056343
 20
119.8290798361079
 30
0.0
 10
-1300.269032859906
 20
119.6441373525399
 30
0.0
 10
-1300.787404501418
 20
119.3722778415805
 30
0.0
  0
LINE
  5
14659
330
2
100
AcDbEntity
  8
0
  6
Continuous
 62
     7
370
    25
100
AcDbLine
 10
-1303.015790328856
 20
117.1438920141489
 30
0.0
 11
-1300.582725125986
 21
115.8678732986021
 31
0.0
  0
SPLINE
  5
1465A
330
2
100
AcDbEntity
  8
0
  6
Continuous
 62
     7
370
    25
100
AcDbSpline
210
0.0
220
0.0
230
1.0
 70
     8
 71
     3
 72
     8
 73
     4
 74
     0
 42
0.00000001
 43
0.0000000001
 40
0.0
 40
0.0
 40
0.0
 40
0.0
 40
1.0
 40
1.0
 40
1.0
 40
1.0
 10
-1300.582725125986
 20
115.8678732986021
 30
0.0
 10
-1300.713408112424
 20
115.6186918225925
 30
0.0
 10
-1300.802347534192
 20
115.3476818358486
 30
0.0
 10
-1300.844726523427
 20
115.0695209611671
 30
0.0
  0
SPLINE
  5
1465B
330
2
100
AcDbEntity
  8
0
  6
Continuous
 62
     7
370
    25
100
AcDbSpline
210
0.0
220
0.0
230
1.0
 70
     8
 71
     3
 72
     8
 73
     4
 74
     0
 42
0.00000001
 43
0.0000000001
 40
0.0
 40
0.0
 40
0.0
 40
0.0
 40
1.0
 40
1.0
 40
1.0
 40
1.0
 10
-1303.015790328856
 20
117.1438920141489
 30
0.0
 10
-1303.287649839816
 20
116.6255203726299
 30
0.0
 10
-1303.472592323384
 20
116.061976569067
 30
0.0
 10
-1303.560753235529
 20
115.4833191522972
 30
0.0
  0
LINE
  5
1465C
330
2
100
AcDbEntity
  8
0
  6
Continuous
 62
     7
370
    25
100
AcDbLine
 10
-1485.476399134538
 20
117.1438920141489
 30
0.0
 11
-1487.909464337415
 21
115.8678732986021
 31
0.0
  0
SPLINE
  5
1465D
330
2
100
AcDbEntity
  8
0
  6
Continuous
 62
     7
370
    25
100
AcDbSpline
210
0.0
220
0.0
230
1.0
 70
     8
 71
     3
 72
     8
 73
     4
 74
     0
 42
0.00000001
 43
0.0000000001
 40
0.0
 40
0.0
 40
0.0
 40
0.0
 40
1.0
 40
1.0
 40
1.0
 40
1.0
 10
-1487.647462939973
 20
115.0695209611671
 30
0.0
 10
-1487.689841929209
 20
115.3476818358486
 30
0.0
 10
-1487.778781350958
 20
115.6186918225925
 30
0.0
 10
-1487.909464337415
 20
115.8678732986021
 30
0.0
  0
SPLINE
  5
1465E
330
2
100
AcDbEntity
  8
0
  6
Continuous
 62
     7
370
    25
100
AcDbSpline
210
0.0
220
0.0
230
1.0
 70
     8
 71
     3
 72
     8
 73
     4
 74
     0
 42
0.00000001
 43
0.0000000001
 40
0.0
 40
0.0
 40
0.0
 40
0.0
 40
1.0
 40
1.0
 40
1.0
 40
1.0
 10
-1484.931436227859
 20
115.4833191522972
 30
0.0
 10
-1485.019597140005
 20
116.061976569067
 30
0.0
 10
-1485.204539623585
 20
116.6255203726299
 30
0.0
 10
-1485.476399134538
 20
117.1438920141489
 30
0.0
  0
LINE
  5
1465F
330
2
100
AcDbEntity
  8
0
  6
Continuous
 62
     7
370
    25
100
AcDbLine
 10
-1487.704784961976
 20
119.3722778415805
 30
0.0
 11
-1488.980803677523
 21
116.9392126387106
 31
0.0
  0
SPLINE
  5
14660
330
2
100
AcDbEntity
  8
0
  6
Continuous
 62
     7
370
    25
100
AcDbSpline
210
0.0
220
0.0
230
1.0
 70
     8
 71
     3
 72
     8
 73
     4
 74
     0
 42
0.00000001
 43
0.0000000001
 40
0.0
 40
0.0
 40
0.0
 40
0.0
 40
1.0
 40
1.0
 40
1.0
 40
1.0
 10
-1488.980803677523
 20
116.9392126387106
 30
0.0
 10
-1489.22998515352
 20
117.0698956251669
 30
0.0
 10
-1489.500995140283
 20
117.1588350469164
 30
0.0
 10
-1489.779156014952
 20
117.2012140361518
 30
0.0
  0
SPLINE
  5
14661
330
2
100
AcDbEntity
  8
0
  6
Continuous
 62
     7
370
    25
100
AcDbSpline
210
0.0
220
0.0
230
1.0
 70
     8
 71
     3
 72
     8
 73
     4
 74
     0
 42
0.00000001
 43
0.0000000001
 40
0.0
 40
0.0
 40
0.0
 40
0.0
 40
1.0
 40
1.0
 40
1.0
 40
1.0
 10
-1487.704784961976
 20
119.3722778415805
 30
0.0
 10
-1488.223156603495
 20
119.6441373525399
 30
0.0
 10
-1488.786700407058
 20
119.8290798361201
 30
0.0
 10
-1489.365357823822
 20
119.9172407482656
 30
0.0
  0
SPLINE
  5
14662
330
2
100
AcDbEntity
  8
0
  6
Continuous
 62
     7
370
    25
100
AcDbSpline
210
0.0
220
0.0
230
1.0
 70
     8
 71
     3
 72
    19
 73
    15
 74
     0
 42
0.00000001
 43
0.0000000001
 40
0.0
 40
0.0
 40
0.0
 40
0.0
 40
0.0811941069763318
 40
0.1553566106427696
 40
0.2230717148737713
 40
0.2851060437256069
 40
0.3424544923770397
 40
0.3963719748857749
 40
0.4483624430422969
 40
0.5000981742409851
 40
0.6043843444041613
 40
0.7150530090933093
 40
0.8442955260706359
 40
1.0
 40
1.0
 40
1.0
 40
1.0
 10
-1299.511385785866
 20
116.9392126387106
 30
0.0
 10
-1299.535611320547
 20
116.9262423524968
 30
0.0
 10
-1299.58196440083
 20
116.9014250377845
 30
0.0
 10
-1299.65822614774
 20
116.856473150689
 30
0.0
 10
-1299.735323612338
 20
116.8074293244817
 30
0.0
 10
-1299.81361793966
 20
116.7534678075683
 30
0.0
 10
-1299.892752880428
 20
116.6943629054745
 30
0.0
 10
-1299.972437678165
 20
116.6297899114164
 30
0.0
 10
-1300.052233966744
 20
116.5594846288862
 30
0.0
 10
-1300.157118192268
 20
116.4589486407533
 30
0.0
 10
-1300.284416187047
 20
116.3193780999101
 30
0.0
 10
-1300.410724814894
 20
116.1539416266856
 30
0.0
 10
-1300.512297810812
 20
115.9976588613631
 30
0.0
 10
-1300.557839589605
 20
115.9137331093228
 30
0.0
 10
-1300.582725125986
 20
115.8678732986021
 30
0.0
  0
SPLINE
  5
14663
330
2
100
AcDbEntity
  8
0
  6
Continuous
 62
     7
370
    25
100
AcDbSpline
210
0.0
220
0.0
230
1.0
 70
     8
 71
     3
 72
    14
 73
    10
 74
     0
 42
0.00000001
 43
0.0000000001
 40
0.0
 40
0.0
 40
0.0
 40
0.0
 40
0.25
 40
0.25
 40
0.375
 40
0.375
 40
0.5
 40
0.5
 40
1.0
 40
1.0
 40
1.0
 40
1.0
 10
-1300.787404501418
 20
119.3722778415805
 30
0.0
 10
-1300.991873107725
 20
119.2650444768129
 30
0.0
 10
-1301.205725129706
 20
119.1358843145547
 30
0.0
 10
-1301.531165073186
 20
118.9014398741198
 30
0.0
 10
-1301.640395430756
 20
118.8165092208776
 30
0.0
 10
-1301.858367349832
 20
118.631916959178
 30
0.0
 10
-1301.965007848183
 20
118.5343578269357
 30
0.0
 10
-1302.512240229991
 20
117.9862160594014
 30
0.0
 10
-1302.809908545232
 20
117.5364597700529
 30
0.0
 10
-1303.015790328856
 20
117.1438920141489
 30
0.0
  0
SPLINE
  5
14664
330
2
100
AcDbEntity
  8
0
  6
Continuous
 62
     7
370
    25
100
AcDbSpline
210
0.0
220
0.0
230
1.0
 70
     8
 71
     3
 72
    19
 73
    15
 74
     0
 42
0.00000001
 43
0.0000000001
 40
0.0
 40
0.0
 40
0.0
 40
0.0
 40
0.0811941069595997
 40
0.155356610613866
 40
0.2230717148373788
 40
0.2851060436866578
 40
0.3424544923404169
 40
0.3963719748560663
 40
0.4483624430233825
 40
0.5000981742355087
 40
0.604384344377746
 40
0.7150530090581918
 40
0.8442955260442333
 40
1.0
 40
1.0
 40
1.0
 40
1.0
 10
-1487.909464337415
 20
115.8678732986021
 30
0.0
 10
-1487.922434623616
 20
115.8920988332776
 30
0.0
 10
-1487.947251938328
 20
115.9384519135417
 30
0.0
 10
-1487.992203825405
 20
116.0147136604274
 30
0.0
 10
-1488.041247651612
 20
116.0918111250252
 30
0.0
 10
-1488.095209168514
 20
116.1701054523353
 30
0.0
 10
-1488.154314070613
 20
116.2492403931152
 30
0.0
 10
-1488.21888706469
 20
116.328925190865
 30
0.0
 10
-1488.289192347233
 20
116.4087214794556
 30
0.0
 10
-1488.389728335347
 20
116.5136057049793
 30
0.0
 10
-1488.52929887619
 20
116.6409036997461
 30
0.0
 10
-1488.694735349409
 20
116.7672123276063
 30
0.0
 10
-1488.851018114731
 20
116.86878532353
 30
0.0
 10
-1488.934943866784
 20
116.9143271023233
 30
0.0
 10
-1488.980803677523
 20
116.9392126387106
 30
0.0
  0
SPLINE
  5
14665
330
2
100
AcDbEntity
  8
0
  6
Continuous
 62
     7
370
    25
100
AcDbSpline
210
0.0
220
0.0
230
1.0
 70
     8
 71
     3
 72
    14
 73
    10
 74
     0
 42
0.00000001
 43
0.0000000001
 40
0.0
 40
0.0
 40
0.0
 40
0.0
 40
0.25
 40
0.25
 40
0.375
 40
0.375
 40
0.5
 40
0.5
 40
1.0
 40
1.0
 40
1.0
 40
1.0
 10
-1485.476399134538
 20
117.1438920141489
 30
0.0
 10
-1485.583632499263
 20
117.3483606203879
 30
0.0
 10
-1485.712792661503
 20
117.5622126423251
 30
0.0
 10
-1485.947237101919
 20
117.8876525858179
 30
0.0
 10
-1486.032167755173
 20
117.9968829433935
 30
0.0
 10
-1486.216760016904
 20
118.2148548625193
 30
0.0
 10
-1486.314319149208
 20
118.3214953609437
 30
0.0
 10
-1486.862460916612
 20
118.8687277426283
 30
0.0
 10
-1487.312217205961
 20
119.1663960578944
 30
0.0
 10
-1487.704784961976
 20
119.3722778415805
 30
0.0
  0
LINE
  5
14666
330
2
100
AcDbEntity
  8
0
  6
Continuous
 62
     7
370
    25
100
AcDbLine
 10
-1303.621113924747
 20
36.4292996529623
 30
0.0
 11
-1300.873746085539
 21
36.4292996529623
 31
0.0
  0
LINE
  5
14669
330
2
100
AcDbEntity
  8
0
  6
Continuous
 62
     7
370
    25
100
AcDbLine
 10
-1487.618443377849
 20
36.42930417483797
 30
0.0
 11
-1484.871075538642
 21
36.42930417483797
 31
0.0
  0
LINE
  5
1466B
330
2
100
AcDbEntity
  8
0
  6
Continuous
 62
     7
370
    25
100
AcDbLine
 10
-1484.871075538654
 20
114.686374487901
 30
0.0
 11
-1484.871075538642
 21
36.42930417483797
 31
0.0
  0
LINE
  5
1466C
330
2
100
AcDbEntity
  8
0
  6
Continuous
 62
     7
370
    25
100
AcDbLine
 10
-1487.618443377849
 20
36.40593460588537
 30
0.0
 11
-1487.618443377849
 21
114.686374487901
 31
0.0
  0
LINE
  5
1466D
330
2
100
AcDbEntity
  8
0
  6
Continuous
 62
     7
370
    25
100
AcDbLine
 10
-1484.871075538642
 20
36.42930417483797
 30
0.0
 11
-1484.871075538654
 21
36.40593460588537
 31
0.0
  0
LINE
  5
1466E
330
2
100
AcDbEntity
  8
0
  6
Continuous
 62
     7
370
    25
100
AcDbLine
 10
-1303.621113924747
 20
36.40593041477803
 30
0.0
 11
-1303.621113924747
 21
114.686374487901
 31
0.0
  0
LINE
  5
1466F
330
2
100
AcDbEntity
  8
0
  6
Continuous
 62
     7
370
    25
100
AcDbLine
 10
-1300.873746085539
 20
114.686374487901
 30
0.0
 11
-1300.873746085539
 21
36.40593041477803
 31
0.0
  0
SPLINE
  5
14670
330
2
100
AcDbEntity
  8
0
  6
Continuous
 62
     7
370
    25
100
AcDbSpline
210
0.0
220
0.0
230
1.0
 70
     8
 71
     3
 72
    13
 73
     9
 74
     0
 42
0.00000001
 43
0.0000000001
 40
0.0
 40
0.0
 40
0.0
 40
0.0
 40
0.165729125941573
 40
0.33122542917616
 40
0.4969472932763986
 40
0.6633512324929147
 40
0.8308881799796521
 40
1.0
 40
1.0
 40
1.0
 40
1.0
 10
-1483.124161978393
 20
111.1886183134861
 30
0.0
 10
-1483.085401022272
 20
111.2280815196333
 30
0.0
 10
-1483.007933562934
 20
111.3069524924918
 30
0.0
 10
-1482.883626001351
 20
111.4172406423469
 30
0.0
 10
-1482.753689154293
 20
111.5214173208796
 30
0.0
 10
-1482.617470814926
 20
111.6187537905848
 30
0.0
 10
-1482.475552894775
 20
111.7100627589025
 30
0.0
 10
-1482.376815883912
 20
111.7649086879574
 30
0.0
 10
-1482.327216428285
 20
111.7924599395229
 30
0.0
  0
LINE
  5
14671
330
2
100
AcDbEntity
  8
0
  6
Continuous
 62
     7
370
    25
100
AcDbLine
 10
-1484.607951966491
 20
109.3178579079078
 30
0.0
 11
-1483.124161978393
 21
111.1886183134861
 31
0.0
  0
LINE
  5
14672
330
2
100
AcDbEntity
  8
0
  6
Continuous
 62
     7
370
    25
100
AcDbLine
 10
-1483.115620451498
 20
36.80986468357014
 30
0.0
 11
-1484.630861984488
 21
38.80320428227378
 31
0.0
  0
SPLINE
  5
14673
330
2
100
AcDbEntity
  8
0
  6
Continuous
 62
     7
370
    25
100
AcDbSpline
210
0.0
220
0.0
230
1.0
 70
     8
 71
     3
 72
    13
 73
     9
 74
     0
 42
0.00000001
 43
0.0000000001
 40
0.0
 40
0.0
 40
0.0
 40
0.0
 40
0.169179442795699
 40
0.3367342287864469
 40
0.5031228911803935
 40
0.6688136513201773
 40
0.8342806613819682
 40
1.0
 40
1.0
 40
1.0
 40
1.0
 10
-1482.327216428273
 20
36.19299697256236
 30
0.0
 10
-1482.376535586258
 20
36.22123392568096
 30
0.0
 10
-1482.474700282596
 20
36.27743666802485
 30
0.0
 10
-1482.615512970826
 20
36.37087058632699
 30
0.0
 10
-1482.750420007776
 20
36.47036514402646
 30
0.0
 10
-1482.878821878963
 20
36.57674066620768
 30
0.0
 10
-1483.001397963771
 20
36.68926626904738
 30
0.0
 10
-1483.077526954876
 20
36.76964479878257
 30
0.0
 10
-1483.115620451498
 20
36.80986468357014
 30
0.0
  0
SPLINE
  5
14674
330
2
100
AcDbEntity
  8
0
  6
Continuous
 62
     7
370
    25
100
AcDbSpline
210
0.0
220
0.0
230
1.0
 70
     8
 71
     3
 72
     8
 73
     4
 74
     0
 42
0.00000001
 43
0.0000000001
 40
0.0
 40
0.0
 40
0.0
 40
0.0
 40
1.0
 40
1.0
 40
1.0
 40
1.0
 10
-1306.164973035116
 20
111.7924119889087
 30
0.0
 10
-1306.019965890918
 20
111.6304735850419
 30
0.0
 10
-1305.891986595012
 20
111.4292293933983
 30
0.0
 10
-1305.781826136025
 20
111.1885709098751
 30
0.0
  0
SPLINE
  5
14675
330
2
100
AcDbEntity
  8
0
  6
Continuous
 62
     7
370
    25
100
AcDbSpline
210
0.0
220
0.0
230
1.0
 70
     8
 71
     3
 72
     8
 73
     4
 74
     0
 42
0.00000001
 43
0.0000000001
 40
0.0
 40
0.0
 40
0.0
 40
0.0
 40
1.0
 40
1.0
 40
1.0
 40
1.0
 10
-1305.781826136025
 20
111.1885709098751
 30
0.0
 10
-1305.503652189876
 20
110.4906577366085
 30
0.0
 10
-1305.232669838054
 20
109.7928496687703
 30
0.0
 10
-1304.98347651319
 20
109.0949349542335
 30
0.0
  0
SPLINE
  5
14676
330
2
100
AcDbEntity
  8
0
  6
Continuous
 62
     7
370
    25
100
AcDbSpline
210
0.0
220
0.0
230
1.0
 70
     8
 71
     3
 72
    10
 73
     6
 74
     0
 42
0.00000001
 43
0.0000000001
 40
0.0
 40
0.0
 40
0.0
 40
0.0
 40
0.5
 40
0.5
 40
1.0
 40
1.0
 40
1.0
 40
1.0
 10
-1304.98347651319
 20
109.0949349542335
 30
0.0
 10
-1304.744055872109
 20
108.6462022387463
 30
0.0
 10
-1304.531322145874
 20
108.4219282856744
 30
0.0
 10
-1304.171693054869
 20
108.4219233296759
 30
0.0
 10
-1304.024756465519
 20
108.6462961530071
 30
0.0
 10
-1303.912136084653
 20
109.0949205293067
 30
0.0
  0
SPLINE
  5
14677
330
2
100
AcDbEntity
  8
0
  6
Continuous
 62
     7
370
    25
100
AcDbSpline
210
0.0
220
0.0
230
1.0
 70
     8
 71
     3
 72
     8
 73
     4
 74
     0
 42
0.00000001
 43
0.0000000001
 40
0.0
 40
0.0
 40
0.0
 40
0.0
 40
1.0
 40
1.0
 40
1.0
 40
1.0
 10
-1303.912136084653
 20
109.0949205293067
 30
0.0
 10
-1303.781444566497
 20
109.7928462629635
 30
0.0
 10
-1303.692513033715
 20
110.4906656905493
 30
0.0
 10
-1303.650132254553
 20
111.1885909183794
 30
0.0
  0
SPLINE
  5
14678
330
2
100
AcDbEntity
  8
0
  6
Continuous
 62
     7
370
    25
100
AcDbSpline
210
0.0
220
0.0
230
1.0
 70
     8
 71
     3
 72
     8
 73
     4
 74
     0
 42
0.00000001
 43
0.0000000001
 40
0.0
 40
0.0
 40
0.0
 40
0.0
 40
1.0
 40
1.0
 40
1.0
 40
1.0
 10
-1303.66307427317
 20
37.33106778481931
 30
0.0
 10
-1303.707861048938
 20
37.92105968006126
 30
0.0
 10
-1303.788438477467
 20
38.5109936547957
 30
0.0
 10
-1303.901430134885
 20
39.10098514512208
 30
0.0
  0
SPLINE
  5
14679
330
2
100
AcDbEntity
  8
0
  6
Continuous
 62
     7
370
    25
100
AcDbSpline
210
0.0
220
0.0
230
1.0
 70
     8
 71
     3
 72
    10
 73
     6
 74
     0
 42
0.00000001
 43
0.0000000001
 40
0.0
 40
0.0
 40
0.0
 40
0.0
 40
0.5
 40
0.5
 40
1.0
 40
1.0
 40
1.0
 40
1.0
 10
-1303.901430134885
 20
39.10098514512208
 30
0.0
 10
-1304.027213506305
 20
39.54301453488108
 30
0.0
 10
-1304.188386453613
 20
39.76068150252377
 30
0.0
 10
-1304.551721036313
 20
39.74780712221491
 30
0.0
 10
-1304.753755315554
 20
39.51712221245714
 30
0.0
 10
-1304.962724143795
 20
39.06236192801225
 30
0.0
  0
SPLINE
  5
1467A
330
2
100
AcDbEntity
  8
0
  6
Continuous
 62
     7
370
    25
100
AcDbSpline
210
0.0
220
0.0
230
1.0
 70
     8
 71
     3
 72
     8
 73
     4
 74
     0
 42
0.00000001
 43
0.0000000001
 40
0.0
 40
0.0
 40
0.0
 40
0.0
 40
1.0
 40
1.0
 40
1.0
 40
1.0
 10
-1304.962724143795
 20
39.06236192801225
 30
0.0
 10
-1305.218821788519
 20
38.31147419658021
 30
0.0
 10
-1305.49857680855
 20
37.56070643041574
 30
0.0
 10
-1305.785932607959
 20
36.8098170576659
 30
0.0
  0
SPLINE
  5
1467B
330
2
100
AcDbEntity
  8
0
  6
Continuous
 62
     7
370
    25
100
AcDbSpline
210
0.0
220
0.0
230
1.0
 70
     8
 71
     3
 72
     8
 73
     4
 74
     0
 42
0.00000001
 43
0.0000000001
 40
0.0
 40
0.0
 40
0.0
 40
0.0
 40
1.0
 40
1.0
 40
1.0
 40
1.0
 10
-1305.785932607959
 20
36.8098170576659
 30
0.0
 10
-1305.894113926471
 20
36.56458692045362
 30
0.0
 10
-1306.020705998443
 20
36.35900147630207
 30
0.0
 10
-1306.164973035116
 20
36.19294890373737
 30
0.0
  0
LINE
  5
1467C
330
2
100
AcDbEntity
  8
0
  6
Continuous
 62
     7
370
    25
100
AcDbLine
 10
-1306.164973035116
 20
111.7924119889087
 30
0.0
 11
-1306.164973035116
 21
36.19294890373737
 31
0.0
  0
LINE
  5
1467D
330
2
100
AcDbEntity
  8
0
  6
Continuous
 62
     7
370
    25
100
AcDbLine
 10
-1303.861327649491
 20
38.80320314565984
 30
0.0
 11
-1305.376568946616
 21
36.80986447299927
 31
0.0
  0
LINE
  5
1467E
330
2
100
AcDbEntity
  8
0
  6
Continuous
 62
     7
370
    25
100
AcDbLine
 10
-1305.368027485007
 20
111.1886183134861
 30
0.0
 11
-1303.884237496898
 21
109.3178579079078
 31
0.0
  0
SPLINE
  5
1467F
330
2
100
AcDbEntity
  8
0
  6
Continuous
 62
     7
370
    25
100
AcDbSpline
210
0.0
220
0.0
230
1.0
 70
     8
 71
     3
 72
    13
 73
     9
 74
     0
 42
0.00000001
 43
0.0000000001
 40
0.0
 40
0.0
 40
0.0
 40
0.0
 40
0.1691119018772422
 40
0.3366488994602583
 40
0.5030528560869828
 40
0.6687747042293459
 40
0.8342709577219576
 40
1.0
 40
1.0
 40
1.0
 40
1.0
 10
-1306.164973035116
 20
111.7924599395229
 30
0.0
 10
-1306.115373560042
 20
111.76490866703
 30
0.0
 10
-1306.016636519577
 20
111.7100627013641
 30
0.0
 10
-1305.874718563833
 20
111.6187536979287
 30
0.0
 10
-1305.738500212713
 20
111.5214172166862
 30
0.0
 10
-1305.608563377291
 20
111.4172405512084
 30
0.0
 10
-1305.484255850376
 20
111.3069524389761
 30
0.0
 10
-1305.406788421781
 20
111.2280814991005
 30
0.0
 10
-1305.368027485007
 20
111.1886183134861
 30
0.0
  0
SPLINE
  5
14680
330
2
100
AcDbEntity
  8
0
  6
Continuous
 62
     7
370
    25
100
AcDbSpline
210
0.0
220
0.0
230
1.0
 70
     8
 71
     3
 72
     8
 73
     4
 74
     0
 42
0.00000001
 43
0.0000000001
 40
0.0
 40
0.0
 40
0.0
 40
0.0
 40
1.0
 40
1.0
 40
1.0
 40
1.0
 10
-1482.327216428273
 20
36.19294902194827
 30
0.0
 10
-1482.47148339247
 20
36.35900147500638
 30
0.0
 10
-1482.598075454633
 20
36.5645869500064
 30
0.0
 10
-1482.706256824057
 20
36.80981726823677
 30
0.0
  0
SPLINE
  5
14681
330
2
100
AcDbEntity
  8
0
  6
Continuous
 62
     7
370
    25
100
AcDbSpline
210
0.0
220
0.0
230
1.0
 70
     8
 71
     3
 72
     8
 73
     4
 74
     0
 42
0.00000001
 43
0.0000000001
 40
0.0
 40
0.0
 40
0.0
 40
0.0
 40
1.0
 40
1.0
 40
1.0
 40
1.0
 10
-1482.706256824057
 20
36.80981726823677
 30
0.0
 10
-1482.99361269045
 20
37.56070703806666
 30
0.0
 10
-1483.273367774466
 20
38.31147520120021
 30
0.0
 10
-1483.529465469227
 20
39.0623633297123
 30
0.0
  0
SPLINE
  5
14682
330
2
100
AcDbEntity
  8
0
  6
Continuous
 62
     7
370
    25
100
AcDbSpline
210
0.0
220
0.0
230
1.0
 70
     8
 71
     3
 72
    10
 73
     6
 74
     0
 42
0.00000001
 43
0.0000000001
 40
0.0
 40
0.0
 40
0.0
 40
0.0
 40
0.5
 40
0.5
 40
1.0
 40
1.0
 40
1.0
 40
1.0
 10
-1483.529465469227
 20
39.0623633297123
 30
0.0
 10
-1483.762985900654
 20
39.51768056004278
 30
0.0
 10
-1483.972771949048
 20
39.74849744727066
 30
0.0
 10
-1484.330126219755
 20
39.76137181711579
 30
0.0
 10
-1484.477695551269
 20
39.54336529469549
 30
0.0
 10
-1484.590759404433
 20
39.10098682476587
 30
0.0
  0
SPLINE
  5
14683
330
2
100
AcDbEntity
  8
0
  6
Continuous
 62
     7
370
    25
100
AcDbSpline
210
0.0
220
0.0
230
1.0
 70
     8
 71
     3
 72
     8
 73
     4
 74
     0
 42
0.00000001
 43
0.0000000001
 40
0.0
 40
0.0
 40
0.0
 40
0.0
 40
1.0
 40
1.0
 40
1.0
 40
1.0
 10
-1484.590759404433
 20
39.10098682476587
 30
0.0
 10
-1484.703750932554
 20
38.5109961028968
 30
0.0
 10
-1484.784328297141
 20
37.92106289634808
 30
0.0
 10
-1484.829115083736
 20
37.33107176956355
 30
0.0
  0
SPLINE
  5
14684
330
2
100
AcDbEntity
  8
0
  6
Continuous
 62
     7
370
    25
100
AcDbSpline
210
0.0
220
0.0
230
1.0
 70
     8
 71
     3
 72
     8
 73
     4
 74
     0
 42
0.00000001
 43
0.0000000001
 40
0.0
 40
0.0
 40
0.0
 40
0.0
 40
1.0
 40
1.0
 40
1.0
 40
1.0
 10
-1484.842057208836
 20
111.1885909183794
 30
0.0
 10
-1484.799676429686
 20
110.4906656905493
 30
0.0
 10
-1484.710744896904
 20
109.7928462629635
 30
0.0
 10
-1484.580053378742
 20
109.0949205293067
 30
0.0
  0
SPLINE
  5
14685
330
2
100
AcDbEntity
  8
0
  6
Continuous
 62
     7
370
    25
100
AcDbSpline
210
0.0
220
0.0
230
1.0
 70
     8
 71
     3
 72
    10
 73
     6
 74
     0
 42
0.00000001
 43
0.0000000001
 40
0.0
 40
0.0
 40
0.0
 40
0.0
 40
0.5
 40
0.5
 40
1.0
 40
1.0
 40
1.0
 40
1.0
 10
-1484.580053378742
 20
109.0949205293067
 30
0.0
 10
-1484.454489823759
 20
108.646192713674
 30
0.0
 10
-1484.293975119943
 20
108.4219238200044
 30
0.0
 10
-1483.928400351741
 20
108.4219286722167
 30
0.0
 10
-1483.723454059821
 20
108.6463062342999
 30
0.0
 10
-1483.508712950199
 20
109.0949349542335
 30
0.0
  0
SPLINE
  5
14686
330
2
100
AcDbEntity
  8
0
  6
Continuous
 62
     7
370
    25
100
AcDbSpline
210
0.0
220
0.0
230
1.0
 70
     8
 71
     3
 72
     8
 73
     4
 74
     0
 42
0.00000001
 43
0.0000000001
 40
0.0
 40
0.0
 40
0.0
 40
0.0
 40
1.0
 40
1.0
 40
1.0
 40
1.0
 10
-1483.508712950199
 20
109.0949349542335
 30
0.0
 10
-1483.259519625347
 20
109.7928496687703
 30
0.0
 10
-1482.988537273525
 20
110.4906577366085
 30
0.0
 10
-1482.710363327376
 20
111.1885709098751
 30
0.0
  0
SPLINE
  5
14687
330
2
100
AcDbEntity
  8
0
  6
Continuous
 62
     7
370
    25
100
AcDbSpline
210
0.0
220
0.0
230
1.0
 70
     8
 71
     3
 72
     8
 73
     4
 74
     0
 42
0.00000001
 43
0.0000000001
 40
0.0
 40
0.0
 40
0.0
 40
0.0
 40
1.0
 40
1.0
 40
1.0
 40
1.0
 10
-1482.710363327376
 20
111.1885709098751
 30
0.0
 10
-1482.600202801085
 20
111.4292295403722
 30
0.0
 10
-1482.472223504345
 20
111.6304737320898
 30
0.0
 10
-1482.327216428285
 20
111.7924119889087
 30
0.0
  0
LINE
  5
14688
330
2
100
AcDbEntity
  8
0
  6
Continuous
 62
     7
370
    25
100
AcDbLine
 10
-1482.327216428273
 20
36.19294902194827
 30
0.0
 11
-1482.327216428285
 21
111.7924119889087
 31
0.0
  0
LINE
  5
14689
330
2
100
AcDbEntity
  8
0
  6
Continuous
 62
     7
370
    25
100
AcDbLine
 10
-1483.529465469227
 20
39.0623633297123
 30
0.0
 11
-1484.396858811909
 21
39.06239155916842
 31
0.0
  0
LINE
  5
1468A
330
2
100
AcDbEntity
  8
0
  6
Continuous
 62
     7
370
    25
100
AcDbLine
 10
-1304.962724143795
 20
39.06236192801225
 30
0.0
 11
-1303.66429534117
 21
39.06240418557422
 31
0.0
  0
LINE
  5
1468B
330
2
100
AcDbEntity
  8
0
  6
Continuous
 62
     7
370
    25
100
AcDbLine
 10
-1483.508712950199
 20
109.0949349542335
 30
0.0
 11
-1484.784729193879
 21
109.0949774192568
 31
0.0
  0
LINE
  5
1468C
330
2
100
AcDbEntity
  8
0
  6
Continuous
 62
     7
370
    25
100
AcDbLine
 10
-1304.98347651319
 20
109.0949349542335
 30
0.0
 11
-1304.099964504597
 21
109.0949643569637
 31
0.0
  0
LINE
  5
1468D
330
2
100
AcDbEntity
  8
0
  6
Continuous
 62
     7
370
    25
100
AcDbLine
 10
-1482.706256824057
 20
36.80981726823677
 30
0.0
 11
-1483.115620451498
 21
36.80986468357014
 31
0.0
  0
LINE
  5
1468E
330
2
100
AcDbEntity
  8
0
  6
Continuous
 62
     7
370
    25
100
AcDbLine
 10
-1305.785932607959
 20
36.8098170576659
 30
0.0
 11
-1305.376568946616
 21
36.80986447299927
 31
0.0
  0
LINE
  5
1468F
330
2
100
AcDbEntity
  8
0
  6
Continuous
 62
     7
370
    25
100
AcDbLine
 10
-1482.710363327376
 20
111.1885709098751
 30
0.0
 11
-1483.124161978393
 21
111.1886183134861
 31
0.0
  0
LINE
  5
14690
330
2
100
AcDbEntity
  8
0
  6
Continuous
 62
     7
370
    25
100
AcDbLine
 10
-1305.781826136025
 20
111.1885709098751
 30
0.0
 11
-1305.368027485007
 21
111.1886183134861
 31
0.0
  0
ARC
  5
14691
330
2
100
AcDbEntity
  8
0
  6
Continuous
 62
     7
370
    25
100
AcDbCircle
 10
-1481.225695588945
 20
110.2346689956586
 30
0.0
 40
1.907894332584055
100
AcDbArc
 50
90.0
 51
125.2642989401356
  0
ARC
  5
14692
330
2
100
AcDbEntity
  8
0
  6
Continuous
 62
     7
370
    25
100
AcDbCircle
 10
-1481.203267667851
 20
37.73463639890179
 30
0.0
 40
1.907894332588241
100
AcDbArc
 50
233.9065274628942
 51
270.0
  0
LINE
  5
14693
330
2
100
AcDbEntity
  8
0
  6
Continuous
 62
     7
370
    25
100
AcDbLine
 10
-1481.225695588945
 20
112.1425153775263
 30
0.0
 11
-1307.266493874456
 21
112.1425153775263
 31
0.0
  0
ARC
  5
14694
330
2
100
AcDbEntity
  8
0
  6
Continuous
 62
     7
370
    25
100
AcDbCircle
 10
-1307.266493874456
 20
110.2346210450445
 30
0.0
 40
1.907894332584305
100
AcDbArc
 50
54.73570105986437
 51
90.0
  0
ARC
  5
14695
330
2
100
AcDbEntity
  8
0
  6
Continuous
 62
     7
370
    25
100
AcDbCircle
 10
-1307.288921633399
 20
37.73463639890179
 30
0.0
 40
1.907894332588139
100
AcDbArc
 50
270.0
 51
306.0934665110713
  0
LINE
  5
14696
330
2
100
AcDbEntity
  8
0
  6
Continuous
 62
     7
370
    25
100
AcDbLine
 10
-1307.288921633399
 20
35.82674206640752
 30
0.0
 11
-1481.203267667851
 21
35.82674206640752
 31
0.0
  0
LINE
  5
14697
330
2
100
AcDbEntity
  8
0
  6
Continuous
 62
     7
370
    25
100
AcDbLine
 10
-1004.788981778342
 20
-245.9658501759899
 30
0.0
 11
-1007.536350199399
 21
-245.9658501759899
 31
0.0
  0
LINE
  5
14699
330
2
100
AcDbEntity
  8
0
  6
Continuous
 62
     7
370
    25
100
AcDbLine
 10
-1007.536350199399
 20
-244.5810367103634
 30
0.0
 11
-1004.788981778342
 21
-244.5810367103634
 31
0.0
  0
LINE
  5
1469B
330
2
100
AcDbEntity
  8
0
  6
Continuous
 62
     7
370
    25
100
AcDbLine
 10
-1004.788981778342
 20
-228.7418103342972
 30
0.0
 11
-1007.536350199399
 21
-228.7418103342972
 31
0.0
  0
ARC
  5
1469E
330
2
100
AcDbEntity
  8
0
  6
Continuous
 62
     7
370
    25
100
AcDbCircle
 10
-1002.245122129225
 20
-228.7418103342972
 30
0.0
 40
5.291228070175036
100
AcDbArc
 50
90.0
 51
180.0
  0
LINE
  5
146A1
330
2
100
AcDbEntity
  8
0
  6
Continuous
 62
     7
370
    25
100
AcDbLine
 10
-1002.245122129225
 20
-226.2044067040202
 30
0.0
 11
-1002.245122129225
 21
-223.4505822649317
 31
0.0
  0
LWPOLYLINE
  5
146A4
330
2
100
AcDbEntity
  8
0
  6
Continuous
 62
     7
370
    25
100
AcDbPolyline
 90
        9
 70
   128
 43
0.0
 10
-949.1420519537804
 20
-226.198090541562
 10
-949.2960225358098
 20
-226.1980632570035
 10
-949.7520172787931
 20
-226.1980370209807
 10
-950.4925125604717
 20
-226.198012841729
 10
-951.4890515624326
 20
-226.1979916484379
 10
-952.7033378497227
 20
-226.1979742555535
 10
-954.0887070812789
 20
-226.1979613314734
 10
-955.591920294467
 20
-226.1979533728561
 10
-957.1552098485211
 20
-226.1979506855693
  0
LWPOLYLINE
  5
146A6
330
2
100
AcDbEntity
  8
0
  6
Continuous
 62
     7
370
    25
100
AcDbPolyline
 90
       10
 70
   128
 43
0.0
 10
-961.8613501993944
 20
-226.199393644182
 10
-959.6526672378411
 20
-226.199390271605
 10
-957.5110939904298
 20
-226.1993802563276
 10
-955.5017010765874
 20
-226.199363902675
 10
-953.6855428832017
 20
-226.1993417075404
 10
-952.1178024579732
 20
-226.1993143453058
 10
-950.8461148003849
 20
-226.1992826473589
 10
-949.9091194964197
 20
-226.1992475768352
 10
-949.335286674237
 20
-226.1992101993354
 10
-949.1420519537804
 20
-226.1991716505483
  0
LWPOLYLINE
  5
146A8
330
2
100
AcDbEntity
  8
0
  6
Continuous
 62
     7
370
    25
100
AcDbPolyline
 90
       17
 70
   128
 43
0.0
 10
-957.1552098485211
 20
-226.198130500403
 10
-958.031353496308
 20
-226.1981274587301
 10
-958.7741122159748
 20
-226.1981187967333
 10
-959.270407725587
 20
-226.1981058331425
 10
-959.4446835327351
 20
-226.198090541562
 10
-959.270407725587
 20
-226.1980752499691
 10
-958.7741122159748
 20
-226.1980622863784
 10
-958.031353496308
 20
-226.1980536243939
 10
-957.1552098485211
 20
-226.1980505827087
 10
-956.2790662007341
 20
-226.1980536243939
 10
-955.5363074810671
 20
-226.1980622863784
 10
-955.040011971455
 20
-226.1980752499691
 10
-954.8657361643067
 20
-226.198090541562
 10
-955.040011971455
 20
-226.1981058331425
 10
-955.5363074810671
 20
-226.1981187967333
 10
-956.2790662007341
 20
-226.1981274587301
 10
-957.1552098485211
 20
-226.198130500403
  0
LWPOLYLINE
  5
146A9
330
2
100
AcDbEntity
  8
0
  6
Continuous
 62
     7
370
    25
100
AcDbPolyline
 90
       17
 70
   128
 43
0.0
 10
-981.5126659888706
 20
-226.1992937470425
 10
-982.3888096366452
 20
-226.1992907053574
 10
-983.1315683562998
 20
-226.1992820433728
 10
-983.627863865912
 20
-226.1992690797821
 10
-983.8021396730479
 20
-226.1992537881891
 10
-983.627863865912
 20
-226.1992384966086
 10
-983.1315683562998
 20
-226.1992255330179
 10
-982.3888096366452
 20
-226.1992168710333
 10
-981.5126659888706
 20
-226.1992138293358
 10
-980.6365223411084
 20
-226.1992168710333
 10
-979.8937636214354
 20
-226.1992255330179
 10
-979.3974681118355
 20
-226.1992384966086
 10
-979.2231923046934
 20
-226.1992537881891
 10
-979.3974681118355
 20
-226.1992690797821
 10
-979.8937636214354
 20
-226.1992820433728
 10
-980.6365223411084
 20
-226.1992907053574
 10
-981.5126659888706
 20
-226.1992937470425
  0
LINE
  5
146AA
330
2
100
AcDbEntity
  8
0
  6
Continuous
 62
     7
370
    25
100
AcDbLine
 10
-1002.245122129225
 20
-223.4505822649317
 30
0.0
 11
-957.1552098485211
 21
-223.4505822649317
 31
0.0
  0
LINE
  5
146AB
330
2
100
AcDbEntity
  8
0
  6
Continuous
 62
     7
370
    25
100
AcDbLine
 10
-957.1552098485211
 20
-226.1979506855693
 30
0.0
 11
-957.1552098485211
 21
-223.4505822649317
 31
0.0
  0
LWPOLYLINE
  5
146AD
330
2
100
AcDbEntity
  8
0
  6
Continuous
 62
     7
370
    25
100
AcDbPolyline
 90
        9
 70
   128
 43
0.0
 10
-957.1552098485211
 20
-223.4505822649317
 10
-955.591920294467
 20
-223.4505849522309
 10
-954.0887070812789
 20
-223.4505929108359
 10
-952.7033378497227
 20
-223.450605834916
 10
-951.4890515624326
 20
-223.4506232278127
 10
-950.4925125604717
 20
-223.4506444210914
 10
-949.7520172787931
 20
-223.4506686003555
 10
-949.2960225358098
 20
-223.4506948363783
 10
-949.1420519537804
 20
-223.4507221209245
  0
LINE
  5
146AE
330
2
100
AcDbEntity
  8
0
  6
Continuous
 62
     7
370
    25
100
AcDbLine
 10
-1007.536350199399
 20
-601.1490979709657
 30
0.0
 11
-1004.788981778342
 21
-601.1490979709657
 31
0.0
  0
LINE
  5
146B1
330
2
100
AcDbEntity
  8
0
  6
Continuous
 62
     7
370
    25
100
AcDbLine
 10
-1004.788981778342
 20
-607.7775822560664
 30
0.0
 11
-1007.536350199399
 21
-607.7775822560664
 31
0.0
  0
LINE
  5
146B2
330
2
100
AcDbEntity
  8
0
  6
Continuous
 62
     7
370
    25
100
AcDbLine
 10
-1004.788981778342
 20
-228.7418103342972
 30
0.0
 11
-1004.788981778342
 21
-607.7775822560664
 31
0.0
  0
LINE
  5
146B3
330
2
100
AcDbEntity
  8
0
  6
Continuous
 62
     7
370
    25
100
AcDbLine
 10
-1007.536350199399
 20
-607.7775822560664
 30
0.0
 11
-1007.536350199399
 21
-228.7418103342972
 31
0.0
  0
LINE
  5
146B4
330
2
100
AcDbEntity
  8
0
  6
Continuous
 62
     7
370
    25
100
AcDbLine
 10
-1007.799136331933
 20
-248.1053243260684
 30
0.0
 11
-1009.283263884145
 21
-246.2341380615691
 31
0.0
  0
SPLINE
  5
146B5
330
2
100
AcDbEntity
  8
0
  6
Continuous
 62
     7
370
    25
100
AcDbSpline
210
0.0
220
0.0
230
1.0
 70
     8
 71
     3
 72
     8
 73
     4
 74
     0
 42
0.00000001
 43
0.0000000001
 40
0.0
 40
0.0
 40
0.0
 40
0.0
 40
1.0
 40
1.0
 40
1.0
 40
1.0
 10
-1009.283265015335
 20
-246.2341366971215
 30
0.0
 10
-1009.546888694519
 20
-246.0328539649828
 30
0.0
 10
-1009.813544128849
 20
-245.831577268276
 30
0.0
 10
-1010.080209848521
 20
-245.6302945361372
 30
0.0
  0
LINE
  5
146B6
330
2
100
AcDbEntity
  8
0
  6
Continuous
 62
     7
370
    25
100
AcDbLine
 10
-1009.547786336442
 20
-607.1416173437857
 30
0.0
 11
-1007.799632484299
 21
-604.951645923703
 31
0.0
  0
SPLINE
  5
146B7
330
2
100
AcDbEntity
  8
0
  6
Continuous
 62
     7
370
    25
100
AcDbSpline
210
0.0
220
0.0
230
1.0
 70
     8
 71
     3
 72
     8
 73
     4
 74
     0
 42
0.00000001
 43
0.0000000001
 40
0.0
 40
0.0
 40
0.0
 40
0.0
 40
1.0
 40
1.0
 40
1.0
 40
1.0
 10
-1010.080209848521
 20
-607.5441787844377
 30
0.0
 10
-1009.994740920844
 20
-607.4099916375538
 30
0.0
 10
-1009.909272140122
 20
-607.2758044906696
 30
0.0
 10
-1009.82423700618
 20
-607.1416173437857
 30
0.0
  0
LINE
  5
146B8
330
2
100
AcDbEntity
  8
0
  6
Continuous
 62
     7
370
    25
100
AcDbLine
 10
-1010.080209848521
 20
-245.6302945361372
 30
0.0
 11
-1010.080209848521
 21
-607.5441787844377
 31
0.0
  0
SPLINE
  5
146B9
330
2
100
AcDbEntity
  8
0
  6
Continuous
 62
     7
370
    25
100
AcDbSpline
210
0.0
220
0.0
230
1.0
 70
     8
 71
     3
 72
     8
 73
     4
 74
     0
 42
0.00000001
 43
0.0000000001
 40
0.0
 40
0.0
 40
0.0
 40
0.0
 40
1.0
 40
1.0
 40
1.0
 40
1.0
 10
-1009.697063294106
 20
-246.2341366971215
 30
0.0
 10
-1009.82380418078
 20
-246.0328559767893
 30
0.0
 10
-1009.952006456999
 20
-245.8315752564693
 30
0.0
 10
-1010.080209848521
 20
-245.6302945361372
 30
0.0
  0
SPLINE
  5
146BA
330
2
100
AcDbEntity
  8
0
  6
Continuous
 62
     7
370
    25
100
AcDbSpline
210
0.0
220
0.0
230
1.0
 70
     8
 71
     3
 72
     8
 73
     4
 74
     0
 42
0.00000001
 43
0.0000000001
 40
0.0
 40
0.0
 40
0.0
 40
0.0
 40
1.0
 40
1.0
 40
1.0
 40
1.0
 10
-1008.898710787597
 20
-248.3277853811907
 30
0.0
 10
-1009.147892316363
 20
-247.6299024865009
 30
0.0
 10
-1009.418902360516
 20
-246.9320195918113
 30
0.0
 10
-1009.697063294106
 20
-246.2341366971215
 30
0.0
  0
SPLINE
  5
146BB
330
2
100
AcDbEntity
  8
0
  6
Continuous
 62
     7
370
    25
100
AcDbSpline
210
0.0
220
0.0
230
1.0
 70
     8
 71
     3
 72
    19
 73
    15
 74
     0
 42
0.00000001
 43
0.0000000001
 40
0.0
 40
0.0
 40
0.0
 40
0.0
 40
0.0811941069763318
 40
0.1553566106427696
 40
0.2230717148737713
 40
0.2851060437256069
 40
0.3424544923770397
 40
0.3963719748857749
 40
0.4483624430422969
 40
0.5000981742409851
 40
0.6043843444041613
 40
0.7150530090933093
 40
0.8442955260706359
 40
1.0
 40
1.0
 40
1.0
 40
1.0
 10
-1007.827371220587
 20
-248.3277853811907
 30
0.0
 10
-1007.840341509546
 20
-248.3774774524178
 30
0.0
 10
-1007.865158829508
 20
-248.4725581430047
 30
0.0
 10
-1007.91011072613
 20
-248.6012603239957
 30
0.0
 10
-1007.959154562739
 20
-248.7109782349139
 30
0.0
 10
-1008.013116091073
 20
-248.801309191063
 30
0.0
 10
-1008.072221005685
 20
-248.8722365579219
 30
0.0
 10
-1008.136794013421
 20
-248.9235371696814
 30
0.0
 10
-1008.207099310845
 20
-248.9548642419425
 30
0.0
 10
-1008.307635320257
 20
-248.9699225921417
 30
0.0
 10
-1008.447205890665
 20
-248.9373953172781
 30
0.0
 10
-1008.612642398921
 20
-248.8075830390121
 30
0.0
 10
-1008.768925197344
 20
-248.5989771892196
 30
0.0
 10
-1008.852850967165
 20
-248.4236111781622
 30
0.0
 10
-1008.898710787597
 20
-248.3277853811907
 30
0.0
  0
SPLINE
  5
146BC
330
2
100
AcDbEntity
  8
0
  6
Continuous
 62
     7
370
    25
100
AcDbSpline
210
0.0
220
0.0
230
1.0
 70
     8
 71
     3
 72
     8
 73
     4
 74
     0
 42
0.00000001
 43
0.0000000001
 40
0.0
 40
0.0
 40
0.0
 40
0.0
 40
1.0
 40
1.0
 40
1.0
 40
1.0
 10
-1007.565369767662
 20
-246.2341366971215
 30
0.0
 10
-1007.607748765868
 20
-246.9320195918113
 30
0.0
 10
-1007.696688206465
 20
-247.6299024865009
 30
0.0
 10
-1007.827371220587
 20
-248.3277853811907
 30
0.0
  0
SPLINE
  5
146BD
330
2
100
AcDbEntity
  8
0
  6
Continuous
 62
     7
370
    25
100
AcDbSpline
210
0.0
220
0.0
230
1.0
 70
     8
 71
     3
 72
     8
 73
     4
 74
     0
 42
0.00000001
 43
0.0000000001
 40
0.0
 40
0.0
 40
0.0
 40
0.0
 40
1.0
 40
1.0
 40
1.0
 40
1.0
 10
-1007.827371220599
 20
-604.7299862035762
 30
0.0
 10
-1007.696688206465
 20
-605.4278690982658
 30
0.0
 10
-1007.607748765868
 20
-606.1257519929557
 30
0.0
 10
-1007.565369767668
 20
-606.8236348876454
 30
0.0
  0
SPLINE
  5
146BE
330
2
100
AcDbEntity
  8
0
  6
Continuous
 62
     7
370
    25
100
AcDbSpline
210
0.0
220
0.0
230
1.0
 70
     8
 71
     3
 72
    19
 73
    15
 74
     0
 42
0.00000001
 43
0.0000000001
 40
0.0
 40
0.0
 40
0.0
 40
0.0
 40
0.0811941069578639
 40
0.1553566106106126
 40
0.2230717148329355
 40
0.2851060436813526
 40
0.3424544923347022
 40
0.3963719748504395
 40
0.4483624430183692
 40
0.5000981742316412
 40
0.6043843443900569
 40
0.7150530090743129
 40
0.8442955260549574
 40
1.0
 40
1.0
 40
1.0
 40
1.0
 10
-1008.898710787609
 20
-604.7299862035762
 30
0.0
 10
-1008.874485247801
 20
-604.6802941323491
 30
0.0
 10
-1008.828132157721
 20
-604.585213441787
 30
0.0
 10
-1008.751870394683
 20
-604.4565112608205
 30
0.0
 10
-1008.674772913754
 20
-604.3467933499147
 30
0.0
 10
-1008.596478569847
 20
-604.2564623937534
 30
0.0
 10
-1008.517343612329
 20
-604.1855350268944
 30
0.0
 10
-1008.437658797693
 20
-604.1342344151347
 30
0.0
 10
-1008.357862492204
 20
-604.102907342849
 30
0.0
 10
-1008.252978244463
 20
-604.087848992613
 30
0.0
 10
-1008.125680222716
 20
-604.1203762674394
 30
0.0
 10
-1007.999371568104
 20
-604.250188545693
 30
0.0
 10
-1007.897798550685
 20
-604.4587943954979
 30
0.0
 10
-1007.852256762243
 20
-604.6341604065922
 30
0.0
 10
-1007.827371220599
 20
-604.7299862035762
 30
0.0
  0
SPLINE
  5
146BF
330
2
100
AcDbEntity
  8
0
  6
Continuous
 62
     7
370
    25
100
AcDbSpline
210
0.0
220
0.0
230
1.0
 70
     8
 71
     3
 72
     8
 73
     4
 74
     0
 42
0.00000001
 43
0.0000000001
 40
0.0
 40
0.0
 40
0.0
 40
0.0
 40
1.0
 40
1.0
 40
1.0
 40
1.0
 10
-1009.82423700618
 20
-607.1416173437857
 30
0.0
 10
-1009.501776799524
 20
-606.3377402970492
 30
0.0
 10
-1009.18573789913
 20
-605.5338632503127
 30
0.0
 10
-1008.898710787609
 20
-604.7299862035762
 30
0.0
  0
LINE
  5
146C0
330
2
100
AcDbEntity
  8
0
  6
Continuous
 62
     7
370
    25
100
AcDbLine
 10
-1007.622691801806
 20
-248.3277853811907
 30
0.0
 11
-1008.898710787597
 21
-248.3277853811907
 31
0.0
  0
LINE
  5
146C1
330
2
100
AcDbEntity
  8
0
  6
Continuous
 62
     7
370
    25
100
AcDbLine
 10
-1007.827371220587
 20
-604.7299862035762
 30
0.0
 11
-1008.898710787609
 21
-604.7299862035762
 31
0.0
  0
LINE
  5
146C2
330
2
100
AcDbEntity
  8
0
  6
Continuous
 62
     7
370
    25
100
AcDbLine
 10
-1009.283265015335
 20
-246.2341366971215
 30
0.0
 11
-1009.697063294106
 21
-246.2341366971215
 31
0.0
  0
LINE
  5
146C3
330
2
100
AcDbEntity
  8
0
  6
Continuous
 62
     7
370
    25
100
AcDbLine
 10
-1009.547786336442
 20
-607.1416173437857
 30
0.0
 11
-1009.82423700618
 21
-607.1416173437857
 31
0.0
  0
ARC
  5
146C4
330
2
100
AcDbEntity
  8
0
  6
Continuous
 62
     7
370
    25
100
AcDbCircle
 10
-1010.814558875114
 20
-606.5056524314926
 30
0.0
 40
1.271929824561421
100
AcDbArc
 50
270.0
 51
305.2643896827565
  0
LINE
  5
146C5
330
2
100
AcDbEntity
  8
0
  6
Continuous
 62
     7
370
    25
100
AcDbLine
 10
-1010.814558875114
 20
-607.7775822560664
 30
0.0
 11
-1011.352139673089
 21
-607.7775822560664
 31
0.0
  0
ARC
  5
146C6
330
2
100
AcDbEntity
  8
0
  6
Continuous
 62
     7
370
    25
100
AcDbCircle
 10
-1011.352139673089
 20
-609.0495120806155
 30
0.0
 40
1.271929824561512
100
AcDbArc
 50
90.0
 51
180.0
  0
LINE
  5
146C7
330
2
100
AcDbEntity
  8
0
  6
Continuous
 62
     7
370
    25
100
AcDbLine
 10
-1012.624069497638
 20
-609.0495120806155
 30
0.0
 11
-1012.624069497638
 21
-680.4481450320325
 31
0.0
  0
ARC
  5
146C8
330
2
100
AcDbEntity
  8
0
  6
Continuous
 62
     7
370
    25
100
AcDbCircle
 10
-1014.531964234492
 20
-680.4481450320325
 30
0.0
 40
1.907894736842177
100
AcDbArc
 50
324.7361113234971
 51
0.0
  0
LINE
  5
146C9
330
2
100
AcDbEntity
  8
0
  6
Continuous
 62
     7
370
    25
100
AcDbLine
 10
-1088.094049510598
 20
-681.5509660395677
 30
0.0
 11
-1012.974165073187
 21
-681.5496549502585
 31
0.0
  0
ARC
  5
146CA
330
2
100
AcDbEntity
  8
0
  6
Continuous
 62
     7
370
    25
100
AcDbCircle
 10
-1086.452775763445
 20
-680.5781953503598
 30
0.0
 40
1.907894736842133
100
AcDbArc
 50
171.0230864463212
 51
210.6549055758824
  0
LINE
  5
146CB
330
2
100
AcDbEntity
  8
0
  6
Continuous
 62
     7
370
    25
100
AcDbLine
 10
-1088.33730125716
 20
-680.2804941740033
 30
0.0
 11
-1020.467565433187
 21
-250.6475011969742
 31
0.0
  0
ARC
  5
146CC
330
2
100
AcDbEntity
  8
0
  6
Continuous
 62
     7
370
    25
100
AcDbCircle
 10
-1014.185813787467
 20
-251.6398384515075
 30
0.0
 40
6.359649122807198
100
AcDbArc
 50
90.0
 51
171.0230864463172
  0
LINE
  5
146CD
330
2
100
AcDbEntity
  8
0
  6
Continuous
 62
     7
370
    25
100
AcDbLine
 10
-1014.185813787467
 20
-245.2801893287004
 30
0.0
 11
-1011.18173338842
 21
-245.2801893287004
 31
0.0
  0
CIRCLE
  5
146CE
330
2
100
AcDbEntity
  8
0
  6
Continuous
 62
     7
370
    25
100
AcDbCircle
 10
-1067.606471210541
 20
-595.8385283566264
 30
0.0
 40
2.085964912281443
  0
CIRCLE
  5
146CF
330
2
100
AcDbEntity
  8
0
  6
Continuous
 62
     7
370
    25
100
AcDbCircle
 10
-1077.529843755855
 20
-658.656044813814
 30
0.0
 40
2.085964912281443
  0
CIRCLE
  5
146D0
330
2
100
AcDbEntity
  8
0
  6
Continuous
 62
     7
370
    25
100
AcDbCircle
 10
-1072.568157483189
 20
-627.247286585214
 30
0.0
 40
2.085964912281443
  0
ARC
  5
146D1
330
2
100
AcDbEntity
  8
0
  6
Continuous
 62
     7
370
    25
100
AcDbCircle
 10
-1011.18173338842
 20
-247.1880840655425
 30
0.0
 40
1.907894736842098
100
AcDbArc
 50
54.73561031729138
 51
90.0
  0
SPLINE
  5
146D2
330
2
100
AcDbEntity
  8
0
  6
Continuous
 62
     7
370
    25
100
AcDbSpline
210
0.0
220
0.0
230
1.0
 70
     8
 71
     3
 72
    13
 73
     9
 74
     0
 42
0.00000001
 43
0.0000000001
 40
0.0
 40
0.0
 40
0.0
 40
0.0
 40
0.1657192555254166
 40
0.3311862163705241
 40
0.4968769609007375
 40
0.6632656407360483
 40
0.8308204763910779
 40
1.0
 40
1.0
 40
1.0
 40
1.0
 10
-1087.956736356523
 20
-686.7831250729424
 30
0.0
 10
-1087.996956223708
 20
-686.7886289546166
 30
0.0
 10
-1088.077334726451
 20
-686.7996283387002
 30
0.0
 10
-1088.189860299226
 20
-686.8138379383359
 30
0.0
 10
-1088.296235815139
 20
-686.8258173085374
 30
0.0
 10
-1088.395730390286
 20
-686.8348872763005
 30
0.0
 10
-1088.489164348827
 20
-686.8409910344718
 30
0.0
 10
-1088.545367130428
 20
-686.8417973682586
 30
0.0
 10
-1088.573604105826
 20
-686.8422024803631
 30
0.0
  0
SPLINE
  5
146D3
330
2
100
AcDbEntity
  8
0
  6
Continuous
 62
     7
370
    25
100
AcDbSpline
210
0.0
220
0.0
230
1.0
 70
     8
 71
     3
 72
     8
 73
     4
 74
     0
 42
0.00000001
 43
0.0000000001
 40
0.0
 40
0.0
 40
0.0
 40
0.0
 40
1.0
 40
1.0
 40
1.0
 40
1.0
 10
-1085.704196166896
 20
-686.2139386885379
 30
0.0
 10
-1086.455041222371
 20
-686.4996034798934
 30
0.0
 10
-1087.205887887308
 20
-686.6930527981452
 30
0.0
 10
-1087.956736356523
 20
-686.7831250729424
 30
0.0
  0
SPLINE
  5
146D4
330
2
100
AcDbEntity
  8
0
  6
Continuous
 62
     7
370
    25
100
AcDbSpline
210
0.0
220
0.0
230
1.0
 70
     8
 71
     3
 72
    27
 73
    23
 74
     0
 42
0.00000001
 43
0.0000000001
 40
0.0
 40
0.0
 40
0.0
 40
0.0
 40
0.059980547720561
 40
0.1175131495487824
 40
0.172752310562521
 40
0.2258725516731294
 40
0.2770700671716459
 40
0.3265639217785432
 40
0.3745964958212
 40
0.4214328617218207
 40
0.4673588091839617
 40
0.5126773551591775
 40
0.5577037812820157
 40
0.6027595020300336
 40
0.6481653097978865
 40
0.6942346843510491
 40
0.7412678391640459
 40
0.7895470119034533
 40
0.8393332537725228
 40
0.89086471727095
 40
0.9443562500067246
 40
1.0
 40
1.0
 40
1.0
 40
1.0
 10
-1085.665593317502
 20
-683.965510075422
 30
0.0
 10
-1085.623035960825
 20
-684.0157180567035
 30
0.0
 10
-1085.539658112338
 20
-684.1140849145737
 30
0.0
 10
-1085.427319528898
 20
-684.2618625342462
 30
0.0
 10
-1085.327915992383
 20
-684.4056799086327
 30
0.0
 10
-1085.242084416829
 20
-684.5456836152626
 30
0.0
 10
-1085.169676591994
 20
-684.6817406086707
 30
0.0
 10
-1085.110746562284
 20
-684.8137961816379
 30
0.0
 10
-1085.065300892599
 20
-684.9417820963004
 30
0.0
 10
-1085.033360610558
 20
-685.0656385895903
 30
0.0
 10
-1085.014943047661
 20
-685.1853081301463
 30
0.0
 10
-1085.010063241373
 20
-685.3007373991846
 30
0.0
 10
-1085.018730128119
 20
-685.4118784079133
 30
0.0
 10
-1085.040944990516
 20
-685.51869072946
 30
0.0
 10
-1085.076700685912
 20
-685.6211440444787
 30
0.0
 10
-1085.125984078095
 20
-685.719218804414
 30
0.0
 10
-1085.188774229592
 20
-685.8129106886946
 30
0.0
 10
-1085.265062008895
 20
-685.9022149623807
 30
0.0
 10
-1085.354787825571
 20
-685.9871834960373
 30
0.0
 10
-1085.45809695845
 20
-686.0676942393808
 30
0.0
 10
-1085.574342568637
 20
-686.1443494240441
 30
0.0
 10
-1085.660346284799
 20
-686.1904392931836
 30
0.0
 10
-1085.704196166896
 20
-686.2139386885379
 30
0.0
  0
SPLINE
  5
146D5
330
2
100
AcDbEntity
  8
0
  6
Continuous
 62
     7
370
    25
100
AcDbSpline
210
0.0
220
0.0
230
1.0
 70
     8
 71
     3
 72
     8
 73
     4
 74
     0
 42
0.00000001
 43
0.0000000001
 40
0.0
 40
0.0
 40
0.0
 40
0.0
 40
1.0
 40
1.0
 40
1.0
 40
1.0
 10
-1087.435524261034
 20
-682.508029989211
 30
0.0
 10
-1086.845546919091
 20
-683.014527364007
 30
0.0
 10
-1086.255569817241
 20
-683.5072676797714
 30
0.0
 10
-1085.665593317502
 20
-683.965510075422
 30
0.0
  0
SPLINE
  5
146D6
330
2
100
AcDbEntity
  8
0
  6
Continuous
 62
     7
370
    25
100
AcDbSpline
210
0.0
220
0.0
230
1.0
 70
     8
 71
     3
 72
    14
 73
    10
 74
     0
 42
0.00000001
 43
0.0000000001
 40
0.0
 40
0.0
 40
0.0
 40
0.0
 40
0.1810891007223174
 40
0.3489763515377331
 40
0.5038659525673505
 40
0.6460182674194405
 40
0.7757704962718944
 40
0.893566509881945
 40
1.0
 40
1.0
 40
1.0
 40
1.0
 10
-1088.094049510598
 20
-681.5509660395677
 30
0.0
 10
-1088.061458904165
 20
-681.6137572822023
 30
0.0
 10
-1087.998653628304
 20
-681.734762128288
 30
0.0
 10
-1087.90119049073
 20
-681.9056187880495
 30
0.0
 10
-1087.805687803788
 20
-682.0596283673024
 30
0.0
 10
-1087.711833991632
 20
-682.1966943001106
 30
0.0
 10
-1087.619419185513
 20
-682.3166130678973
 30
0.0
 10
-1087.529338363197
 20
-682.4205338705516
 30
0.0
 10
-1087.465721055061
 20
-682.4798668217253
 30
0.0
 10
-1087.435524261034
 20
-682.508029989211
 30
0.0
  0
SPLINE
  5
146D7
330
2
100
AcDbEntity
  8
0
  6
Continuous
 62
     7
370
    25
100
AcDbSpline
210
0.0
220
0.0
230
1.0
 70
     8
 71
     3
 72
    13
 73
     9
 74
     0
 42
0.00000001
 43
0.0000000001
 40
0.0
 40
0.0
 40
0.0
 40
0.0
 40
0.1657291266695565
 40
0.3312254421286248
 40
0.4969473210550101
 40
0.6633512688192505
 40
0.8308882098551729
 40
1.0
 40
1.0
 40
1.0
 40
1.0
 10
-1013.577986936834
 20
-682.3465934981039
 30
0.0
 10
-1013.538524966737
 20
-682.3078327105066
 30
0.0
 10
-1013.459656461532
 20
-682.2303655852932
 30
0.0
 10
-1013.349371851939
 20
-682.1060588494784
 30
0.0
 10
-1013.245198569798
 20
-681.9761230543489
 30
0.0
 10
-1013.147865329126
 20
-681.8399060179305
 30
0.0
 10
-1013.056559436643
 20
-681.6979896257354
 30
0.0
 10
-1013.001715381514
 20
-681.5992538047557
 30
0.0
 10
-1012.974165073187
 20
-681.5496549502585
 30
0.0
  0
SPLINE
  5
146D8
330
2
100
AcDbEntity
  8
0
  6
Continuous
 62
     7
370
    25
100
AcDbSpline
210
0.0
220
0.0
230
1.0
 70
     8
 71
     3
 72
     8
 73
     4
 74
     0
 42
0.00000001
 43
0.0000000001
 40
0.0
 40
0.0
 40
0.0
 40
0.0
 40
1.0
 40
1.0
 40
1.0
 40
1.0
 10
-1015.671642720535
 20
-684.0072248378556
 30
0.0
 10
-1014.973756844457
 20
-683.4889087430382
 30
0.0
 10
-1014.275871760841
 20
-682.9251880834187
 30
0.0
 10
-1013.577986936834
 20
-682.3465934981039
 30
0.0
  0
SPLINE
  5
146D9
330
2
100
AcDbEntity
  8
0
  6
Continuous
 62
     7
370
    25
100
AcDbSpline
210
0.0
220
0.0
230
1.0
 70
     8
 71
     3
 72
    27
 73
    23
 74
     0
 42
0.00000001
 43
0.0000000001
 40
0.0
 40
0.0
 40
0.0
 40
0.0
 40
0.0596172928368112
 40
0.1168141138525335
 40
0.1717476390012414
 40
0.2245952421511773
 40
0.2755560825603118
 40
0.3248521927051855
 40
0.3727287717385038
 40
0.4194533722115549
 40
0.4653137132953188
 40
0.510613984877163
 40
0.555669722060967
 40
0.6008015891647487
 40
0.6463286419056695
 40
0.6925617551770297
 40
0.7397978655516561
 40
0.7883154975377879
 40
0.8383717881913128
 40
0.8902009786658858
 40
0.9440141635547758
 40
1.0
 40
1.0
 40
1.0
 40
1.0
 10
-1015.671608101342
 20
-686.2356088730347
 30
0.0
 10
-1015.714832783815
 20
-686.2093317139352
 30
0.0
 10
-1015.799527219622
 20
-686.1578442526823
 30
0.0
 10
-1015.913877315896
 20
-686.0727685227576
 30
0.0
 10
-1016.015280572436
 20
-685.9841005344543
 30
0.0
 10
-1016.103103945534
 20
-685.8913741127738
 30
0.0
 10
-1016.177494402501
 20
-685.7948947886423
 30
0.0
 10
-1016.238397824477
 20
-685.6947754046517
 30
0.0
 10
-1016.285807376371
 20
-685.591181066484
 30
0.0
 10
-1016.319701967822
 20
-685.4842685609452
 30
0.0
 10
-1016.34006441894
 20
-685.3742031436285
 30
0.0
 10
-1016.346880090663
 20
-685.2611548688481
 30
0.0
 10
-1016.34014062604
 20
-685.145298874667
 30
0.0
 10
-1016.319845360492
 20
-685.0268132074312
 30
0.0
 10
-1016.28600192385
 20
-684.9058759371545
 30
0.0
 10
-1016.238623675568
 20
-684.7826628235556
 30
0.0
 10
-1016.177731503273
 20
-684.6573426715284
 30
0.0
 10
-1016.103334151568
 20
-684.5300851173923
 30
0.0
 10
-1016.015491120995
 20
-684.4010253236241
 30
0.0
 10
-1015.914055220606
 20
-684.2704022241345
 30
0.0
 10
-1015.799678901
 20
-684.1380178510897
 30
0.0
 10
-1015.714880762619
 20
-684.0513938672094
 30
0.0
 10
-1015.671642720535
 20
-684.0072248378556
 30
0.0
  0
SPLINE
  5
146DA
330
2
100
AcDbEntity
  8
0
  6
Continuous
 62
     7
370
    25
100
AcDbSpline
210
0.0
220
0.0
230
1.0
 70
     8
 71
     3
 72
     8
 73
     4
 74
     0
 42
0.00000001
 43
0.0000000001
 40
0.0
 40
0.0
 40
0.0
 40
0.0
 40
1.0
 40
1.0
 40
1.0
 40
1.0
 10
-1013.577966763704
 20
-686.7805327226132
 30
0.0
 10
-1014.275845577607
 20
-686.692396803524
 30
0.0
 10
-1014.973726081771
 20
-686.5074158646146
 30
0.0
 10
-1015.671608101342
 20
-686.2356088730347
 30
0.0
  0
SPLINE
  5
146DB
330
2
100
AcDbEntity
  8
0
  6
Continuous
 62
     7
370
    25
100
AcDbSpline
210
0.0
220
0.0
230
1.0
 70
     8
 71
     3
 72
    13
 73
     9
 74
     0
 42
0.00000001
 43
0.0000000001
 40
0.0
 40
0.0
 40
0.0
 40
0.0
 40
0.1691119018772422
 40
0.3366488994602583
 40
0.5030528560869828
 40
0.6687747042293459
 40
0.8342709577219576
 40
1.0
 40
1.0
 40
1.0
 40
1.0
 10
-1012.974125009789
 20
-686.840883020537
 30
0.0
 10
-1013.001676288118
 20
-686.8404745904942
 30
0.0
 10
-1013.056522265389
 20
-686.8396615340233
 30
0.0
 10
-1013.147831288166
 20
-686.8334768276496
 30
0.0
 10
-1013.245167790028
 20
-686.8242566225575
 30
0.0
 10
-1013.349344477568
 20
-686.8120381282218
 30
0.0
 10
-1013.459632613159
 20
-686.797501161711
 30
0.0
 10
-1013.53850356973
 20
-686.7861915184995
 30
0.0
 10
-1013.577966763704
 20
-686.7805327226132
 30
0.0
  0
LINE
  5
146DD
330
2
100
AcDbEntity
  8
0
  6
Continuous
 62
     7
370
    25
100
AcDbLine
 10
-1085.704238424471
 20
-683.7927581563207
 30
0.0
 11
-1085.704196166896
 21
-686.2139386885379
 31
0.0
  0
LINE
  5
146DE
330
2
100
AcDbEntity
  8
0
  6
Continuous
 62
     7
370
    25
100
AcDbLine
 10
-1015.671646993885
 20
-684.0072303535422
 30
0.0
 11
-1015.671608101342
 21
-686.2356088730347
 31
0.0
  0
SPLINE
  5
146DF
330
2
100
AcDbEntity
  8
0
  6
Continuous
 62
     7
370
    25
100
AcDbSpline
210
0.0
220
0.0
230
1.0
 70
     8
 71
     3
 72
     8
 73
     4
 74
     0
 42
0.00000001
 43
0.0000000001
 40
0.0
 40
0.0
 40
0.0
 40
0.0
 40
1.0
 40
1.0
 40
1.0
 40
1.0
 10
-1012.974172960409
 20
-684.0935145999118
 30
0.0
 10
-1013.136111398573
 20
-684.0935174262755
 30
0.0
 10
-1013.33735563283
 20
-684.0812847413618
 30
0.0
 10
-1013.578014167328
 20
-684.064505505771
 30
0.0
  0
SPLINE
  5
146E0
330
2
100
AcDbEntity
  8
0
  6
Continuous
 62
     7
370
    25
100
AcDbSpline
210
0.0
220
0.0
230
1.0
 70
     8
 71
     3
 72
     8
 73
     4
 74
     0
 42
0.00000001
 43
0.0000000001
 40
0.0
 40
0.0
 40
0.0
 40
0.0
 40
1.0
 40
1.0
 40
1.0
 40
1.0
 10
-1013.578014167328
 20
-684.064505505771
 30
0.0
 10
-1014.275927488401
 20
-684.0221366487529
 30
0.0
 10
-1014.973735704028
 20
-683.9332185834329
 30
0.0
 10
-1015.671650566365
 20
-683.8025418588726
 30
0.0
  0
SPLINE
  5
146E1
330
2
100
AcDbEntity
  8
0
  6
Continuous
 62
     7
370
    25
100
AcDbSpline
210
0.0
220
0.0
230
1.0
 70
     8
 71
     3
 72
     8
 73
     4
 74
     0
 42
0.00000001
 43
0.0000000001
 40
0.0
 40
0.0
 40
0.0
 40
0.0
 40
1.0
 40
1.0
 40
1.0
 40
1.0
 10
-1085.704238424471
 20
-683.7927581563207
 30
0.0
 10
-1086.455126314926
 20
-683.9301111646299
 30
0.0
 10
-1087.205894240102
 20
-684.0231127655614
 30
0.0
 10
-1087.956783771868
 20
-684.0664258697639
 30
0.0
  0
SPLINE
  5
146E2
330
2
100
AcDbEntity
  8
0
  6
Continuous
 62
     7
370
    25
100
AcDbSpline
210
0.0
220
0.0
230
1.0
 70
     8
 71
     3
 72
     8
 73
     4
 74
     0
 42
0.00000001
 43
0.0000000001
 40
0.0
 40
0.0
 40
0.0
 40
0.0
 40
1.0
 40
1.0
 40
1.0
 40
1.0
 10
-1087.956783771868
 20
-684.0664258697639
 30
0.0
 10
-1088.202013961017
 20
-684.0827313727801
 30
0.0
 10
-1088.407599448714
 20
-684.0948311615594
 30
0.0
 10
-1088.573652056446
 20
-684.0948340597257
 30
0.0
  0
LINE
  5
146E3
330
2
100
AcDbEntity
  8
0
  6
Continuous
 62
     7
370
    25
100
AcDbLine
 10
-1087.956783771868
 20
-684.0664258697639
 30
0.0
 11
-1087.956736356523
 21
-686.7831250729424
 31
0.0
  0
LINE
  5
146E4
330
2
100
AcDbEntity
  8
0
  6
Continuous
 62
     7
370
    25
100
AcDbLine
 10
-1013.578014167328
 20
-684.064505505771
 30
0.0
 11
-1013.577966763704
 21
-686.7805327226132
 31
0.0
  0
LINE
  5
146E5
330
2
100
AcDbEntity
  8
0
  6
Continuous
 62
     7
370
    25
100
AcDbLine
 10
-1012.974172960409
 20
-684.0935145999118
 30
0.0
 11
-1012.974125009789
 21
-686.840883020537
 31
0.0
  0
LINE
  5
146E6
330
2
100
AcDbEntity
  8
0
  6
Continuous
 62
     7
370
    25
100
AcDbLine
 10
-1088.573652056446
 20
-684.0948340597257
 30
0.0
 11
-1088.573604105826
 21
-686.8422024803631
 31
0.0
  0
LINE
  5
146E7
330
2
100
AcDbEntity
  8
0
  6
Continuous
 62
     7
370
    25
100
AcDbLine
 10
-1088.939811020702
 20
-686.842208871884
 30
0.0
 11
-1088.939858971322
 21
-684.0948404512463
 31
0.0
  0
LINE
  5
146E8
330
2
100
AcDbEntity
  8
0
  6
Continuous
 62
     7
370
    25
100
AcDbLine
 10
-1012.624021547018
 20
-686.8408769100819
 30
0.0
 11
-1088.939811020702
 21
-686.842208871884
 31
0.0
  0
LINE
  5
146E9
330
2
100
AcDbEntity
  8
0
  6
Continuous
 62
     7
370
    25
100
AcDbLine
 10
-1088.939858971322
 20
-684.0948404512463
 30
0.0
 11
-1088.573652056446
 21
-684.0948340597257
 31
0.0
  0
LINE
  5
146EA
330
2
100
AcDbEntity
  8
0
  6
Continuous
 62
     7
370
    25
100
AcDbLine
 10
-1012.624069497638
 20
-684.0935084894444
 30
0.0
 11
-1012.624021547018
 21
-686.8408769100819
 31
0.0
  0
LINE
  5
146EC
330
2
100
AcDbEntity
  8
0
  6
Continuous
 62
     7
370
    25
100
AcDbLine
 10
-1012.974172960409
 20
-684.0935145999118
 30
0.0
 11
-1012.624069497638
 21
-684.0935084894444
 31
0.0
  0
SPLINE
  5
146ED
330
2
100
AcDbEntity
  8
0
  6
Continuous
 62
     7
370
    25
100
AcDbSpline
210
0.0
220
0.0
230
1.0
 70
     8
 71
     3
 72
     8
 73
     4
 74
     0
 42
0.00000001
 43
0.0000000001
 40
0.0
 40
0.0
 40
0.0
 40
0.0
 40
1.0
 40
1.0
 40
1.0
 40
1.0
 10
-1087.956783561303
 20
-684.0664258745024
 30
0.0
 10
-1087.205893632451
 20
-684.0231127638586
 30
0.0
 10
-1086.455125310306
 20
-683.9301111332014
 30
0.0
 10
-1085.704237022758
 20
-683.7927580760532
 30
0.0
  0
LINE
  5
146EE
330
2
100
AcDbEntity
  8
0
  6
Continuous
 62
     7
370
    25
100
AcDbLine
 10
-1085.853373989801
 20
-683.8108771180972
 30
0.0
 11
-1087.435520276277
 21
-682.5080311934938
 31
0.0
  0
ARC
  5
146F0
330
2
100
AcDbEntity
  8
0
  6
Continuous
 62
     7
370
    25
100
AcDbCircle
 10
-1002.245122129225
 20
-228.748266353142
 30
0.0
 40
2.543859649121758
100
AcDbArc
 50
89.99999999999349
 51
180.0
  0
LWPOLYLINE
  5
146F2
330
2
100
AcDbEntity
  8
0
  6
Continuous
 62
     7
370
    25
100
AcDbPolyline
 90
       10
 70
   128
 43
0.0
 10
-949.1420519537804
 20
-226.2031857394227
 10
-949.335286674237
 20
-226.2031471906354
 10
-949.9091194964197
 20
-226.2031098131357
 10
-950.8461148003849
 20
-226.203074742612
 10
-952.117802457961
 20
-226.2030430446651
 10
-953.6855428832017
 20
-226.2030156824305
 10
-955.5017010765874
 20
-226.2029934872958
 10
-957.5110939904298
 20
-226.2029771336433
 10
-959.6526672378411
 20
-226.2029671183659
 10
-961.8613501993944
 20
-226.2029637457889
  0
LINE
  5
146F3
330
2
100
AcDbEntity
  8
0
  6
Continuous
 62
     7
370
    25
100
AcDbLine
 10
-961.8613501993944
 20
-226.2029637457889
 30
0.0
 11
-961.8613501993944
 21
-226.199393644182
 31
0.0
  0
LWPOLYLINE
  5
146F4
330
2
100
AcDbEntity
  8
0
  6
Continuous
 62
     7
370
    25
100
AcDbPolyline
 90
        9
 70
   128
 43
0.0
 10
-957.1552098485211
 20
-226.2044067044016
 10
-955.591920294467
 20
-226.2044040171148
 10
-954.0887070812789
 20
-226.2043960584975
 10
-952.7033378497227
 20
-226.2043831344174
 10
-951.4890515624326
 20
-226.204365741533
 10
-950.4925125604593
 20
-226.2043445482419
 10
-949.7520172787931
 20
-226.2043203689902
 10
-949.2960225358098
 20
-226.2042941329674
 10
-949.1420519537804
 20
-226.2042668484089
  0
LINE
  5
146F5
330
2
100
AcDbEntity
  8
0
  6
Continuous
 62
     7
370
    25
100
AcDbLine
 10
-957.1552098485211
 20
-226.2044067044016
 30
0.0
 11
-1002.245122129225
 21
-226.2044067044016
 31
0.0
  0
LINE
  5
146F7
330
2
100
AcDbEntity
  8
0
  6
Continuous
 62
     7
370
    25
100
AcDbLine
 10
-949.1420519537804
 20
-223.4507221209245
 30
0.0
 11
-949.1420519537804
 21
-226.2042668484089
 31
0.0
  0
LWPOLYLINE
  5
146F8
330
2
100
AcDbEntity
  8
0
  6
Continuous
 62
     7
370
    25
100
AcDbPolyline
 90
       17
 70
   128
 43
0.0
 10
-957.1552098485211
 20
-226.2043068072745
 10
-958.0313534962956
 20
-226.204303765577
 10
-958.7741122159748
 20
-226.2042951035925
 10
-959.270407725587
 20
-226.2042821400019
 10
-959.4446835327229
 20
-226.2042668484089
 10
-959.270407725587
 20
-226.204251556816
 10
-958.7741122159748
 20
-226.2042385932376
 10
-958.0313534962956
 20
-226.2042299312408
 10
-957.1552098485211
 20
-226.204226889568
 10
-956.2790662007341
 20
-226.2042299312408
 10
-955.5363074810671
 20
-226.2042385932376
 10
-955.040011971455
 20
-226.204251556816
 10
-954.8657361643067
 20
-226.2042668484089
 10
-955.040011971455
 20
-226.2042821400019
 10
-955.5363074810671
 20
-226.2042951035925
 10
-956.2790662007341
 20
-226.204303765577
 10
-957.1552098485211
 20
-226.2043068072745
  0
LWPOLYLINE
  5
146F9
330
2
100
AcDbEntity
  8
0
  6
Continuous
 62
     7
370
    25
100
AcDbPolyline
 90
       17
 70
   128
 43
0.0
 10
-994.2319642344846
 20
-226.2031435606351
 10
-995.108107882284
 20
-226.2031405189376
 10
-995.8508666019632
 20
-226.2031318569531
 10
-996.3471621115877
 20
-226.2031188933623
 10
-996.521437918736
 20
-226.2031036017694
 10
-996.3471621115877
 20
-226.2030883101888
 10
-995.8508666019632
 20
-226.2030753466105
 10
-995.108107882284
 20
-226.2030666846012
 10
-994.2319642344846
 20
-226.2030636429285
 10
-993.3558205866853
 20
-226.2030666846012
 10
-992.6130618670061
 20
-226.2030753466105
 10
-992.1167663573939
 20
-226.2030883101888
 10
-991.9424905502458
 20
-226.2031036017694
 10
-992.1167663573939
 20
-226.2031188933623
 10
-992.6130618670061
 20
-226.2031318569531
 10
-993.3558205866853
 20
-226.2031405189376
 10
-994.2319642344846
 20
-226.2031435606351
  0
VIEWPORT
  5
235
102
{ACAD_XDICTIONARY
360
236
102
}
330
1A0
100
AcDbEntity
 67
     1
  8
0
348
1ED
100
AcDbViewport
 10
103.2708969373834
 20
146.5082660534303
 30
0.0
 40
773.1777074416696
 41
308.223525895194
 68
     1
 69
     1
 12
103.2708969373834
 22
146.5082660534303
 13
0.0
 23
0.0
 14
0.5
 24
0.5
 15
0.5
 25
0.5
 16
0.0
 26
0.0
 36
1.0
 17
0.0
 27
0.0
 37
0.0
 42
50.0
 43
0.0
 44
0.0
 45
308.223525895194
 50
0.0
 51
0.0
 72
   100
 90
   557088
  1

281
     0
 71
     1
 74
     0
110
0.0
120
0.0
130
0.0
111
1.0
121
0.0
131
0.0
112
0.0
122
1.0
132
0.0
 79
     0
146
0.0
170
     0
 61
     5
348
1ED
292
     1
282
     1
141
0.0
142
0.0
 63
   250
421
  3355443
  0
VIEWPORT
  5
1ABA
102
{ACAD_XDICTIONARY
360
1ABB
102
}
330
1A0
100
AcDbEntity
 67
     1
  8
0
348
1ED
100
AcDbViewport
 10
103.6243008793257
 20
147.0955458326306
 30
0.0
 40
221.8636405257982
 41
304.0531924509035
 68
     2
 69
     2
 12
-1256.770451630049
 22
-312.6504035576403
 13
0.0
 23
0.0
 14
0.5
 24
0.5
 15
0.5
 25
0.5
 16
0.0
 26
0.0
 36
1.0
 17
0.0
 27
0.0
 37
0.0
 42
50.0
 43
0.0
 44
0.0
 45
1216.212769803614
 50
0.0
 51
0.0
 72
   100
 90
   557088
  1

281
     0
 71
     1
 74
     0
110
0.0
120
0.0
130
0.0
111
1.0
121
0.0
131
0.0
112
0.0
122
1.0
132
0.0
 79
     0
146
0.0
170
     0
 61
     5
348
1ED
292
     1
282
     1
141
0.0
142
0.0
 63
   250
421
  3355443
  0
ENDSEC
  0
SECTION
  2
OBJECTS
  0
DICTIONARY
  5
1B7
330
0
100
AcDbDictionary
281
     1
  3
ACAD_CIP_PREVIOUS_PRODUCT_INFO
350
221
  3
ACAD_COLOR
350
200
  3
ACAD_DETAILVIEWSTYLE
350
21A
  3
ACAD_GROUP
350
1B4
  3
ACAD_LAST_SAVED_VERSION_INFO
350
12522
  3
ACAD_LAYOUT
350
201
  3
ACAD_MATERIAL
350
1CE
  3
ACAD_MLEADERSTYLE
350
216
  3
ACAD_MLINESTYLE
350
1B5
  3
ACAD_PLOTSETTINGS
350
21C
  3
ACAD_PLOTSTYLENAME
350
1CC
  3
ACAD_SCALELIST
350
204
  3
ACAD_SECTIONVIEWSTYLE
350
218
  3
ACAD_TABLESTYLE
350
202
  3
ACAD_VISUALSTYLE
350
1E7
  3
ACDB_RECOMPOSE_DATA
350
149A5
  3
AcDbVariableDictionary
350
7D6
  3
AcDsDecomposeData
350
149AB
  0
DICTIONARY
  5
1A9
330
1A8
100
AcDbDictionary
280
     1
281
     1
  0
DICTIONARY
  5
1AB
330
1AA
100
AcDbDictionary
280
     1
281
     1
  0
DICTIONARY
  5
6
330
5
100
AcDbDictionary
280
     1
281
     1
  0
DICTIONARY
  5
22C
330
1A5
100
AcDbDictionary
280
     1
281
     1
  3
ACAD_LAYERSTATES
360
22D
  0
DICTIONARY
  5
686
330
61
100
AcDbDictionary
280
     1
281
     1
  3
ADSK_XREC_LAYER_RECONCILED
360
687
  0
DICTIONARY
  5
F69
330
F68
100
AcDbDictionary
280
     1
281
     1
  0
DICTIONARY
  5
B
330
A
100
AcDbDictionary
280
     1
281
     1
  0
DICTIONARY
  5
1BC
330
1BB
100
AcDbDictionary
280
     1
281
     1
  0
DICTIONARY
  5
19C
330
2
100
AcDbDictionary
280
     1
281
     1
  3
ACAD_LAYOUTSELFREF
360
19D
  3
ACAD_SORTENTS
360
BAB4
  0
DICTIONARY
  5
1A1
330
1A0
100
AcDbDictionary
280
     1
281
     1
  3
ACAD_LAYOUTSELFREF
360
1A2
  0
DICTIONARY
  5
236
330
235
100
AcDbDictionary
280
     1
281
     1
  3
ASDK_XREC_ANNOTATION_SCALE_INFO
360
237
  0
DICTIONARY
  5
1ABB
330
1ABA
100
AcDbDictionary
280
     1
281
     1
  3
ASDK_XREC_ANNOTATION_SCALE_INFO
360
1ABC
  0
XRECORD
  5
221
102
{ACAD_REACTORS
330
1B7
102
}
330
1B7
100
AcDbXrecord
280
     1
300
ACD
300
2024
300

  0
DICTIONARY
  5
200
102
{ACAD_REACTORS
330
1B7
102
}
330
1B7
100
AcDbDictionary
281
     1
  0
DICTIONARY
  5
21A
102
{ACAD_REACTORS
330
1B7
102
}
330
1B7
100
AcDbDictionary
281
     1
  3
Imperial24
350
21B
  0
DICTIONARY
  5
1B4
102
{ACAD_REACTORS
330
1B7
102
}
330
1B7
100
AcDbDictionary
281
     1
  0
XRECORD
  5
12522
102
{ACAD_REACTORS
330
1B7
102
}
330
1B7
100
AcDbXrecord
280
     1
300
{FF3DEA8E-E0D8-2245-A283-E3F373C75368}
301
{C98F894A-C07A-8B4E-8BD9-9D9BF0A78C42}
302
{FF3DEA8E-E0D8-2245-A283-E3F373C75368}
303
D:\0. TRAINING\HARDWARE\1. Job training\7. BPH Drawings & Renders\3. Ouput\BPH7118\BPH7118 _ 3view\BPH7118 _ 3view.dxf
  0
DICTIONARY
  5
201
102
{ACAD_REACTORS
330
1B7
102
}
330
1B7
100
AcDbDictionary
281
     1
  3
Layout
350
21E
  3
Model
350
21D
  0
DICTIONARY
  5
1CE
102
{ACAD_REACTORS
330
1B7
102
}
330
1B7
100
AcDbDictionary
281
     1
  3
ByBlock
350
1D7
  3
ByLayer
350
1CF
  3
Global
350
1DF
  0
DICTIONARY
  5
216
102
{ACAD_REACTORS
330
1B7
102
}
330
1B7
100
AcDbDictionary
281
     1
  3
Standard
350
217
  0
DICTIONARY
  5
1B5
102
{ACAD_XDICTIONARY
360
1B6
102
}
102
{ACAD_REACTORS
330
1B7
102
}
330
1B7
100
AcDbDictionary
281
     1
  3
STANDARD
350
1BA
  0
DICTIONARY
  5
21C
102
{ACAD_REACTORS
330
1B7
102
}
330
1B7
100
AcDbDictionary
281
     1
  3
A4
350
19B0
  0
ACDBDICTIONARYWDFLT
  5
1CC
102
{ACAD_REACTORS
330
1B7
102
}
330
1B7
100
AcDbDictionary
281
     1
  3
Normal
350
1CD
100
AcDbDictionaryWithDefault
340
1CD
  0
DICTIONARY
  5
204
102
{ACAD_REACTORS
330
1B7
102
}
330
1B7
100
AcDbDictionary
281
     1
  3
A0
350
205
  3
A1
350
12BFD
  3
A2
350
12BFE
  3
A3
350
11788
  3
A4
350
12BFF
  3
A5
350
12C00
  3
A6
350
12C01
  3
A7
350
12C02
  3
A8
350
12C03
  3
A9
350
12C04
  3
B0
350
12C05
  3
B1
350
12C06
  3
B2
350
12C07
  3
B3
350
12C08
  3
B4
350
12C09
  3
B5
350
12C0A
  3
B6
350
12C0B
  3
B7
350
12C0C
  3
B8
350
12C0D
  3
B9
350
12C0E
  3
C0
350
12C0F
  3
C1
350
12C10
  3
C2
350
12C11
  3
C3
350
12C12
  0
DICTIONARY
  5
218
102
{ACAD_REACTORS
330
1B7
102
}
330
1B7
100
AcDbDictionary
281
     1
  3
Imperial24
350
219
  0
DICTIONARY
  5
202
102
{ACAD_REACTORS
330
1B7
102
}
330
1B7
100
AcDbDictionary
281
     1
  3
Standard
350
203
  0
DICTIONARY
  5
1E7
102
{ACAD_REACTORS
330
1B7
102
}
330
1B7
100
AcDbDictionary
281
     1
  3
2dWireframe
350
1ED
  3
Basic
350
1EC
  3
Brighten
350
1F3
  3
ColorChange
350
1F7
  3
Conceptual
350
1F0
  3
Dim
350
1F2
  3
EdgeColorOff
350
1FF
  3
Facepattern
350
1F6
  3
Flat
350
1E8
  3
FlatWithEdges
350
1E9
  3
Gouraud
350
1EA
  3
GouraudWithEdges
350
1EB
  3
Hidden
350
1EF
  3
JitterOff
350
1FD
  3
Linepattern
350
1F5
  3
OverhangOff
350
1FE
  3
Realistic
350
1F1
  3
Shaded
350
1FC
  3
Shaded with edges
350
1FB
  3
Shades of Gray
350
1F8
  3
Sketchy
350
1F9
  3
Thicken
350
1F4
  3
Wireframe
350
1EE
  3
X-Ray
350
1FA
  0
XRECORD
  5
149A5
102
{ACAD_REACTORS
330
1B7
102
}
330
1B7
100
AcDbXrecord
280
     1
 90
        1
330
203
  0
DICTIONARY
  5
7D6
102
{ACAD_REACTORS
330
1B7
102
}
330
1B7
100
AcDbDictionary
281
     1
  3
CANNOSCALE
350
7DC
  3
CMLEADERSTYLE
350
7D8
  3
CTABLESTYLE
350
7D7
  3
CVIEWDETAILSTYLE
350
7D9
  3
CVIEWSECTIONSTYLE
350
7DA
  3
LAYEREVAL
350
7DE
  3
LAYERNOTIFY
350
7DF
  3
LIGHTINGUNITS
350
7DD
  3
MSLTSCALE
350
7DB
  0
DICTIONARY
  5
149AB
102
{ACAD_REACTORS
330
1B7
102
}
330
1B7
100
AcDbDictionary
281
     1
  3
AcDsRecords
350
149AD
  3
AcDsSchemas
350
149AC
1001
ACAD
1070
     2
  0
DICTIONARY
  5
22D
102
{ACAD_REACTORS
330
22C
102
}
330
22C
100
AcDbDictionary
281
     1
  0
XRECORD
  5
687
102
{ACAD_REACTORS
330
686
102
}
330
686
100
AcDbXrecord
280
     1
290
     1
  0
XRECORD
  5
19D
102
{ACAD_REACTORS
330
19C
102
}
330
19C
100
AcDbXrecord
280
     1
340
2
  0
SORTENTSTABLE
  5
BAB4
102
{ACAD_REACTORS
330
19C
102
}
330
19C
100
AcDbSortentsTable
330
2
  0
XRECORD
  5
1A2
102
{ACAD_REACTORS
330
1A1
102
}
330
1A1
100
AcDbXrecord
280
     1
340
1A2
  0
XRECORD
  5
237
102
{ACAD_REACTORS
330
236
102
}
330
236
100
AcDbXrecord
280
     1
 90
        1
340
205
  0
XRECORD
  5
1ABC
102
{ACAD_REACTORS
330
1ABB
102
}
330
1ABB
100
AcDbXrecord
280
     1
 90
        1
340
12BFF
  0
ACDBDETAILVIEWSTYLE
  5
21B
102
{ACAD_XDICTIONARY
360
149B0
102
}
102
{ACAD_REACTORS
330
21A
102
}
330
21A
100
AcDbModelDocViewStyle
 70
     0
  3
Imperial24
290
     0
100
AcDbDetailViewStyle
 70
     0
 71
     0
 90
        3
 71
     1
340
A
 62
   256
 40
0.24
340
0
 62
   256
 40
0.24
300

 40
0.36
280
     3
 71
     2
340
5
 90
       25
 62
   256
 71
     3
340
A
 62
   256
 40
0.24
 90
        1
 40
0.75
 90
        1
300
%<\AcVar ViewType \f "%tc1">% %<\AcVar ViewDetailId>%\PSCALE %<\AcVar ViewScale \f "%sn">%
 71
     4
340
5
 90
       25
 62
   256
340
5
 90
       25
 62
   256
280
     0
  0
LAYOUT
  5
21E
102
{ACAD_XDICTIONARY
360
1020E
102
}
102
{ACAD_REACTORS
330
201
102
}
330
201
100
AcDbPlotSettings
  1

  2
DWG To PDF.pc3
  4
ISO_full_bleed_A4_(210.00_x_297.00_MM)
  6

 40
0.0
 41
0.0
 42
0.0
 43
0.0
 44
210.0
 45
297.0
 46
0.0
 47
0.0
 48
0.0
 49
0.0
140
0.0
141
0.0
142
1.0
143
1.0
 70
   672
 72
     1
 73
     0
 74
     5
  7
monochrome.ctb
 75
    16
147
25.4
 76
     0
 77
     2
 78
   300
148
0.0
149
0.0
100
AcDbLayout
  1
Layout
 70
     1
 71
     1
 10
0.0
 20
0.0
 11
210.0
 21
297.0
 12
0.0
 22
0.0
 32
0.0
 14
-7.314289607997523
 24
-4.940328651957656
 34
-0.0015258207003583
 15
214.5628923997821
 25
299.131421733077
 35
0.0000000349246037
146
0.0
 13
0.0
 23
0.0
 33
0.0
 16
1.0
 26
0.0
 36
0.0
 17
0.0
 27
1.0
 37
0.0
 76
     0
330
1A0
331
235
1001
PLOTTRANSPARENCY
1071
        1
1001
ACAD_PSEXT
1000
DWG To PDF.pc3
1000
DWG To PDF
1000
File
1000

1070
     0
  0
LAYOUT
  5
21D
102
{ACAD_XDICTIONARY
360
1020C
102
}
102
{ACAD_REACTORS
330
201
102
}
330
201
100
AcDbPlotSettings
  1

  2
DWG To PDF.pc3
  4
ISO_full_bleed_A4_(210.00_x_297.00_MM)
  6

 40
0.7937499880790711
 41
0.7937499880790711
 42
0.7937469482421875
 43
0.79376220703125
 44
210.0
 45
297.0
 46
0.0
 47
0.0
 48
0.0
 49
0.0
140
0.0
141
0.0
142
1.0
143
6.980987797419007
 70
 11952
 72
     1
 73
     0
 74
     0
  7

 75
     0
147
0.1432462036919356
 76
     0
 77
     2
 78
   300
148
528.7620538809947
149
148.3289992822255
100
AcDbLayout
  1
Model
 70
     1
 71
     0
 10
0.0
 20
0.0
 11
12.0
 21
9.0
 12
0.0
 22
0.0
 32
0.0
 14
0.0
 24
0.0
 34
0.0
 15
0.0
 25
0.0
 35
0.0
146
0.0
 13
0.0
 23
0.0
 33
0.0
 16
1.0
 26
0.0
 36
0.0
 17
0.0
 27
1.0
 37
0.0
 76
     0
330
2
331
1CA
1001
ACAD_PSEXT
1000
DWG To PDF.pc3
1000
DWG To PDF
1000
File
1000

1070
     0
  0
MATERIAL
  5
1D7
102
{ACAD_XDICTIONARY
360
1D8
102
}
102
{ACAD_REACTORS
330
1CE
102
}
330
1CE
100
AcDbMaterial
  1
ByBlock
 72
     0
 43
0.0208333333333333
 43
0.0
 43
0.0
 43
0.0
 43
0.0
 43
0.0208333333333333
 43
0.0
 43
0.0
 43
0.0
 43
0.0
 43
1.0
 43
0.0
 43
0.0
 43
0.0
 43
0.0
 43
1.0
 77
     0
 47
0.0208333333333333
 47
0.0
 47
0.0
 47
0.0
 47
0.0
 47
0.0208333333333333
 47
0.0
 47
0.0
 47
0.0
 47
0.0
 47
1.0
 47
0.0
 47
0.0
 47
0.0
 47
0.0
 47
1.0
171
     0
 49
0.0208333333333333
 49
0.0
 49
0.0
 49
0.0
 49
0.0
 49
0.0208333333333333
 49
0.0
 49
0.0
 49
0.0
 49
0.0
 49
1.0
 49
0.0
 49
0.0
 49
0.0
 49
0.0
 49
1.0
175
     0
142
0.0208333333333333
142
0.0
142
0.0
142
0.0
142
0.0
142
0.0208333333333333
142
0.0
142
0.0
142
0.0
142
0.0
142
1.0
142
0.0
142
0.0
142
0.0
142
0.0
142
1.0
179
     0
144
0.0208333333333333
144
0.0
144
0.0
144
0.0
144
0.0
144
0.0208333333333333
144
0.0
144
0.0
144
0.0
144
0.0
144
1.0
144
0.0
144
0.0
144
0.0
144
0.0
144
1.0
147
0.0208333333333333
147
0.0
147
0.0
147
0.0
147
0.0
147
0.0208333333333333
147
0.0
147
0.0
147
0.0
147
0.0
147
1.0
147
0.0
147
0.0
147
0.0
147
0.0
147
1.0
  0
MATERIAL
  5
1CF
102
{ACAD_XDICTIONARY
360
1D0
102
}
102
{ACAD_REACTORS
330
1CE
102
}
330
1CE
100
AcDbMaterial
  1
ByLayer
 72
     0
 43
0.0208333333333333
 43
0.0
 43
0.0
 43
0.0
 43
0.0
 43
0.0208333333333333
 43
0.0
 43
0.0
 43
0.0
 43
0.0
 43
1.0
 43
0.0
 43
0.0
 43
0.0
 43
0.0
 43
1.0
 77
     0
 47
0.0208333333333333
 47
0.0
 47
0.0
 47
0.0
 47
0.0
 47
0.0208333333333333
 47
0.0
 47
0.0
 47
0.0
 47
0.0
 47
1.0
 47
0.0
 47
0.0
 47
0.0
 47
0.0
 47
1.0
171
     0
 49
0.0208333333333333
 49
0.0
 49
0.0
 49
0.0
 49
0.0
 49
0.0208333333333333
 49
0.0
 49
0.0
 49
0.0
 49
0.0
 49
1.0
 49
0.0
 49
0.0
 49
0.0
 49
0.0
 49
1.0
175
     0
142
0.0208333333333333
142
0.0
142
0.0
142
0.0
142
0.0
142
0.0208333333333333
142
0.0
142
0.0
142
0.0
142
0.0
142
1.0
142
0.0
142
0.0
142
0.0
142
0.0
142
1.0
179
     0
144
0.0208333333333333
144
0.0
144
0.0
144
0.0
144
0.0
144
0.0208333333333333
144
0.0
144
0.0
144
0.0
144
0.0
144
1.0
144
0.0
144
0.0
144
0.0
144
0.0
144
1.0
147
0.0208333333333333
147
0.0
147
0.0
147
0.0
147
0.0
147
0.0208333333333333
147
0.0
147
0.0
147
0.0
147
0.0
147
1.0
147
0.0
147
0.0
147
0.0
147
0.0
147
1.0
  0
MATERIAL
  5
1DF
102
{ACAD_XDICTIONARY
360
1E0
102
}
102
{ACAD_REACTORS
330
1CE
102
}
330
1CE
100
AcDbMaterial
  1
Global
 72
     0
 43
0.0208333333333333
 43
0.0
 43
0.0
 43
0.0
 43
0.0
 43
0.0208333333333333
 43
0.0
 43
0.0
 43
0.0
 43
0.0
 43
1.0
 43
0.0
 43
0.0
 43
0.0
 43
0.0
 43
1.0
 77
     0
 47
0.0208333333333333
 47
0.0
 47
0.0
 47
0.0
 47
0.0
 47
0.0208333333333333
 47
0.0
 47
0.0
 47
0.0
 47
0.0
 47
1.0
 47
0.0
 47
0.0
 47
0.0
 47
0.0
 47
1.0
171
     0
 49
0.0208333333333333
 49
0.0
 49
0.0
 49
0.0
 49
0.0
 49
0.0208333333333333
 49
0.0
 49
0.0
 49
0.0
 49
0.0
 49
1.0
 49
0.0
 49
0.0
 49
0.0
 49
0.0
 49
1.0
175
     0
142
0.0208333333333333
142
0.0
142
0.0
142
0.0
142
0.0
142
0.0208333333333333
142
0.0
142
0.0
142
0.0
142
0.0
142
1.0
142
0.0
142
0.0
142
0.0
142
0.0
142
1.0
179
     0
144
0.0208333333333333
144
0.0
144
0.0
144
0.0
144
0.0
144
0.0208333333333333
144
0.0
144
0.0
144
0.0
144
0.0
144
1.0
144
0.0
144
0.0
144
0.0
144
0.0
144
1.0
147
0.0208333333333333
147
0.0
147
0.0
147
0.0
147
0.0
147
0.0208333333333333
147
0.0
147
0.0
147
0.0
147
0.0
147
1.0
147
0.0
147
0.0
147
0.0
147
0.0
147
1.0
  0
MLEADERSTYLE
  5
217
102
{ACAD_REACTORS
330
216
102
}
330
216
100
AcDbMLeaderStyle
179
     2
170
     2
171
     1
172
     0
 90
        2
 40
0.0
 41
0.0
173
     1
 91
-1056964608
340
1A8
 92
       -2
290
     1
 42
0.09
291
     1
 43
0.36
  3
Standard
 44
0.18
300

342
A
174
     1
178
     6
175
     1
176
     0
 93
-1056964608
 45
0.18
292
     0
297
     0
 46
0.18
 94
-1056964608
 47
1.0
 49
1.0
140
1.0
293
     1
141
0.0
294
     1
177
     0
142
1.0
295
     0
296
     0
143
0.125
271
     0
272
     9
273
     9
298
     1
  0
DICTIONARY
  5
1B6
330
1B5
100
AcDbDictionary
280
     1
281
     1
  0
MLINESTYLE
  5
1BA
102
{ACAD_REACTORS
330
1B5
102
}
330
1B5
100
AcDbMlineStyle
  2
STANDARD
 70
     0
  3

 62
   256
 51
90.0
 52
90.0
 71
     2
 49
0.5
 62
   256
  6
BYLAYER
 49
-0.5
 62
   256
  6
BYLAYER
  0
PLOTSETTINGS
  5
19B0
102
{ACAD_REACTORS
330
21C
102
}
330
21C
100
AcDbPlotSettings
  1
A4
  2
DWG To PDF.pc3
  4
ISO_A4_(210.00_x_297.00_MM)
  6

 40
0.0
 41
0.0
 42
0.0
 43
0.0
 44
210.0
 45
297.0
 46
0.0
 47
0.0
 48
0.0
 49
0.0
140
0.0
141
0.0
142
1.0
143
1.0
 70
  2720
 72
     1
 73
     0
 74
     5
  7
monochrome.ctb
 75
    16
147
25.4
 76
     0
 77
     2
 78
   300
148
0.0
149
0.0
1001
ACAD_PSEXT
1000
DWG To PDF.pc3
1000
DWG To PDF
1000
File
1000

1070
     0
1001
PLOTTRANSPARENCY
1071
        1
  0
ACDBPLACEHOLDER
  5
1CD
102
{ACAD_REACTORS
330
1CC
102
}
330
1CC
  0
SCALE
  5
205
102
{ACAD_REACTORS
330
204
102
}
330
204
100
AcDbScale
 70
     0
300
1:1
140
1.0
141
1.0
290
     1
  0
SCALE
  5
12BFD
102
{ACAD_REACTORS
330
204
102
}
330
204
100
AcDbScale
 70
     0
300
1:5
140
1.0
141
5.0
290
     0
  0
SCALE
  5
12BFE
102
{ACAD_REACTORS
330
204
102
}
330
204
100
AcDbScale
 70
     0
300
1:3.5
140
1.0
141
3.5
290
     0
  0
SCALE
  5
11788
102
{ACAD_REACTORS
330
204
102
}
330
204
100
AcDbScale
 70
     0
300
1:4.5
140
1.0
141
4.5
290
     0
  0
SCALE
  5
12BFF
102
{ACAD_REACTORS
330
204
102
}
330
204
100
AcDbScale
 70
     0
300
1:4
140
1.0
141
4.0
290
     0
  0
SCALE
  5
12C00
102
{ACAD_REACTORS
330
204
102
}
330
204
100
AcDbScale
 70
     0
300
1:3
140
1.0
141
3.0
290
     0
  0
SCALE
  5
12C01
102
{ACAD_REACTORS
330
204
102
}
330
204
100
AcDbScale
 70
     0
300
1:2.5
140
1.0
141
2.5
290
     0
  0
SCALE
  5
12C02
102
{ACAD_REACTORS
330
204
102
}
330
204
100
AcDbScale
 70
     0
300
1:2
140
1.0
141
2.0
290
     0
  0
SCALE
  5
12C03
102
{ACAD_REACTORS
330
204
102
}
330
204
100
AcDbScale
 70
     0
300
1/128" = 1'-0"
140
0.0078125
141
12.0
290
     0
  0
SCALE
  5
12C04
102
{ACAD_REACTORS
330
204
102
}
330
204
100
AcDbScale
 70
     0
300
1/64" = 1'-0"
140
0.015625
141
12.0
290
     0
  0
SCALE
  5
12C05
102
{ACAD_REACTORS
330
204
102
}
330
204
100
AcDbScale
 70
     0
300
1/32" = 1'-0"
140
0.03125
141
12.0
290
     0
  0
SCALE
  5
12C06
102
{ACAD_REACTORS
330
204
102
}
330
204
100
AcDbScale
 70
     0
300
1/16" = 1'-0"
140
0.0625
141
12.0
290
     0
  0
SCALE
  5
12C07
102
{ACAD_REACTORS
330
204
102
}
330
204
100
AcDbScale
 70
     0
300
3/32" = 1'-0"
140
0.09375
141
12.0
290
     0
  0
SCALE
  5
12C08
102
{ACAD_REACTORS
330
204
102
}
330
204
100
AcDbScale
 70
     0
300
1/8" = 1'-0"
140
0.125
141
12.0
290
     0
  0
SCALE
  5
12C09
102
{ACAD_REACTORS
330
204
102
}
330
204
100
AcDbScale
 70
     0
300
3/16" = 1'-0"
140
0.1875
141
12.0
290
     0
  0
SCALE
  5
12C0A
102
{ACAD_REACTORS
330
204
102
}
330
204
100
AcDbScale
 70
     0
300
1/4" = 1'-0"
140
0.25
141
12.0
290
     0
  0
SCALE
  5
12C0B
102
{ACAD_REACTORS
330
204
102
}
330
204
100
AcDbScale
 70
     0
300
3/8" = 1'-0"
140
0.375
141
12.0
290
     0
  0
SCALE
  5
12C0C
102
{ACAD_REACTORS
330
204
102
}
330
204
100
AcDbScale
 70
     0
300
1/2" = 1'-0"
140
0.5
141
12.0
290
     0
  0
SCALE
  5
12C0D
102
{ACAD_REACTORS
330
204
102
}
330
204
100
AcDbScale
 70
     0
300
3/4" = 1'-0"
140
0.75
141
12.0
290
     0
  0
SCALE
  5
12C0E
102
{ACAD_REACTORS
330
204
102
}
330
204
100
AcDbScale
 70
     0
300
1" = 1'-0"
140
1.0
141
12.0
290
     0
  0
SCALE
  5
12C0F
102
{ACAD_REACTORS
330
204
102
}
330
204
100
AcDbScale
 70
     0
300
1-1/2" = 1'-0"
140
1.5
141
12.0
290
     0
  0
SCALE
  5
12C10
102
{ACAD_REACTORS
330
204
102
}
330
204
100
AcDbScale
 70
     0
300
3" = 1'-0"
140
3.0
141
12.0
290
     0
  0
SCALE
  5
12C11
102
{ACAD_REACTORS
330
204
102
}
330
204
100
AcDbScale
 70
     0
300
6" = 1'-0"
140
6.0
141
12.0
290
     0
  0
SCALE
  5
12C12
102
{ACAD_REACTORS
330
204
102
}
330
204
100
AcDbScale
 70
     0
300
1'-0" = 1'-0"
140
12.0
141
12.0
290
     0
  0
ACDBSECTIONVIEWSTYLE
  5
219
102
{ACAD_XDICTIONARY
360
149AE
102
}
102
{ACAD_REACTORS
330
218
102
}
330
218
100
AcDbModelDocViewStyle
 70
     0
  3
Imperial24
290
     0
100
AcDbSectionViewStyle
 70
     0
 71
     0
 90
       78
 71
     1
340
A
 62
   256
 40
0.24
340
0
340
0
 62
   256
 40
0.24
300
I, O, Q, S, X, Z
 40
0.48
 90
        3
 40
0.18
 90
        1
 71
     2
340
5
 90
       25
 62
   256
340
5
 90
       50
 62
   256
 40
0.24
 40
0.0
 40
0.24
 71
     3
340
A
 62
   256
 40
0.24
 90
        1
 40
0.75
 90
        1
300
%<\AcVar ViewType \f "%tc1">% %<\AcVar ViewSectionStartId>%-%<\AcVar ViewSectionEndId>%\PSCALE %<\AcVar ViewScale \f "%sn">%
 71
     4
 62
   256
 62
   257
300
ANSI31
 40
1.0
 90
        0
290
     0
290
     0
 90
        6
 40
0.0
 40
1.570796326794896
 40
0.2617993877991494
 40
1.308996938995747
 40
-0.2617993877991494
 40
1.832595714594044
  0
TABLESTYLE
  5
203
102
{ACAD_XDICTIONARY
360
F11A
102
}
102
{ACAD_REACTORS
330
202
102
}
330
202
100
AcDbTableStyle
280
     0
  3
Standard
 70
     0
 71
     0
 40
0.06
 41
0.06
280
     0
281
     0
  7
STANDARD
140
0.18
170
     2
 62
     0
 63
     7
283
     0
 90
      512
 91
        0
  1

274
    -2
284
     1
 64
     0
275
    -2
285
     1
 65
     0
276
    -2
286
     1
 66
     0
277
    -2
287
     1
 67
     0
278
    -2
288
     1
 68
     0
279
    -2
289
     1
 69
     0
  7
STANDARD
140
0.25
170
     5
 62
     0
 63
     7
283
     0
 90
      512
 91
        0
  1

274
    -2
284
     1
 64
     0
275
    -2
285
     1
 65
     0
276
    -2
286
     1
 66
     0
277
    -2
287
     1
 67
     0
278
    -2
288
     1
 68
     0
279
    -2
289
     1
 69
     0
  7
STANDARD
140
0.18
170
     5
 62
     0
 63
     7
283
     0
 90
      512
 91
        0
  1

274
    -2
284
     1
 64
     0
275
    -2
285
     1
 65
     0
276
    -2
286
     1
 66
     0
277
    -2
287
     1
 67
     0
278
    -2
288
     1
 68
     0
279
    -2
289
     1
 69
     0
  0
VISUALSTYLE
  5
1ED
102
{ACAD_REACTORS
330
1E7
102
}
330
1E7
100
AcDbVisualStyle
  2
2dWireframe
 70
     4
177
     3
291
     0
 70
    58
 90
        0
176
     1
 90
        2
176
     1
 90
        0
176
     1
 90
        0
176
     1
 40
0.6
176
     1
 40
30.0
176
     1
 62
     7
420
 16777215
176
     1
 90
        1
176
     1
 90
        4
176
     1
 62
     7
176
     1
 62
   257
176
     1
 90
        1
176
     1
 90
        1
176
     1
 40
1.0
176
     1
 90
        0
176
     1
 62
   257
176
     1
 40
1.0
176
     1
 90
        1
176
     1
 90
        6
176
     1
 90
        2
176
     1
 62
     7
176
     1
 90
        5
176
     1
 90
        0
176
     1
 90
        0
176
     1
290
     0
176
     1
 90
        1
176
     1
 40
0.0
176
     1
 90
        0
176
     1
290
     1
176
     1
290
     1
176
     1
290
     0
176
     1
290
     0
176
     1
290
     0
176
     1
290
     0
176
     1
290
     0
176
     1
290
     0
176
     1
290
     0
176
     1
 90
       50
176
     1
 40
0.0
176
     1
 40
1.0
176
     1
 90
        0
176
     1
 62
    18
176
     1
 90
       50
176
     1
 90
        3
176
     1
 62
     5
420
      255
176
     1
290
     0
176
     1
 90
       50
176
     1
 90
       50
176
     1
 90
       50
176
     1
290
     0
176
     1
 90
       50
176
     1
 62
   256
176
     0
 40
1.0
176
     0
 90
        2
176
     1
  1
strokes_ogs.tif
176
     1
290
     0
176
     1
 40
1.0
176
     1
 40
1.0
176
     1
1001
ACAD
1000
AcDbSavedByObjectVersion
1070
     0
  0
VISUALSTYLE
  5
1EC
102
{ACAD_REACTORS
330
1E7
102
}
330
1E7
100
AcDbVisualStyle
  2
Basic
 70
     7
177
     3
291
     1
 70
    58
 90
        1
176
     1
 90
        0
176
     1
 90
        1
176
     1
 90
        0
176
     1
 40
0.6
176
     1
 40
30.0
176
     1
 62
     7
420
 16777215
176
     1
 90
        0
176
     1
 90
        4
176
     1
 62
     7
176
     1
 62
   257
176
     1
 90
        1
176
     1
 90
        1
176
     1
 40
1.0
176
     1
 90
        8
176
     1
 62
     7
176
     1
 40
1.0
176
     1
 90
        1
176
     1
 90
        6
176
     1
 90
        2
176
     1
 62
     7
176
     1
 90
        5
176
     1
 90
        0
176
     1
 90
        0
176
     1
290
     0
176
     1
 90
        1
176
     1
 40
0.0
176
     1
 90
        0
176
     1
290
     0
176
     1
290
     1
176
     1
290
     1
176
     1
290
     0
176
     1
290
     0
176
     1
290
     0
176
     1
290
     0
176
     1
290
     0
176
     1
290
     0
176
     1
 90
       50
176
     1
 40
0.0
176
     1
 40
1.0
176
     1
 90
        0
176
     1
 62
    18
176
     1
 90
       50
176
     1
 90
        3
176
     1
 62
     5
420
      255
176
     1
290
     0
176
     1
 90
       50
176
     1
 90
       50
176
     1
 90
       50
176
     1
290
     0
176
     1
 90
       50
176
     1
 62
   256
176
     0
 40
1.0
176
     0
 90
        2
176
     1
  1
strokes_ogs.tif
176
     1
290
     0
176
     1
 40
1.0
176
     1
 40
1.0
176
     1
1001
ACAD
1000
AcDbSavedByObjectVersion
1070
     0
  0
VISUALSTYLE
  5
1F3
102
{ACAD_REACTORS
330
1E7
102
}
330
1E7
100
AcDbVisualStyle
  2
Brighten
 70
    12
177
     3
291
     1
 70
    58
 90
        2
176
     1
 90
        2
176
     1
 90
        0
176
     1
 90
        0
176
     1
 40
0.6
176
     1
 40
30.0
176
     1
 62
     7
420
 16777215
176
     1
 90
        1
176
     1
 90
        4
176
     1
 62
     7
176
     1
 62
   257
176
     1
 90
        1
176
     1
 90
        1
176
     1
 40
1.0
176
     1
 90
        8
176
     1
 62
     7
176
     1
 40
1.0
176
     1
 90
        1
176
     1
 90
        6
176
     1
 90
        2
176
     1
 62
     7
176
     1
 90
        5
176
     1
 90
        0
176
     1
 90
        0
176
     1
290
     0
176
     1
 90
        1
176
     1
 40
50.0
176
     1
 90
        0
176
     1
290
     0
176
     1
290
     1
176
     1
290
     1
176
     1
290
     0
176
     1
290
     0
176
     1
290
     0
176
     1
290
     0
176
     1
290
     0
176
     1
290
     0
176
     1
 90
       50
176
     1
 40
0.0
176
     1
 40
1.0
176
     1
 90
        0
176
     1
 62
    18
176
     1
 90
       50
176
     1
 90
        3
176
     1
 62
     5
420
      255
176
     1
290
     0
176
     1
 90
       50
176
     1
 90
       50
176
     1
 90
       50
176
     1
290
     0
176
     1
 90
       50
176
     1
 62
   256
176
     0
 40
1.0
176
     0
 90
        2
176
     1
  1
strokes_ogs.tif
176
     1
290
     0
176
     1
 40
1.0
176
     1
 40
1.0
176
     1
1001
ACAD
1000
AcDbSavedByObjectVersion
1070
     0
  0
VISUALSTYLE
  5
1F7
102
{ACAD_REACTORS
330
1E7
102
}
330
1E7
100
AcDbVisualStyle
  2
ColorChange
 70
    16
177
     3
291
     1
 70
    58
 90
        2
176
     1
 90
        2
176
     1
 90
        3
176
     1
 90
        0
176
     1
 40
0.6
176
     1
 40
30.0
176
     1
 62
     8
420
  8421504
176
     1
 90
        1
176
     1
 90
        4
176
     1
 62
     7
176
     1
 62
   257
176
     1
 90
        1
176
     1
 90
        1
176
     1
 40
1.0
176
     1
 90
        8
176
     1
 62
     8
420
  8421504
176
     1
 40
1.0
176
     1
 90
        1
176
     1
 90
        6
176
     1
 90
        2
176
     1
 62
     7
176
     1
 90
        5
176
     1
 90
        0
176
     1
 90
        0
176
     1
290
     0
176
     1
 90
        1
176
     1
 40
0.0
176
     1
 90
        0
176
     1
290
     0
176
     1
290
     1
176
     1
290
     1
176
     1
290
     0
176
     1
290
     0
176
     1
290
     0
176
     1
290
     0
176
     1
290
     0
176
     1
290
     0
176
     1
 90
       50
176
     1
 40
0.0
176
     1
 40
1.0
176
     1
 90
        0
176
     1
 62
    18
176
     1
 90
       50
176
     1
 90
        3
176
     1
 62
     5
420
      255
176
     1
290
     0
176
     1
 90
       50
176
     1
 90
       50
176
     1
 90
       50
176
     1
290
     0
176
     1
 90
       50
176
     1
 62
   256
176
     0
 40
1.0
176
     0
 90
        2
176
     1
  1
strokes_ogs.tif
176
     1
290
     0
176
     1
 40
1.0
176
     1
 40
1.0
176
     1
1001
ACAD
1000
AcDbSavedByObjectVersion
1070
     0
  0
VISUALSTYLE
  5
1F0
102
{ACAD_REACTORS
330
1E7
102
}
330
1E7
100
AcDbVisualStyle
  2
Conceptual
 70
     9
177
     3
291
     0
 70
    58
 90
        3
176
     1
 90
        2
176
     1
 90
        0
176
     1
 90
        0
176
     1
 40
0.6
176
     1
 40
30.0
176
     1
 62
     7
420
 16777215
176
     1
 90
        2
176
     1
 90
        2
176
     1
 62
     7
176
     1
 62
   257
176
     1
 90
        1
176
     1
 90
        1
176
     1
 40
179.0
176
     1
 90
        8
176
     1
 62
     7
176
     1
 40
1.0
176
     1
 90
        1
176
     1
 90
        6
176
     1
 90
        2
176
     1
 62
     7
176
     1
 90
        3
176
     1
 90
        0
176
     1
 90
        0
176
     1
290
     0
176
     1
 90
        1
176
     1
 40
0.0
176
     1
 90
        0
176
     1
290
     0
176
     1
290
     1
176
     1
290
     1
176
     1
290
     0
176
     1
290
     0
176
     1
290
     0
176
     1
290
     0
176
     1
290
     0
176
     1
290
     0
176
     1
 90
       50
176
     1
 40
0.0
176
     1
 40
1.0
176
     1
 90
        0
176
     1
 62
    18
176
     1
 90
       50
176
     1
 90
        3
176
     1
 62
     5
420
      255
176
     1
290
     0
176
     1
 90
       50
176
     1
 90
       50
176
     1
 90
       50
176
     1
290
     0
176
     1
 90
       50
176
     1
 62
   256
176
     0
 40
1.0
176
     0
 90
        2
176
     1
  1
strokes_ogs.tif
176
     1
290
     0
176
     1
 40
1.0
176
     1
 40
1.0
176
     1
1001
ACAD
1000
AcDbSavedByObjectVersion
1070
     0
  0
VISUALSTYLE
  5
1F2
102
{ACAD_REACTORS
330
1E7
102
}
330
1E7
100
AcDbVisualStyle
  2
Dim
 70
    11
177
     3
291
     1
 70
    58
 90
        2
176
     1
 90
        2
176
     1
 90
        0
176
     1
 90
        0
176
     1
 40
0.6
176
     1
 40
30.0
176
     1
 62
     7
420
 16777215
176
     1
 90
        1
176
     1
 90
        4
176
     1
 62
     7
176
     1
 62
   257
176
     1
 90
        1
176
     1
 90
        1
176
     1
 40
1.0
176
     1
 90
        8
176
     1
 62
     7
176
     1
 40
1.0
176
     1
 90
        1
176
     1
 90
        6
176
     1
 90
        2
176
     1
 62
     7
176
     1
 90
        5
176
     1
 90
        0
176
     1
 90
        0
176
     1
290
     0
176
     1
 90
        1
176
     1
 40
-50.0
176
     1
 90
        0
176
     1
290
     0
176
     1
290
     1
176
     1
290
     1
176
     1
290
     0
176
     1
290
     0
176
     1
290
     0
176
     1
290
     0
176
     1
290
     0
176
     1
290
     0
176
     1
 90
       50
176
     1
 40
0.0
176
     1
 40
1.0
176
     1
 90
        0
176
     1
 62
    18
176
     1
 90
       50
176
     1
 90
        3
176
     1
 62
     5
420
      255
176
     1
290
     0
176
     1
 90
       50
176
     1
 90
       50
176
     1
 90
       50
176
     1
290
     0
176
     1
 90
       50
176
     1
 62
   256
176
     0
 40
1.0
176
     0
 90
        2
176
     1
  1
strokes_ogs.tif
176
     1
290
     0
176
     1
 40
1.0
176
     1
 40
1.0
176
     1
1001
ACAD
1000
AcDbSavedByObjectVersion
1070
     0
  0
VISUALSTYLE
  5
1FF
102
{ACAD_REACTORS
330
1E7
102
}
330
1E7
100
AcDbVisualStyle
  2
EdgeColorOff
 70
    22
177
     3
291
     1
 70
    58
 90
        2
176
     0
 90
        2
176
     0
 90
        0
176
     0
 90
        0
176
     0
 40
0.6
176
     0
 40
30.0
176
     0
 62
     7
420
 16777215
176
     0
 90
        1
176
     0
 90
        4
176
     0
 62
     7
176
     0
 62
   257
176
     0
 90
        1
176
     0
 90
        1
176
     0
 40
1.0
176
     0
 90
        8
176
     2
 62
     7
176
     0
 40
1.0
176
     0
 90
        1
176
     0
 90
        6
176
     0
 90
        2
176
     0
 62
     7
176
     0
 90
        5
176
     0
 90
        0
176
     0
 90
        0
176
     0
290
     0
176
     0
 90
        1
176
     0
 40
0.0
176
     0
 90
        0
176
     0
290
     0
176
     0
290
     1
176
     0
290
     1
176
     0
290
     0
176
     0
290
     0
176
     0
290
     0
176
     0
290
     0
176
     0
290
     0
176
     0
290
     0
176
     0
 90
       50
176
     0
 40
0.0
176
     0
 40
1.0
176
     0
 90
        0
176
     0
 62
    18
176
     0
 90
       50
176
     0
 90
        3
176
     0
 62
     5
420
      255
176
     0
290
     0
176
     0
 90
       50
176
     0
 90
       50
176
     0
 90
       50
176
     0
290
     0
176
     0
 90
       50
176
     0
 62
   256
176
     0
 40
1.0
176
     0
 90
        2
176
     0
  1
strokes_ogs.tif
176
     0
290
     0
176
     0
 40
1.0
176
     0
 40
1.0
176
     0
1001
ACAD
1000
AcDbSavedByObjectVersion
1070
     0
  0
VISUALSTYLE
  5
1F6
102
{ACAD_REACTORS
330
1E7
102
}
330
1E7
100
AcDbVisualStyle
  2
Facepattern
 70
    15
177
     3
291
     1
 70
    58
 90
        2
176
     1
 90
        2
176
     1
 90
        0
176
     1
 90
        0
176
     1
 40
0.6
176
     1
 40
30.0
176
     1
 62
     7
420
 16777215
176
     1
 90
        1
176
     1
 90
        4
176
     1
 62
     7
176
     1
 62
   257
176
     1
 90
        1
176
     1
 90
        1
176
     1
 40
1.0
176
     1
 90
        8
176
     1
 62
     7
176
     1
 40
1.0
176
     1
 90
        1
176
     1
 90
        6
176
     1
 90
        2
176
     1
 62
     7
176
     1
 90
        5
176
     1
 90
        0
176
     1
 90
        0
176
     1
290
     0
176
     1
 90
        1
176
     1
 40
0.0
176
     1
 90
        0
176
     1
290
     0
176
     1
290
     1
176
     1
290
     1
176
     1
290
     0
176
     1
290
     0
176
     1
290
     0
176
     1
290
     0
176
     1
290
     0
176
     1
290
     0
176
     1
 90
       50
176
     1
 40
0.0
176
     1
 40
1.0
176
     1
 90
        0
176
     1
 62
    18
176
     1
 90
       50
176
     1
 90
        3
176
     1
 62
     5
420
      255
176
     1
290
     0
176
     1
 90
       50
176
     1
 90
       50
176
     1
 90
       50
176
     1
290
     0
176
     1
 90
       50
176
     1
 62
   256
176
     0
 40
1.0
176
     0
 90
        2
176
     1
  1
strokes_ogs.tif
176
     1
290
     0
176
     1
 40
1.0
176
     1
 40
1.0
176
     1
1001
ACAD
1000
AcDbSavedByObjectVersion
1070
     0
  0
VISUALSTYLE
  5
1E8
102
{ACAD_REACTORS
330
1E7
102
}
330
1E7
100
AcDbVisualStyle
  2
Flat
 70
     0
177
     3
291
     1
 70
    58
 90
        2
176
     1
 90
        1
176
     1
 90
        1
176
     1
 90
        2
176
     1
 40
0.6
176
     1
 40
30.0
176
     1
 62
     7
420
 16777215
176
     1
 90
        0
176
     1
 90
        0
176
     1
 62
     7
176
     1
 62
   257
176
     1
 90
        1
176
     1
 90
        1
176
     1
 40
1.0
176
     1
 90
        8
176
     1
 62
     7
176
     1
 40
1.0
176
     1
 90
        1
176
     1
 90
        6
176
     1
 90
        2
176
     1
 62
     7
176
     1
 90
        5
176
     1
 90
        0
176
     1
 90
        0
176
     1
290
     0
176
     1
 90
       13
176
     1
 40
0.0
176
     1
 90
        0
176
     1
290
     0
176
     1
290
     1
176
     1
290
     1
176
     1
290
     0
176
     1
290
     0
176
     1
290
     0
176
     1
290
     0
176
     1
290
     0
176
     1
290
     0
176
     1
 90
       50
176
     1
 40
0.0
176
     1
 40
1.0
176
     1
 90
        0
176
     1
 62
    18
176
     1
 90
       50
176
     1
 90
        3
176
     1
 62
     5
420
      255
176
     1
290
     0
176
     1
 90
       50
176
     1
 90
       50
176
     1
 90
       50
176
     1
290
     0
176
     1
 90
       50
176
     1
 62
   256
176
     0
 40
1.0
176
     0
 90
        2
176
     1
  1
strokes_ogs.tif
176
     1
290
     0
176
     1
 40
1.0
176
     1
 40
1.0
176
     1
1001
ACAD
1000
AcDbSavedByObjectVersion
1070
     0
  0
VISUALSTYLE
  5
1E9
102
{ACAD_REACTORS
330
1E7
102
}
330
1E7
100
AcDbVisualStyle
  2
FlatWithEdges
 70
     1
177
     3
291
     1
 70
    58
 90
        2
176
     1
 90
        1
176
     1
 90
        1
176
     1
 90
        2
176
     1
 40
0.6
176
     1
 40
30.0
176
     1
 62
     7
420
 16777215
176
     1
 90
        1
176
     1
 90
        0
176
     1
 62
     7
176
     1
 62
   257
176
     1
 90
        1
176
     1
 90
        1
176
     1
 40
1.0
176
     1
 90
        0
176
     1
 62
   257
176
     1
 40
1.0
176
     1
 90
        1
176
     1
 90
        6
176
     1
 90
        2
176
     1
 62
     7
176
     1
 90
        5
176
     1
 90
        0
176
     1
 90
        0
176
     1
290
     0
176
     1
 90
       13
176
     1
 40
0.0
176
     1
 90
        0
176
     1
290
     0
176
     1
290
     1
176
     1
290
     1
176
     1
290
     0
176
     1
290
     0
176
     1
290
     0
176
     1
290
     0
176
     1
290
     0
176
     1
290
     0
176
     1
 90
       50
176
     1
 40
0.0
176
     1
 40
1.0
176
     1
 90
        0
176
     1
 62
    18
176
     1
 90
       50
176
     1
 90
        3
176
     1
 62
     5
420
      255
176
     1
290
     0
176
     1
 90
       50
176
     1
 90
       50
176
     1
 90
       50
176
     1
290
     0
176
     1
 90
       50
176
     1
 62
   256
176
     0
 40
1.0
176
     0
 90
        2
176
     1
  1
strokes_ogs.tif
176
     1
290
     0
176
     1
 40
1.0
176
     1
 40
1.0
176
     1
1001
ACAD
1000
AcDbSavedByObjectVersion
1070
     0
  0
VISUALSTYLE
  5
1EA
102
{ACAD_REACTORS
330
1E7
102
}
330
1E7
100
AcDbVisualStyle
  2
Gouraud
 70
     2
177
     3
291
     1
 70
    58
 90
        2
176
     1
 90
        2
176
     1
 90
        1
176
     1
 90
        2
176
     1
 40
0.6
176
     1
 40
30.0
176
     1
 62
     7
420
 16777215
176
     1
 90
        0
176
     1
 90
        0
176
     1
 62
     7
176
     1
 62
   257
176
     1
 90
        1
176
     1
 90
        1
176
     1
 40
1.0
176
     1
 90
        0
176
     1
 62
     7
176
     1
 40
1.0
176
     1
 90
        1
176
     1
 90
        6
176
     1
 90
        2
176
     1
 62
     7
176
     1
 90
        5
176
     1
 90
        0
176
     1
 90
        0
176
     1
290
     0
176
     1
 90
       13
176
     1
 40
0.0
176
     1
 90
        0
176
     1
290
     0
176
     1
290
     1
176
     1
290
     1
176
     1
290
     0
176
     1
290
     0
176
     1
290
     0
176
     1
290
     0
176
     1
290
     0
176
     1
290
     0
176
     1
 90
       50
176
     1
 40
0.0
176
     1
 40
1.0
176
     1
 90
        0
176
     1
 62
    18
176
     1
 90
       50
176
     1
 90
        3
176
     1
 62
     5
420
      255
176
     1
290
     0
176
     1
 90
       50
176
     1
 90
       50
176
     1
 90
       50
176
     1
290
     0
176
     1
 90
       50
176
     1
 62
   256
176
     0
 40
1.0
176
     0
 90
        2
176
     1
  1
strokes_ogs.tif
176
     1
290
     0
176
     1
 40
1.0
176
     1
 40
1.0
176
     1
1001
ACAD
1000
AcDbSavedByObjectVersion
1070
     0
  0
VISUALSTYLE
  5
1EB
102
{ACAD_REACTORS
330
1E7
102
}
330
1E7
100
AcDbVisualStyle
  2
GouraudWithEdges
 70
     3
177
     3
291
     1
 70
    58
 90
        2
176
     1
 90
        2
176
     1
 90
        1
176
     1
 90
        2
176
     1
 40
0.6
176
     1
 40
30.0
176
     1
 62
     7
420
 16777215
176
     1
 90
        1
176
     1
 90
        0
176
     1
 62
     7
176
     1
 62
   257
176
     1
 90
        1
176
     1
 90
        1
176
     1
 40
1.0
176
     1
 90
        0
176
     1
 62
   257
176
     1
 40
1.0
176
     1
 90
        1
176
     1
 90
        6
176
     1
 90
        2
176
     1
 62
     7
176
     1
 90
        5
176
     1
 90
        0
176
     1
 90
        0
176
     1
290
     0
176
     1
 90
       13
176
     1
 40
0.0
176
     1
 90
        0
176
     1
290
     0
176
     1
290
     1
176
     1
290
     1
176
     1
290
     0
176
     1
290
     0
176
     1
290
     0
176
     1
290
     0
176
     1
290
     0
176
     1
290
     0
176
     1
 90
       50
176
     1
 40
0.0
176
     1
 40
1.0
176
     1
 90
        0
176
     1
 62
    18
176
     1
 90
       50
176
     1
 90
        3
176
     1
 62
     5
420
      255
176
     1
290
     0
176
     1
 90
       50
176
     1
 90
       50
176
     1
 90
       50
176
     1
290
     0
176
     1
 90
       50
176
     1
 62
   256
176
     0
 40
1.0
176
     0
 90
        2
176
     1
  1
strokes_ogs.tif
176
     1
290
     0
176
     1
 40
1.0
176
     1
 40
1.0
176
     1
1001
ACAD
1000
AcDbSavedByObjectVersion
1070
     0
  0
VISUALSTYLE
  5
1EF
102
{ACAD_REACTORS
330
1E7
102
}
330
1E7
100
AcDbVisualStyle
  2
Hidden
 70
     6
177
     3
291
     0
 70
    58
 90
        1
176
     1
 90
        2
176
     1
 90
        2
176
     1
 90
        0
176
     1
 40
0.6
176
     1
 40
30.0
176
     1
 62
     7
420
 16777215
176
     1
 90
        2
176
     1
 90
        2
176
     1
 62
     7
176
     1
 62
   257
176
     1
 90
        2
176
     1
 90
        1
176
     1
 40
40.0
176
     1
 90
        0
176
     1
 62
   257
176
     1
 40
1.0
176
     1
 90
        1
176
     1
 90
        6
176
     1
 90
        2
176
     1
 62
     7
176
     1
 90
        3
176
     1
 90
        0
176
     1
 90
        0
176
     1
290
     0
176
     1
 90
        1
176
     1
 40
0.0
176
     1
 90
        0
176
     1
290
     0
176
     1
290
     1
176
     1
290
     1
176
     1
290
     0
176
     1
290
     0
176
     1
290
     0
176
     1
290
     0
176
     1
290
     0
176
     1
290
     0
176
     1
 90
       50
176
     1
 40
0.0
176
     1
 40
1.0
176
     1
 90
        0
176
     1
 62
    18
176
     1
 90
       50
176
     1
 90
        3
176
     1
 62
     5
420
      255
176
     1
290
     0
176
     1
 90
       50
176
     1
 90
       50
176
     1
 90
       50
176
     1
290
     0
176
     1
 90
       50
176
     1
 62
   256
176
     0
 40
1.0
176
     0
 90
        2
176
     1
  1
strokes_ogs.tif
176
     1
290
     0
176
     1
 40
1.0
176
     1
 40
1.0
176
     1
1001
ACAD
1000
AcDbSavedByObjectVersion
1070
     0
  0
VISUALSTYLE
  5
1FD
102
{ACAD_REACTORS
330
1E7
102
}
330
1E7
100
AcDbVisualStyle
  2
JitterOff
 70
    20
177
     3
291
     1
 70
    58
 90
        2
176
     0
 90
        2
176
     0
 90
        0
176
     0
 90
        0
176
     0
 40
0.6
176
     0
 40
30.0
176
     0
 62
     7
420
 16777215
176
     0
 90
        1
176
     0
 90
        4
176
     0
 62
     7
176
     0
 62
   257
176
     0
 90
        1
176
     0
 90
        1
176
     0
 40
1.0
176
     0
 90
       10
176
     2
 62
     7
176
     0
 40
1.0
176
     0
 90
        1
176
     0
 90
        6
176
     0
 90
        2
176
     0
 62
     7
176
     0
 90
        5
176
     0
 90
        0
176
     0
 90
        0
176
     0
290
     0
176
     0
 90
        1
176
     0
 40
0.0
176
     0
 90
        0
176
     0
290
     0
176
     0
290
     1
176
     0
290
     1
176
     0
290
     0
176
     0
290
     0
176
     0
290
     0
176
     0
290
     0
176
     0
290
     0
176
     0
290
     0
176
     0
 90
       50
176
     0
 40
0.0
176
     0
 40
1.0
176
     0
 90
        0
176
     0
 62
    18
176
     0
 90
       50
176
     0
 90
        3
176
     0
 62
     5
420
      255
176
     0
290
     0
176
     0
 90
       50
176
     0
 90
       50
176
     0
 90
       50
176
     0
290
     0
176
     0
 90
       50
176
     0
 62
   256
176
     0
 40
1.0
176
     0
 90
        2
176
     0
  1
strokes_ogs.tif
176
     0
290
     0
176
     0
 40
1.0
176
     0
 40
1.0
176
     0
1001
ACAD
1000
AcDbSavedByObjectVersion
1070
     0
  0
VISUALSTYLE
  5
1F5
102
{ACAD_REACTORS
330
1E7
102
}
330
1E7
100
AcDbVisualStyle
  2
Linepattern
 70
    14
177
     3
291
     1
 70
    58
 90
        2
176
     1
 90
        2
176
     1
 90
        0
176
     1
 90
        0
176
     1
 40
0.6
176
     1
 40
30.0
176
     1
 62
     7
420
 16777215
176
     1
 90
        1
176
     1
 90
        4
176
     1
 62
     7
176
     1
 62
   257
176
     1
 90
        7
176
     1
 90
        7
176
     1
 40
1.0
176
     1
 90
        8
176
     1
 62
     7
176
     1
 40
1.0
176
     1
 90
        1
176
     1
 90
        6
176
     1
 90
        2
176
     1
 62
     7
176
     1
 90
        5
176
     1
 90
        0
176
     1
 90
        0
176
     1
290
     0
176
     1
 90
        1
176
     1
 40
0.0
176
     1
 90
        0
176
     1
290
     0
176
     1
290
     1
176
     1
290
     1
176
     1
290
     0
176
     1
290
     0
176
     1
290
     0
176
     1
290
     0
176
     1
290
     0
176
     1
290
     0
176
     1
 90
       50
176
     1
 40
0.0
176
     1
 40
1.0
176
     1
 90
        0
176
     1
 62
    18
176
     1
 90
       50
176
     1
 90
        3
176
     1
 62
     5
420
      255
176
     1
290
     0
176
     1
 90
       50
176
     1
 90
       50
176
     1
 90
       50
176
     1
290
     0
176
     1
 90
       50
176
     1
 62
   256
176
     0
 40
1.0
176
     0
 90
        2
176
     1
  1
strokes_ogs.tif
176
     1
290
     0
176
     1
 40
1.0
176
     1
 40
1.0
176
     1
1001
ACAD
1000
AcDbSavedByObjectVersion
1070
     0
  0
VISUALSTYLE
  5
1FE
102
{ACAD_REACTORS
330
1E7
102
}
330
1E7
100
AcDbVisualStyle
  2
OverhangOff
 70
    21
177
     3
291
     1
 70
    58
 90
        2
176
     0
 90
        2
176
     0
 90
        0
176
     0
 90
        0
176
     0
 40
0.6
176
     0
 40
30.0
176
     0
 62
     7
420
 16777215
176
     0
 90
        1
176
     0
 90
        4
176
     0
 62
     7
176
     0
 62
   257
176
     0
 90
        1
176
     0
 90
        1
176
     0
 40
1.0
176
     0
 90
        9
176
     2
 62
     7
176
     0
 40
1.0
176
     0
 90
        1
176
     0
 90
        6
176
     0
 90
        2
176
     0
 62
     7
176
     0
 90
        5
176
     0
 90
        0
176
     0
 90
        0
176
     0
290
     0
176
     0
 90
        1
176
     0
 40
0.0
176
     0
 90
        0
176
     0
290
     0
176
     0
290
     1
176
     0
290
     1
176
     0
290
     0
176
     0
290
     0
176
     0
290
     0
176
     0
290
     0
176
     0
290
     0
176
     0
290
     0
176
     0
 90
       50
176
     0
 40
0.0
176
     0
 40
1.0
176
     0
 90
        0
176
     0
 62
    18
176
     0
 90
       50
176
     0
 90
        3
176
     0
 62
     5
420
      255
176
     0
290
     0
176
     0
 90
       50
176
     0
 90
       50
176
     0
 90
       50
176
     0
290
     0
176
     0
 90
       50
176
     0
 62
   256
176
     0
 40
1.0
176
     0
 90
        2
176
     0
  1
strokes_ogs.tif
176
     0
290
     0
176
     0
 40
1.0
176
     0
 40
1.0
176
     0
1001
ACAD
1000
AcDbSavedByObjectVersion
1070
     0
  0
VISUALSTYLE
  5
1F1
102
{ACAD_REACTORS
330
1E7
102
}
330
1E7
100
AcDbVisualStyle
  2
Realistic
 70
     8
177
     3
291
     0
 70
    58
 90
        2
176
     1
 90
        2
176
     1
 90
        0
176
     1
 90
        2
176
     1
 40
0.6
176
     1
 40
30.0
176
     1
 62
     7
420
 16777215
176
     1
 90
        0
176
     1
 90
        0
176
     1
 62
     7
176
     1
 62
   257
176
     1
 90
        1
176
     1
 90
        1
176
     1
 40
1.0
176
     1
 90
        8
176
     1
 62
   257
176
     1
 40
1.0
176
     1
 90
        1
176
     1
 90
        6
176
     1
 90
        2
176
     1
 62
     7
176
     1
 90
        3
176
     1
 90
        0
176
     1
 90
        0
176
     1
290
     0
176
     1
 90
       13
176
     1
 40
0.0
176
     1
 90
        0
176
     1
290
     0
176
     1
290
     1
176
     1
290
     1
176
     1
290
     0
176
     1
290
     0
176
     1
290
     0
176
     1
290
     0
176
     1
290
     0
176
     1
290
     0
176
     1
 90
       50
176
     1
 40
0.0
176
     1
 40
1.0
176
     1
 90
        0
176
     1
 62
    18
176
     1
 90
       50
176
     1
 90
        3
176
     1
 62
     5
420
      255
176
     1
290
     0
176
     1
 90
       50
176
     1
 90
       50
176
     1
 90
       50
176
     1
290
     0
176
     1
 90
       50
176
     1
 62
   256
176
     0
 40
1.0
176
     0
 90
        2
176
     1
  1
strokes_ogs.tif
176
     1
290
     0
176
     1
 40
1.0
176
     1
 40
1.0
176
     1
1001
ACAD
1000
AcDbSavedByObjectVersion
1070
     0
  0
VISUALSTYLE
  5
1FC
102
{ACAD_REACTORS
330
1E7
102
}
330
1E7
100
AcDbVisualStyle
  2
Shaded
 70
    27
177
     3
291
     0
 70
    58
 90
        2
176
     1
 90
        2
176
     1
 90
        1
176
     1
 90
        2
176
     1
 40
0.6
176
     1
 40
30.0
176
     1
 62
     7
420
 16777215
176
     1
 90
        0
176
     1
 90
        4
176
     1
 62
     7
176
     1
 62
   257
176
     1
 90
        1
176
     1
 90
        1
176
     1
 40
1.0
176
     1
 90
        8
176
     1
 62
   257
176
     1
 40
1.0
176
     1
 90
        1
176
     1
 90
        6
176
     1
 90
        2
176
     1
 62
     8
420
  7895160
176
     1
 90
        3
176
     1
 90
        0
176
     1
 90
        0
176
     1
290
     0
176
     1
 90
        5
176
     1
 40
0.0
176
     1
 90
        0
176
     1
290
     0
176
     1
290
     1
176
     1
290
     1
176
     1
290
     0
176
     1
290
     0
176
     1
290
     0
176
     1
290
     0
176
     1
290
     0
176
     1
290
     0
176
     1
 90
       50
176
     1
 40
0.0
176
     1
 40
1.0
176
     1
 90
        0
176
     1
 62
    18
176
     1
 90
       50
176
     1
 90
        3
176
     1
 62
     5
420
      255
176
     1
290
     0
176
     1
 90
       50
176
     1
 90
       50
176
     1
 90
       50
176
     1
290
     0
176
     1
 90
       50
176
     1
 62
   256
176
     0
 40
1.0
176
     0
 90
        2
176
     1
  1
strokes_ogs.tif
176
     1
290
     0
176
     1
 40
1.0
176
     1
 40
1.0
176
     1
1001
ACAD
1000
AcDbSavedByObjectVersion
1070
     0
  0
VISUALSTYLE
  5
1FB
102
{ACAD_REACTORS
330
1E7
102
}
330
1E7
100
AcDbVisualStyle
  2
Shaded with edges
 70
    26
177
     3
291
     0
 70
    58
 90
        2
176
     1
 90
        2
176
     1
 90
        1
176
     1
 90
        2
176
     1
 40
0.6
176
     1
 40
30.0
176
     1
 62
     7
420
 16777215
176
     1
 90
        1
176
     1
 90
        2
176
     1
 62
     7
176
     1
 62
   257
176
     1
 90
        2
176
     1
 90
        1
176
     1
 40
1.0
176
     1
 90
        8
176
     1
 62
   257
176
     1
 40
1.0
176
     1
 90
        1
176
     1
 90
        6
176
     1
 90
        2
176
     1
 62
     7
176
     1
 90
        3
176
     1
 90
        0
176
     1
 90
        0
176
     1
290
     0
176
     1
 90
        5
176
     1
 40
0.0
176
     1
 90
        0
176
     1
290
     0
176
     1
290
     1
176
     1
290
     1
176
     1
290
     0
176
     1
290
     0
176
     1
290
     0
176
     1
290
     0
176
     1
290
     0
176
     1
290
     0
176
     1
 90
       50
176
     1
 40
0.0
176
     1
 40
1.0
176
     1
 90
        0
176
     1
 62
    18
176
     1
 90
       50
176
     1
 90
        3
176
     1
 62
     5
420
      255
176
     1
290
     0
176
     1
 90
       50
176
     1
 90
       50
176
     1
 90
       50
176
     1
290
     0
176
     1
 90
       50
176
     1
 62
   256
176
     0
 40
1.0
176
     0
 90
        2
176
     1
  1
strokes_ogs.tif
176
     1
290
     0
176
     1
 40
1.0
176
     1
 40
1.0
176
     1
1001
ACAD
1000
AcDbSavedByObjectVersion
1070
     0
  0
VISUALSTYLE
  5
1F8
102
{ACAD_REACTORS
330
1E7
102
}
330
1E7
100
AcDbVisualStyle
  2
Shades of Gray
 70
    23
177
     3
291
     0
 70
    58
 90
        2
176
     1
 90
        2
176
     1
 90
        3
176
     1
 90
        0
176
     1
 40
0.6
176
     1
 40
30.0
176
     1
 62
     7
420
 16777215
176
     1
 90
        2
176
     1
 90
        2
176
     1
 62
     7
176
     1
 62
     7
176
     1
 90
        1
176
     1
 90
        1
176
     1
 40
40.0
176
     1
 90
        8
176
     1
 62
     7
176
     1
 40
1.0
176
     1
 90
        1
176
     1
 90
        6
176
     1
 90
        2
176
     1
 62
     7
176
     1
 90
        3
176
     1
 90
        0
176
     1
 90
        0
176
     1
290
     0
176
     1
 90
        1
176
     1
 40
0.0
176
     1
 90
        0
176
     1
290
     0
176
     1
290
     1
176
     1
290
     1
176
     1
290
     0
176
     1
290
     0
176
     1
290
     0
176
     1
290
     0
176
     1
290
     0
176
     1
290
     0
176
     1
 90
       50
176
     1
 40
0.0
176
     1
 40
1.0
176
     1
 90
        0
176
     1
 62
    18
176
     1
 90
       50
176
     1
 90
        3
176
     1
 62
     5
420
      255
176
     1
290
     0
176
     1
 90
       50
176
     1
 90
       50
176
     1
 90
       50
176
     1
290
     0
176
     1
 90
       50
176
     1
 62
   256
176
     0
 40
1.0
176
     0
 90
        2
176
     1
  1
strokes_ogs.tif
176
     1
290
     0
176
     1
 40
1.0
176
     1
 40
1.0
176
     1
1001
ACAD
1000
AcDbSavedByObjectVersion
1070
     0
  0
VISUALSTYLE
  5
1F9
102
{ACAD_REACTORS
330
1E7
102
}
330
1E7
100
AcDbVisualStyle
  2
Sketchy
 70
    24
177
     3
291
     0
 70
    58
 90
        1
176
     1
 90
        2
176
     1
 90
        2
176
     1
 90
        0
176
     1
 40
0.6
176
     1
 40
30.0
176
     1
 62
     7
420
 16777215
176
     1
 90
        2
176
     1
 90
        2
176
     1
 62
     7
176
     1
 62
     7
176
     1
 90
        1
176
     1
 90
        1
176
     1
 40
40.0
176
     1
 90
       11
176
     1
 62
     7
176
     1
 40
1.0
176
     1
 90
        1
176
     1
 90
        6
176
     1
 90
        2
176
     1
 62
     7
176
     1
 90
        6
176
     1
 90
        0
176
     1
 90
        0
176
     1
290
     0
176
     1
 90
        1
176
     1
 40
0.0
176
     1
 90
        0
176
     1
290
     0
176
     1
290
     1
176
     1
290
     1
176
     1
290
     0
176
     1
290
     0
176
     1
290
     0
176
     1
290
     0
176
     1
290
     0
176
     1
290
     0
176
     1
 90
       50
176
     1
 40
0.0
176
     1
 40
1.0
176
     1
 90
        0
176
     1
 62
    18
176
     1
 90
       50
176
     1
 90
        3
176
     1
 62
     5
420
      255
176
     1
290
     0
176
     1
 90
       50
176
     1
 90
       50
176
     1
 90
       50
176
     1
290
     0
176
     1
 90
       50
176
     1
 62
   256
176
     0
 40
1.0
176
     0
 90
        2
176
     1
  1
strokes_ogs.tif
176
     1
290
     0
176
     1
 40
1.0
176
     1
 40
1.0
176
     1
1001
ACAD
1000
AcDbSavedByObjectVersion
1070
     0
  0
VISUALSTYLE
  5
1F4
102
{ACAD_REACTORS
330
1E7
102
}
330
1E7
100
AcDbVisualStyle
  2
Thicken
 70
    13
177
     3
291
     1
 70
    58
 90
        2
176
     1
 90
        2
176
     1
 90
        0
176
     1
 90
        0
176
     1
 40
0.6
176
     1
 40
30.0
176
     1
 62
     7
420
 16777215
176
     1
 90
        1
176
     1
 90
        4
176
     1
 62
     7
176
     1
 62
   257
176
     1
 90
        1
176
     1
 90
        1
176
     1
 40
1.0
176
     1
 90
       12
176
     1
 62
     7
176
     1
 40
1.0
176
     1
 90
        1
176
     1
 90
        6
176
     1
 90
        2
176
     1
 62
     7
176
     1
 90
        5
176
     1
 90
        0
176
     1
 90
        0
176
     1
290
     0
176
     1
 90
        1
176
     1
 40
0.0
176
     1
 90
        0
176
     1
290
     0
176
     1
290
     1
176
     1
290
     1
176
     1
290
     0
176
     1
290
     0
176
     1
290
     0
176
     1
290
     0
176
     1
290
     0
176
     1
290
     0
176
     1
 90
       50
176
     1
 40
0.0
176
     1
 40
1.0
176
     1
 90
        0
176
     1
 62
    18
176
     1
 90
       50
176
     1
 90
        3
176
     1
 62
     5
420
      255
176
     1
290
     0
176
     1
 90
       50
176
     1
 90
       50
176
     1
 90
       50
176
     1
290
     0
176
     1
 90
       50
176
     1
 62
   256
176
     0
 40
1.0
176
     0
 90
        2
176
     1
  1
strokes_ogs.tif
176
     1
290
     0
176
     1
 40
1.0
176
     1
 40
1.0
176
     1
1001
ACAD
1000
AcDbSavedByObjectVersion
1070
     0
  0
VISUALSTYLE
  5
1EE
102
{ACAD_REACTORS
330
1E7
102
}
330
1E7
100
AcDbVisualStyle
  2
Wireframe
 70
     5
177
     3
291
     0
 70
    58
 90
        0
176
     1
 90
        2
176
     1
 90
        0
176
     1
 90
        0
176
     1
 40
0.6
176
     1
 40
30.0
176
     1
 62
     7
420
 16777215
176
     1
 90
        1
176
     1
 90
        4
176
     1
 62
     7
176
     1
 62
   257
176
     1
 90
        1
176
     1
 90
        1
176
     1
 40
1.0
176
     1
 90
        0
176
     1
 62
   257
176
     1
 40
1.0
176
     1
 90
        1
176
     1
 90
        6
176
     1
 90
        2
176
     1
 62
     7
176
     1
 90
        3
176
     1
 90
        0
176
     1
 90
        0
176
     1
290
     0
176
     1
 90
        1
176
     1
 40
0.0
176
     1
 90
        0
176
     1
290
     0
176
     1
290
     1
176
     1
290
     1
176
     1
290
     0
176
     1
290
     0
176
     1
290
     0
176
     1
290
     0
176
     1
290
     0
176
     1
290
     0
176
     1
 90
       50
176
     1
 40
0.0
176
     1
 40
1.0
176
     1
 90
        0
176
     1
 62
    18
176
     1
 90
       50
176
     1
 90
        3
176
     1
 62
     5
420
      255
176
     1
290
     0
176
     1
 90
       50
176
     1
 90
       50
176
     1
 90
       50
176
     1
290
     0
176
     1
 90
       50
176
     1
 62
   256
176
     0
 40
1.0
176
     0
 90
        2
176
     1
  1
strokes_ogs.tif
176
     1
290
     0
176
     1
 40
1.0
176
     1
 40
1.0
176
     1
1001
ACAD
1000
AcDbSavedByObjectVersion
1070
     0
  0
VISUALSTYLE
  5
1FA
102
{ACAD_REACTORS
330
1E7
102
}
330
1E7
100
AcDbVisualStyle
  2
X-Ray
 70
    25
177
     3
291
     0
 70
    58
 90
        2
176
     1
 90
        2
176
     1
 90
        1
176
     1
 90
        1
176
     1
 40
0.5
176
     1
 40
30.0
176
     1
 62
     7
420
 16777215
176
     1
 90
        1
176
     1
 90
        0
176
     1
 62
     7
176
     1
 62
   257
176
     1
 90
        1
176
     1
 90
        1
176
     1
 40
1.0
176
     1
 90
        8
176
     1
 62
     7
176
     1
 40
1.0
176
     1
 90
        1
176
     1
 90
        6
176
     1
 90
        2
176
     1
 62
     7
176
     1
 90
        3
176
     1
 90
        0
176
     1
 90
        0
176
     1
290
     0
176
     1
 90
       13
176
     1
 40
0.0
176
     1
 90
        0
176
     1
290
     0
176
     1
290
     1
176
     1
290
     1
176
     1
290
     0
176
     1
290
     0
176
     1
290
     0
176
     1
290
     0
176
     1
290
     0
176
     1
290
     0
176
     1
 90
       50
176
     1
 40
0.0
176
     1
 40
1.0
176
     1
 90
        0
176
     1
 62
    18
176
     1
 90
       50
176
     1
 90
        3
176
     1
 62
     5
420
      255
176
     1
290
     0
176
     1
 90
       50
176
     1
 90
       50
176
     1
 90
       50
176
     1
290
     0
176
     1
 90
       50
176
     1
 62
   256
176
     0
 40
1.0
176
     0
 90
        2
176
     1
  1
strokes_ogs.tif
176
     1
290
     0
176
     1
 40
1.0
176
     1
 40
1.0
176
     1
1001
ACAD
1000
AcDbSavedByObjectVersion
1070
     0
  0
DICTIONARYVAR
  5
7DC
102
{ACAD_REACTORS
330
7D6
102
}
330
7D6
100
DictionaryVariables
280
     0
  1
1:1
  0
DICTIONARYVAR
  5
7D8
102
{ACAD_REACTORS
330
7D6
102
}
330
7D6
100
DictionaryVariables
280
     0
  1
STANDARD
  0
DICTIONARYVAR
  5
7D7
102
{ACAD_REACTORS
330
7D6
102
}
330
7D6
100
DictionaryVariables
280
     0
  1
STANDARD
  0
DICTIONARYVAR
  5
7D9
102
{ACAD_REACTORS
330
7D6
102
}
330
7D6
100
DictionaryVariables
280
     0
  1
Imperial24
  0
DICTIONARYVAR
  5
7DA
102
{ACAD_REACTORS
330
7D6
102
}
330
7D6
100
DictionaryVariables
280
     0
  1
Imperial24
  0
DICTIONARYVAR
  5
7DE
102
{ACAD_REACTORS
330
7D6
102
}
330
7D6
100
DictionaryVariables
280
     0
  1
1
  0
DICTIONARYVAR
  5
7DF
102
{ACAD_REACTORS
330
7D6
102
}
330
7D6
100
DictionaryVariables
280
     0
  1
15
  0
DICTIONARYVAR
  5
7DD
102
{ACAD_REACTORS
330
7D6
102
}
330
7D6
100
DictionaryVariables
280
     0
  1
0
  0
DICTIONARYVAR
  5
7DB
102
{ACAD_REACTORS
330
7D6
102
}
330
7D6
100
DictionaryVariables
280
     0
  1
0
  0
DICTIONARY
  5
149AD
102
{ACAD_REACTORS
330
149AB
102
}
330
149AB
100
AcDbDictionary
281
     1
  0
DICTIONARY
  5
149AC
102
{ACAD_REACTORS
330
149AB
102
}
330
149AB
100
AcDbDictionary
281
     1
  3
2460855605344
350
149A6
  3
2460855605360
350
149A7
  3
2460855605376
350
149A8
  3
2460855605392
350
149A9
  3
2460855605408
350
149AA
  0
DICTIONARY
  5
149B0
330
21B
100
AcDbDictionary
280
     1
281
     1
  3
ACAD_XREC_ROUNDTRIP
360
149B1
  0
DICTIONARY
  5
1020E
330
21E
100
AcDbDictionary
280
     1
281
     1
  0
DICTIONARY
  5
1020C
330
21D
100
AcDbDictionary
280
     1
281
     1
  0
DICTIONARY
  5
1D8
330
1D7
100
AcDbDictionary
280
     1
281
     1
  3
BUMPTILE
360
1DA
  3
DIFFUSETILE
360
1D9
  3
OPACITYTILE
360
1DD
  3
REFLECTIONTILE
360
1DC
  3
REFRACTIONTILE
360
1DE
  3
SPECULARTILE
360
1DB
  0
DICTIONARY
  5
1D0
330
1CF
100
AcDbDictionary
280
     1
281
     1
  3
BUMPTILE
360
1D2
  3
DIFFUSETILE
360
1D1
  3
OPACITYTILE
360
1D5
  3
REFLECTIONTILE
360
1D4
  3
REFRACTIONTILE
360
1D6
  3
SPECULARTILE
360
1D3
  0
DICTIONARY
  5
1E0
330
1DF
100
AcDbDictionary
280
     1
281
     1
  3
BUMPTILE
360
1E2
  3
DIFFUSETILE
360
1E1
  3
FBXASSET
360
698
  3
OPACITYTILE
360
1E5
  3
REFLECTIONTILE
360
1E4
  3
REFRACTIONTILE
360
1E6
  3
SPECULARTILE
360
1E3
  0
DICTIONARY
  5
149AE
330
219
100
AcDbDictionary
280
     1
281
     1
  3
ACAD_XREC_ROUNDTRIP
360
149AF
  0
DICTIONARY
  5
F11A
330
203
100
AcDbDictionary
280
     1
281
     1
  3
ACAD_ROUNDTRIP_2008_TABLESTYLE_CELLSTYLEMAP
360
149A4
  0
XRECORD
  5
149A6
102
{ACAD_REACTORS
330
149AC
102
}
330
149AC
100
AcDbXrecord
280
     1
  1
AcDb_Thumbnail_Schema
102
{ATTRRECORD
341
149A7
  2
AcDbDs::TreatedAsObjectData
280
     1
291
     1
102
ATTRRECORD}
102
{ATTRRECORD
341
149A8
  2
AcDbDs::Legacy
280
     1
291
     1
102
ATTRRECORD}
  2
AcDbDs::ID
280
    10
 91
        8
102
{ATTRRECORD
341
149A9
  2
AcDs:Indexable
280
     1
291
     1
102
ATTRRECORD}
102
{ATTRRECORD
341
149AA
  2
AcDbDs::HandleAttribute
280
     7
282
     1
102
ATTRRECORD}
  2
Thumbnail_Data
280
    15
 91
        0
  0
XRECORD
  5
149A7
102
{ACAD_REACTORS
330
149AC
102
}
330
149AC
100
AcDbXrecord
280
     1
  1
AcDbDs::TreatedAsObjectDataSchema
  2
AcDbDs::TreatedAsObjectData
280
     1
 91
        0
  0
XRECORD
  5
149A8
102
{ACAD_REACTORS
330
149AC
102
}
330
149AC
100
AcDbXrecord
280
     1
  1
AcDbDs::LegacySchema
  2
AcDbDs::Legacy
280
     1
 91
        0
  0
XRECORD
  5
149A9
102
{ACAD_REACTORS
330
149AC
102
}
330
149AC
100
AcDbXrecord
280
     1
  1
AcDbDs::IndexedPropertySchema
  2
AcDs:Indexable
280
     1
 91
        0
  0
XRECORD
  5
149AA
102
{ACAD_REACTORS
330
149AC
102
}
330
149AC
100
AcDbXrecord
280
     1
  1
AcDbDs::HandleAttributeSchema
  2
AcDbDs::HandleAttribute
280
     7
 91
        1
284
     1
  0
XRECORD
  5
149B1
102
{ACAD_REACTORS
330
149B0
102
}
330
149B0
100
AcDbXrecord
280
     1
102
DISPLAYNAME
  1
Imperial24
102
FLAGS
 90
        0
  0
XRECORD
  5
1DA
102
{ACAD_REACTORS
330
1D8
102
}
330
1D8
100
AcDbXrecord
280
     1
270
     1
271
     1
  0
XRECORD
  5
1D9
102
{ACAD_REACTORS
330
1D8
102
}
330
1D8
100
AcDbXrecord
280
     1
270
     1
271
     1
  0
XRECORD
  5
1DD
102
{ACAD_REACTORS
330
1D8
102
}
330
1D8
100
AcDbXrecord
280
     1
270
     1
271
     1
  0
XRECORD
  5
1DC
102
{ACAD_REACTORS
330
1D8
102
}
330
1D8
100
AcDbXrecord
280
     1
270
     1
271
     1
  0
XRECORD
  5
1DE
102
{ACAD_REACTORS
330
1D8
102
}
330
1D8
100
AcDbXrecord
280
     1
270
     1
271
     1
  0
XRECORD
  5
1DB
102
{ACAD_REACTORS
330
1D8
102
}
330
1D8
100
AcDbXrecord
280
     1
270
     1
271
     1
  0
XRECORD
  5
1D2
102
{ACAD_REACTORS
330
1D0
102
}
330
1D0
100
AcDbXrecord
280
     1
270
     1
271
     1
  0
XRECORD
  5
1D1
102
{ACAD_REACTORS
330
1D0
102
}
330
1D0
100
AcDbXrecord
280
     1
270
     1
271
     1
  0
XRECORD
  5
1D5
102
{ACAD_REACTORS
330
1D0
102
}
330
1D0
100
AcDbXrecord
280
     1
270
     1
271
     1
  0
XRECORD
  5
1D4
102
{ACAD_REACTORS
330
1D0
102
}
330
1D0
100
AcDbXrecord
280
     1
270
     1
271
     1
  0
XRECORD
  5
1D6
102
{ACAD_REACTORS
330
1D0
102
}
330
1D0
100
AcDbXrecord
280
     1
270
     1
271
     1
  0
XRECORD
  5
1D3
102
{ACAD_REACTORS
330
1D0
102
}
330
1D0
100
AcDbXrecord
280
     1
270
     1
271
     1
  0
XRECORD
  5
1E2
102
{ACAD_REACTORS
330
1E0
102
}
330
1E0
100
AcDbXrecord
280
     1
270
     1
271
     1
  0
XRECORD
  5
1E1
102
{ACAD_REACTORS
330
1E0
102
}
330
1E0
100
AcDbXrecord
280
     1
270
     1
271
     1
  0
XRECORD
  5
698
102
{ACAD_REACTORS
330
1E0
102
}
330
1E0
100
AcDbXrecord
280
     1
 70
     1
 90
1959938040
 71
     1
  1
C78627C1-2952-4250-AD13-4433CC6D3613
311
504B03041400060808002249EE528CA2DDAA35010000A80100004F00000045394646434135312D324339412D344237452D384246362D4437463232453434324342392F4173736574446174612F446566696E6974696F6E4974657261746F7250726F706572746965732E62696E35504B4EC330101D588058B040E2002CD89A
311
241E27699010CA97151B38007283A7AD94A655D3882D4BAE3077F29D8C2DCA48CFF37B33F3E41F007027F3219C797CFBF7DAFB17339AC3A67FEFD766ABE1225486DD520FF73E2ABB58658D94A22D168D50599A89AA4D5391C749829D8A2B55C973CFBBF4680CE979388695AF9BA937C3A047B39BA71B5F38DDB8DBEAA3BFA5
311
878730740510DCB707FC37A6B069F5A72888FCF2D09FFBC7673D4DE6F814B545D7D5659A085917A55055DE8A45D565A2C93B295BA5645D15D19B9976F3A1375354E78B4CE6B5A717A9144AA6B1289B04855288759D359825181DD773F89ADB206339EACD10C5D149C2C77E5C31A12574444084148C892C912306620C1933B1
311
257664812C86A665B296AC2307E4D073C931394BCE31000386516006CBE0188111C326FC05504B03041400060808002249EE52F6B7F04515010000300200004500000045394646434135312D324339412D344237452D384246362D4437463232453434324342392F4173736574446174612F496E7374616E636550726F7065
311
72746965732E62696EEB606060F80F0540260323103700495E20ED9E9A975A94991C9C9C919A9BA802147036B73033327736D435B23435D235313235D075743134D6353131367676367331363334664768046931363471713532B5D435052AD235313332D475727372D13534373670367376B67474B5042A03DBCBA019D37F
311
E8ABC6157B20CD04146B0062181F4C03F940F0C11EA29A8141C08141002C0426541C106CAC2CA046088033B02A030AC2157C6006F21A8018AAF50194E6010A610250382264E08660284CD9E98021862280A91564B406929A0FF62C401E28B6F88038B83CB1243943D7A928312F25350524030321A91525F1AE29E9A9FE7E30
311
2114DABD28B120233EC8DD29A0283F0D4506C281C8BBA4966526A70255310000504B03041400060808002249EE5288E57597CD3F0000904100006B00000045394646434135312D324339412D344237452D384246362D4437463232453434324342392F5265736F75726365732F43373836323743312D323935322D34323530
311
2D414431332D3434333343433644333631332F7468756D626E61696C2F302F67656E657269635F706E67355B773CD4FF1FBF73E71C0E67EF7576C9DEF3EC995D46C6A1EC5046649CBDF79E192942562825CE965D8A868C2842C8DE9FDFD1F7E7F138F7078FCF6B3F5FCFD7EBFDFEC41B196891913091804020321D6D7513FC
311
77D8C5070EC3FFEE51B21F068154CC75D455CC028A3EA68992803810109FDDE5D5CEC5521B28A1B422BF80741695D5B529DA1C2D058AD2388BDA9F476F7C2CADC939304173DBF48A452BF8A700C0C70C3D121C1AA15A5270C22E2B9E28763651F7DA0D12CE11077B2ECD0D560B5E3DE2368B1E65C5E1C87384A4CC5F2D9FB8
311
BE39E9B77C753783A37998F5CEF1B4FEE553463245C9712270880DF339E0B882A6BA713D865F6F384C842D440934EF264F4A304F8DE4EEFA1E2BF5E2D91F5ADD9613D6E31DDB33ED31DB1D7916CAF091286EA3D31B9CFECB78BB0060245B943C4C040119FF780A74DD308BA9D028678674EB5504ECF284EE814DAED07440BA
311
F649BE4B55DA2890F4D73E2D489A59EE54FDB0A85B59F2F52C4858A02705C4815A792B0C4A996A2023ECB195073E115E3E3647F64243A8338F2000BCB58DA5692C7E7C3D413F963FEDF3CF00FBB0F831A9D51360FECA43819F527B89FA260EB63C5DA676830AA3626A3693B23F1A17A0DFFCE3EE164E31B5365EDF0C89EF64
311
D8E38AB0BA9A1117D7C3A0EC44F44F4023095E80BA610DE336D0F99593A88BFC5306E72DF98F7FD132ED95878DF2964EA7E43071359FD83B2BDF9C6B5BDF768F0F3C0FC351199526F53D9460A34511F75D1B63E488178569472C91A94497807A3FD4A390C6558F26D416365C3656DE6E769DA9D8FC73774E1709812842DD8E
311
F96AED1960F79D21B395CDDFE6F92CB4EB962A4668C76990E2EF29798C8941D67DA50F4A5F947872460F1F6FDB794E8A29FD7AC0C0D6E0714339CE258FB17AE8535221E3464A10F29A0BE5EEECEFC5675926A89F49EB14E5711894F6586DB5754EB4D5DA9C6437EBA57DB97A24F8B8A8DB295FFD73266CF57E82694DF5166D
311
DF93573AFE9C9C5EB05F8FEF8E89E0A8917B0B3724DB7BEBB53252581EFC3E38166BA131A3A5B42FE2AD00A769BBFA4458D2DE7822F8C4F63D0B8E21B285AE13325F3410A435C648C9D91FDEB109E73CEDA7BC796961AF79175E1A3CE4C5E8B0D009B0C9E29EFD98BC8E97554E3D8D838424E270F7685226E5AC268E021EDE
311
3522D583E8F20C0BDE2959EF5BBFEEDAB32FE9A3ED0E39F211A86AA9DEBFC68182EDED132AB8BB794442D2D7EA9F4D8BFF52BC4D55BB165124EE90A42D101E67BBBB292FFB4F66DE5BF2300E44546757DA7CEF8932BFC9F92A0707953491A55C5A5ACEDABD9FA1AEA01BAC3DC5A24E22E7C47213493996EFBC369D086ED939
311
7C9BA6C7F9855C7BD5E15BFC8C53DB3D2A4C5901A57ACD2FBDF4D1676E95338B2C2BCE65FDA4C64F5FEFDC7D9CA5AA1FCF11E193F2FDABF0F4916BF13FB916A224380E6462A9815F2300DC49CC4DF8D055CEF76462F4B7A7ACA7365C2707891370BC1D0AA6203C44CCAB47084FEC057F27FFCD57F89B8B9852459798A675C6
311
6BD7CE572CAF71FF7E6D7ECF7BF62CAB7B3F1107DCD04DC55A3F9961700286141C94A4F771FEB2BCDA2DDEE0CB0BAE402FF1DB0100F8E475DFFFC074DDB4498AB7D186A7654DDB1CB680D703D47CEB4E72F8CB13D86A4AA68116E26387B93FD6738779B34FEDB8E517EDF2BAF28D9BE93A1D3A164320E07D42E514725C2951
311
5FF361754213EDE06B079A2E99EB1CA82A02019EADEEB87B9AF005BD04BBCECB14AACD6B24EFBE482194A97DD32400685FF1FEF1544D1B14EFB1E7F08E6D2CD2AF52DE757F35F5E62332EE88EA26417AD5C3E0E319D68F25414E6D672BD4522B278C57D18F0113921C71D96527E091F00CEB15AE23D24667369BD3CEFA10C7
311
549D930890BA4366F4EBC55F01F746109F98ABCDD5A3EE06619C6AD78AB33E48E4C9BD21BF7478B385EC05C4F8987E2C1BFA0A60EBEDAA0AE0B015C2720ECE180FB6F2DEFBEB822D96338C9B63822183BBF52FB664A7AE57003AABCE512BF77E7E31BDA2E739AC4C131657DDFE5225E900FB56CC01CDE808FA4A9C9DA16AC6
311
79656BB64796283D89812B8F91136AE18EE5EBBAF47A73BE3C153EB5D4CD491B4BFB4FE690A4CF9ABA08C0D8AA64220C438C96EA6CA80B58FE5761E697B3A292EB9FBDA502FA863E49FE694ADDFFF9D62C520BDD1A22014147A0903A05B9B729F54272EF83931FEEC057BFF8C8055C279EAC5C0011804828734024F6CFA319
311
C9CC6867C727184465CD9BB7ED386AFFD96B294A85E3802FAE47244602D8273615952B98C4F23F7EAE4463D9D638EEE374A20959E0FE519C4CFB0FBFE5DD80C2AA3F9DB961D1BDE57E67C9BB47B77FDD74EE3094F5DBBE3EBC1FBDB7393F5116263009E2EFE1AF9A221B2AE234C902BF70E9F280ED23E73908361565964333
311
A3F01D0B006AF32FB21AA1316744B489D5A198E85299241735BE559675130955C902A8ED761FC0DBE337A9F91919AF5CE32AF902ADF9AB2615E00E8A94586BA1A90839B61832FF1BFB76D2EFADE6DB1BA04CCAD3DA649E7E2A0219F592E22F2AD54847EEA8E42271011E9074F8F3DD9FBA6CDF88FFC9FC7E811AD1CA8F4557
311
CE4AFC7BBEDCF0114A48689F20A584520C74DA8127124B767E2FB91A6B186246727BE63C9445BAE02088D58B8EFDC0F1072407CD9B89A13F6303B4A928F593AD489B58E6869325790ADC406036C591729FE14021F94B7796BB11848D463536A092A26F077F94639F7CEEE2A724C66EC885F4A24F8B8A0AC321F8FD149BA529
311
460FAA34E4663C02D41FDF80BCA222D42F0ABFF8490F4FA74C673807C2051D8E467B47B616072860069A9A303ABA9B319D58404461401B0A0F9BE5E1E151C14BC33B32ABE03DDE91708DFAEB15E7C0D593C86BB7D7EC17BE56E57975F077BFD5525F3A1A361D584A75E08CF29FC7B44B2B3085014F3A5A14517377C3F6B8F3
311
7E59514C3B12F8AACDEDDA4DFC49BE5710101534CD6FB6DE15B50F11A09472AABA727F0C49D9CB906B158030065F48EB3625E010CEC1D511D0053474B11E6A4F01C0D6EF1BED3A944FDEC70E0DDCDC756C86545910E0DAE3BE3AA9A404574C2995CD5CAF9549226BC94B4F4F0F5F9086F418F6B32346464610D8BC7391D3C3
311
A3CCF04CFC1FB2A3A3170E369511868F14EEA4E5E438CC73DB1F3248AA94B6B2FF33B222FF3D1E7BF146CAD229770158063BCE4F5391964DF62F7E52A7BE0EEA829C9E13C4C147D6F93FE59E111DAB5E4594D6F3CD1AD375EE039930EFE5AF2BB2D41C83C7DABD8C659BAFBE8FAB392CA634F3D15C1D945DB4588D2B0824A4
311
EC928AAC565557CA2F0DAA588CA5BE30B3A8004F7BF005E96CBF891D7F18112A3619FDF530DC8AA64954258E1811789B5189B49B4EB53F5F89F7D37523894F3EB57B373763C91E502F52CC99EB7BDDF933FC324C4FFC2561DFFA7339FAFDD0A4BFBE6D3A8FF9ED1FC49898139864602458968913181918F719CCF5A68B2EE9
311
C1FF050E34E63107003B8120FA982C21B30A874E4F5E4B38D5A8290C4B8D9BE48A0BE31EA995BDC37AC6DE90BA17D259DEF53605D55922FEB1855D915B659FBEB350EE0DFB2F9F766E1C84CC8964B75D08667445EAB966015F63A18A9E0A325C1B3DC628C0D3CB60F767FA93CC65F25458BD23C3B312716E5F40E5858AC06E
311
BA9AB14F95DB99147B832069201541D09A0D856E12C629CF32683760EE855537D1901988D5EBC156676C7DD51D7207CF3267AF1D76C2AD867315E44618015313A98B19941C696FED3461CAA9B5415F918556D7802EDACEFD6B2E45853A9735DFC9DBF7E440F9319F8B6805A973BCCDC76C069A9144E51F187EDCC12FC31B5D
311
EAAF0A76137199B106EC84ADA6B6EE697D4E6A96E007417F4E880E8B1E89B4BCE9D81EF611E2ED8F0C1A6C25F620FAFAAB656A7C42D464880E8AFAB0E0FC8EA38CA9A8AEEAEE3E4648BA4680270A89743CDD3E6C6CBF34B7B640EFA285ABC7EA0A1E28F3CC963D114A80123EE66D0AF7D5380EB41909B605AB4765B709B808
311
590458157E69BA1378FEC4B48CAF6A730E3BE3C5EF2DD1A5EAF94B1DDE50CEB55DDFD7EE9A16747FA4B223359FB1FCC69E1194892BABB93A1D5C4E807AC0EA2E30180811E77A2291F6E7F7FAA5E0F60215BC6024E48DE436C511F0628B8CA189982D4D83CCA17D305A7E923C37941CFDFDCD93ACAF735EF5F0E61BBD3E6C41
311
A59B242790D3A3BAC7064DCD89AA2E37214EC839820949D5CAA31E240D2948E48F690298974A96BA9A8432BC90F5071D6537C9666EA4564796B7AFFFA548077BEEA75F63083435074BA182F3699557397F71548383FDA8CA34D99B981E72835ECDA5DDDC151315173D05A21F651AAF8524E88209E2E7A737ED1045800CE339
311
0050BCFB8BE588DF111617874C62575039CA588EEFDEFEFE319B739DE2EDC147092A262611E159650E787917885EF08F1F51B8F2D8A71D60B58B190FEF9541A1BE94BC19FEA50784DA1419FE4B0FB51B8D36B5FF8E1286FD8AF42B91E59A5F1CC4D60174E764045FD8C57B18209B217F89A62252BD20BE0E63E12B8E8F029F
311
E19E0E8D0870F58721A557082250D5424F7909369376E41666C0EE77CD87CB283F661D5FB6D0DA023CB67320A20DC7BE661E9E1BFE5463085C557DA1FF9BE835733766C3D139F2CF9E2208873AD0EB4814DE9E6BF2CAF81614D4D43906ED1C05A3265CABBFE192770FC2F64F940CB6B17B5F166F133C9AEEAD2641807C3E69
311
515171DD74C4A85311513D6EC9530B3B601B6BA3EBFF3B5C3D2F7D69765141E345F75433953D013ADDF8F6AA7DC3F4A7563FE5C7D367937E2900D7EAD0F9FC9A4A1A9B5BDF1FEF08532660C01C5D6DE22199AA774383E306DAB87E301ABB7D213887F9869D4942D0D71E94B27EDF216A318BD488D45DF84529EF575AF3C393
311
8C0AAA0215B01994153E2054A0B894DA5C784980633AAD48576957CF4AEAEAFADC7C587368551C73DBE1E57C58AC713303A8BFC258BD04B51724459FF9E24C03A81E0E0679CEB9B348C0DC998FEB9C6D6EFA77D247CC8F92D3848599ED89A23218D0636465AD1CEEB7DC140D7426F83491C4E8E8281C2FB35240918FFECE88
311
0CA2A42D70E8B20B34DF5221C7DB0CF90ECCB9C745B37A47E9B716FF7A97B7A252C1F3814DC7B1E1A7F72B8751D524EF7CAE45B0C73B3BE7D08ED39781B380DDFC9AA4A4749C9493DB5BAD07A6EA6C092FBD0E85DB004DF06B8C9D3089C5320187E4CE1846158C7EA7DDAE8AD9AFFF21AA3A1026BB06A259845E8232DEE628
311
11A4DA9CEAB3A4887320B76E2AE5615EAB7BDF738CBDD01F1E64064BC13D9EC53576751CA8CACD58B3CEB0E6CA585BD089B2A59B9FC101403387AADBDBE70586B93D64BF3AD4453EF9C3B6A93817E8346991798601344F79A83C51F3D50F7BF2683A3605F51A72449489E0EE6169C749C60B1035651103AEE24D24E51A759C
311
840DD3FC6504DA6FE107510E447B43461C79D22970B75DE5E1BD3007D1AFC619A4A4A69B5626AF5E9B8374E20677F77E2F8E73DF868E8BEC7EBA7B6A75EEF7205E1AB9486CB642741D6E03FF13FCCEDB1C4AC129886268B01CDF4B124AF797CF784F3C6DEC97A17D4B558070A0F1C04DA4FF9BDBF34159AEFE958479824B3F
311
58EBD1E19088A2AFDE501B6F2052368A3FD0E650A179EFAB1561E1D27527077136E652676C3670F42DCB3352F48F6BC86D2C3B0051727E41A0A4DC6CE2BE9D47F5CAA2935A3C0539AF080665997194ABECD723B08129CC5B6B21D2E7D54CD4D12610E7E9FB8306771A89576C7A982002775ED44F3F744CF21EEBB27A631671
311
D921938AAEE3EB0D19CD1E083727F607823E817BF599DCED5394E37EEBC2E88782E638920CA641EF74D4CDFCDEF06F4278ECB18E31E7E9876F2D783C8BF429C75395F57E98C2B495A3DA077EB3AC3C158608B6B57FE3EA48484D9A480096FCEE0DE880950E7E5A5714131C5C41AAA29FD19AE81AC145FA1B9E85C7169A5AB8
311
37B213493DF7E9AA4B5FBF9CDEB36EBD21EF1181B7CF7366AB2A951D01E37AF4EB835D1BE8C117CFBE7625D2EBCDB0B20C5A4B45CED0BCDE3EE8DA9DA78C2E21DEAAFFD1197E463C33CC6A80FB785669B856EFF7A8CCCA2841B5A5369173320B1170C368B2748D81062EA0296E5E2D95D7667A4A46D98A6FF475C76AAB0A8C
311
8D45E226FAFC9FE0133EA9F60111F99CA81ACE03A1D14C89E8B0D69079C91464FA1D99E651D0EAF606F345C42A8A1AA9BA391031582B96D5B4176A77AADB01F12FD298A75DEEBB2C82F0B8650E880722F8DDD90C56A7A058E5FDEF1AC93545BA27367C76F5D8F9690CB6F8DAE141EDD7971F0FB548A2AE435F224D6E5954CA
311
155512F7332029D5A1230854B79F258EC5FFDB09F5F6343A8EB193229B7F7E79B3E48F8E183860B38C8269D1B53738FF1E0BACF6AADA6D4869E9DE708E79B5DADCC09B1BC76F649731CFAF59A83FD8BAE4C749D66FA87A3810D4D62FFE826FA400C0F325D2BC0F3CA35F5847B82A2ACC7961745C823E4D863D54460AF792CE
311
6F79B5C7A33B25C3AEA6CDE15A919B6367D781E9D44F61BF828672594A3E1D9EDD6DF179A81F27EAC05B936575D73E05C209DDD2115CFB705DF9BBF3C911589B3640735E9E618FC9C36A7326C82B2205E244C55D56FDB9D5DC93CE958D4BF8174D2B3DA54CB3C09F2C2A6DFF73D23B2197355761AD421EC581284A7EF8DE2C
311
E3497C0C804D49B41DFD6A7360844E5BEFFB495CFCDB97A4595911CDBA623274CE852B5E278AF0BEB1770E9D37CD977B2766A7DED0E94B840E1E95E8C77DE5CB6354AF7871427C28ADBEEF7BA0A28E19DE9ACD75F379FE373EAE6DDDAE3834692F9C2B03B4FCA8FCA9ABE8EEEBEBB725B88A7C90941E850682CA04061A7DF0
311
CE82ED49BFAFFD42C309818FAE14755CAAE78B0F73243ECCCAD7DF58FCB9CDFAE7A4D3E6671A613639130D056C8383C8F4FCF4808C331E544DD26E4755D09EA05253B3049A1E32587CC25D72E073E2CD96D04A71BBCB0038FEC3F53D254199C3CDC67CD66640269431860225392B2CB3ECD0B4498AAE78BA1994246AE1EE78
311
F2EDFB79F6C6CB6B5E279C4D373FBC21CB2698C9ACBBEB6A4BB6B39E16AB0E421CCBFC7654D81ED86022F9BB522146F9F4772E2D0E4FA70120C95A85A417BF5078B232F4754363EB1750B2AC2148EB46B1EA72AD9B4D23ADCBC589D70106C3EC2ABEEED84DFE28E718C6C83502C28E9FDD3B09DA0A6F6F7B72B706A31C9E2A
311
331EE70DA56A083D2177BFD63C55B11D8D949FAFCF90B23A1E24B9B5018B9A17E99F2890EC302F330FE7936E2C23F0D237EC8916F5166AB84B62A21BB0B950146962D754F92CC2C8877BED8FC7B7B25726DD19545392570B3A2C66B58F027BEF412E552D12A588C4A3CC5C3193FCB3485EFFF700D0B9EEC077754A33DC1FB9
311
E25AF814628F91DDFECB667D3F7690803F38D13F8AE39353523BB08FC6760144AFA2CE28236F65EDBB3D5F59A57D612B99E3D7E5F8A851666BF9B5A6658EFC96EEB37A378ABB0EB3FDDF1303AF32C41BD1C8560745D7BD81066B0D6313359CF488563D3BA3F8E2185D1FAA3EBA1397C9D0E3DD232180A4DCADB6AF25DB3AC3
311
CC26589C8239E66E81547BC7E2F328F9884764CA37EB5DBE390DFC03A5246B456A7C3684C4377D0EEF9A350680FA9A077E8B2957B489E09AB1AD41316944C2254B5984830F691C93CAA767EECF976FA5647538830B5E63236A6F0365C1E0F3E327F24FE35EDDBD7360B0F7374837409F7A6311BECC12B7026D4FA1AE204FA3
311
F5FE904B1F420C7A9044AE58E403E7C4848E7DA25DC9EDAC79DD756FAA26B9EA83ACE8A214A2612A22AFA19DAE7DBAC5F8CDE1292A485F98DAC731A29FE01A3966E96BCB9FB5A4C8830E1B9AF0C54B87FBE221A097036E5D28D1F869F810C06A9BB0AC0612F69AEBAF893C6E7AD59460208BAB3A6B09CA4F6BDDAB8CF0D1F8
311
4B72487498395A70DCD754796E271099A567A55CF242BBED64696378BB6CF25EF0FCDB589F3A82F1116D010A9AB9FA4358809EE0C973A2B4229BAA876A70B03AB49CBA7FBE71DB1832FFD32F9BF2C8E98075CACAFB36921235D0F552B6A67E94E094097A5D7DF681B40623DA535ADA7A9AD8E9A62407D7C9A5AE51D62A17A8
311
3A23728DE86BB56115804D3F2675F2C6B87541A0FC497BF0CA86420F558C9859EBE9FAD62747E323E3AADC03FDCDDFE7407B09DA90B44E3185723C5381EAEF589765E2F7A099BA46695BAD60CEF3491B8A171F5F56444F7CE9455312C3498C74173AEA0214EC029833B34B650CBB5A5508D5091665309642791708ECF27CF1
311
1DB3D797D6CFE474453BD4BFADB768094B2147814D81C7CBAF8228DCAF5564B5891F5EF6A860EB2E323CB82AB868D8EA048880D63B0DE5341F1B3D53297B928A11E15F25E5148990F710747C3509ED14909C552EBE3973246FCE55D00564D8310BC3EBC5085D08D806799B77D6C57FDF5E55837F9E934F09C03C729271B64F
311
12D0A9F9E938107CAF7BF1EC8CF1BB9B42363D33070F4CACB425E605DDB0A34A12BB936DE286B9887A4E2E558F0886498BFF49C311D96C277CF6A9FC0D75AD0ECC5226D7E0E3572012E56D7FDE4410CEC7A6D0F997F225A2055B8B92E3956E875AE4993CB3D4C9063AF98FD45E1BAB165640A43439A2C9181A7C355B297C0A
311
0CCFFAE19B6FA3C2BA238A885FBC98B8F6DAF4B94B97304878DF4D8BFF6A4AEDF79E90ED4E68F00CD7299F4E0D83E35601AF0CBEF18C1E870E74758FA91F5131075004DB3CFCF09AE1DABC11957FD9808C92E8A678CE9DBE40DDA0E0D1D505AAFBCBA208232BFB6FB3704E8985E61ADE53DE74152F5C7DE74B1DEDCD37DC3E
311
8FB30D7EBA8B9EFFC3606BF90B8D438279CB7709FC7C00D327F41817EEA71CD9E49FE9C8C9A81C70915D9F0F15958EC5AA4C3BBFAF46986B90F188BDB24B89DE3C6F29EC3E6F66D84856EE96A35E657CA41B41EFD8DBFA16AD6E91439EA92B40B21C053249F51AE50EB0B24C770FFAF40DF12C8436366819C48E36547D4E7B
311
72FE2BBF10828583057814A668BDF183F6B2E58DFB151103E56303E63D00F39C27C4661605DB644D19175D02E3F0241E8FC3458D17AAAADB117CE9EEA690D0DB01E634878C04C2C9310B69FCAB831151E3AD293BEF6E46B0ABCECB50F5939B39C613D41E81FAE8D34CAE3C4566B761D37185FE864AC32FCB71AEF39DAA5BAB
311
88609BB980CD2F07A8F941653B529567726E2B2A58D079DD57E1E5E31426CF184A04D7B03B985F276D47406AF276FE32E3328BA866EB1FD39BEF57863A317634AA5FE467409B3873F5069EF0D71AF00AD189D17BA1974ECDB2D623E9E14086386A6AAB5807825C37B015BFE892AFD154920EC437EB945D958E18622E1E0FE2
311
FA06557CE4BB9BBD05A2D40E774DA2B65473791E314B7D6C886820B2FCFE4AA272B3B8B15E7344A145E8AF919B5454D89D36D413E87211186BF6F645E5EC94DCCE8E1C799022E4EC9BC86D7A0F2AFB1FC4B2CE48F84B3F49ECE65BAD24CADCC07EFF39AB06BE9E6B27A059938EA7208838455383DDBCFCD967DDE4650EF92A
311
14FF933C975DB20BD7FEEBC4487576485963D757D16340D9599FEB362F775F38CA4185A86F74B629C81B133644A3B18FD056E997E0734F9BE26D11C0AAFC669E2AC9FC41D281F8B2E1C35AE27BCE05F3DA295488096688719D974DF1B5D182DB7792288697F8763CFB43562C1CDEE11C4AABD5C22B6E33F6F389CFC3477C59
311
19DC0D533F8A7A1846B7ADB60ABDC26C43D0CFC8910B7C15EE22675BD02702ED39DB77A87A192CA7A543E6205B979B9F5A6B512A3CA799E198B2D5797C0AF8D1D872CA455D4D431A7879D4DD76110B5FF7F4176B54477A9EB5E4A5D11214FDA585F0382751D8E2582BA5D2075053298FEB8F1537304E32CB22C2E2B693DC0A
311
760B1DFCA751BDC445AFDCBB12820ED85F6D5298933C7EF1211E9E057684056CDA3FEF3BB6052355E162DF27C59E965A8DDB7F9437EB72CDDA3A090DE65A5B2F50326247B7EC67B73ACC7047FC9B353D6EE990F772207C6EC52B39DC2F3C0754821DAB559F7C1809C7D0DD5B0499D0442E0A6E391B3D5DB46D11E731E6794E
311
C77523FBDAA242ED67F9FA1FB684255671F63C9BCFE6E7E896D51001A6113EF2298BA494E0B0980D1FA5B9D60796554C02256B1E0345FB7C6186B6A19D2DCA270416262845FA4F42DB5D9B0A0B6F07FCA2E56C242522E001E0CEB734AF310FC8BFB57E38E03AACE93B3326A2197891E68452B26A6307FDABFEE0223D3C03C3
311
C73D2D5BC054C8311F12004CAE488E5C29287F8156A2CAA4AD0D7BE6B97264E4139F437CE73ADF52E5134C52B819777C18B323A5924E4F67AFD13B1CDC3A61793A79FAF5C0CEB718E441071E797C6DCCB9EFCF7E4A1E9F3DF3C2F9C9E8294E9586868788C972857FB0556D7A26941A7EEB9B580AD78EC40B85DC906B4120A5
311
63CA3B87797ED612D3B035962BB75F6515A393F4CB057F564CDF54F2E5A024514E6A1F901DB80C7E70B1FC05E356A7E72FABF4775B3E3FB8F70A2A8E7B6A94542BB304157978CCC999E707A29CC795E67A59CC546A5D47B368954CA7B6E75EC9E1F6FC73CE3B4F71F8CB1A6B15923D61EAAEB14626AAA9D04A26EB9C66CD1B
311
E86CA31A5D8703DE04CD1EBCE4F5CCB62F93909AD11E55799A781A956ED27D3E738F4538CB04ADABC7DAEF20BC35BA6A90BCC1DC61BA05F20D8832FFB9BC9B15E2DB838A0AFBB7E0C82A562127E0446894F427794C3037186F622BF24DE1B00AA10A23BFA47B2A180D6DA5AD6F7326FEB8C100C2D7142EB2A0B2A9D1008A09
311
BA343D70E054AB69E2A7EDB783CBD92537FAF4A44D1296AC2792729104B3276C276C951D0CF3CF3F1E6B017720A7B8505A5FF9589365979678C36F1BAF759EAF57C60F1FF5FE9DCF5F8E764FF25A2D06CF25117A8FED51884C13B2B750DB0E4F5E3D64124FCF11F0AD8F1CC3B3DA4B38ED22BF1CB2585EE6BFEBBA63FBFD44
311
F9537B9B37BDD6B358720F98A8125AED4349CCFEB0E135F19E208A04CA7E2B10711185D72E381F448036EF57C9F874E54A971CA37A639E986AC0226DC5AA00D5B14FEA9192234B3DE617814FC221C92F33F1D392F297731B567FD98FD91D989379AF567A65B8ADF177591DB90FBEA99BF4ED11B16E50A0AB1DBF1156D034BB
311
E04D69D08F939D8E92BF525A1DDAFF80ECBC95D8F45D3FDD289FD23F7D8B452F8EBB34EC082DEEE68E18EDDF072060FAD2AB1504DD4879BF67099FC58F6E9DEFBF645D16334A3E9A127C6F1AF6132CF287E433B43A0EE93812B4AA0B194E03EE3FF91EF9C6ED0074A2F6EB18A96A7C9890B1FCDA1F2095E944DB911ED54C60
311
DF16FB74C8CE9BDC7C54C4F14078CF73C2FFF1F1BBCCD7CF64F71407EA1683DBC410D226627F66E509060D5C0AFD611DE681D509DB8DD12FB1265B03C6F5C55FF4C30BD94187FF692B4F152982502F193098A789526A038AB529A52BC0DC4FB6285CBAC10A8B8DB75DCD9BDABBB221E27D1F8DA9F5EE5926A1C8AA9BA9BC09
311
239C6A7F12914EA3B59EFF7AAEC3FFCCE56F1C5C2980AD072793527565E774F4631DB178CEEC691B1F367BEA0CF2907E1D6B854D527065979DDEF002D8B2ACEA7CE21AE297737EDE1D45B31233B73FEA35BCFDD0B09721FDBAF6432681F2FD10C3E9EFB246FD6E854B344ACC9D8A0EEF876A7314B49B6A499FC650B099D650
311
DBFEC7638ADFD245E2B7839DA5AC5F7D5623FC0ECEEC8653FC9B2BDD1AD4D00A566FBA7186DD3C9CD26512551637498CADB950FEC71ADB9A5524285DE328B8EC7EC75D2345AEC6A27C42AF6D9B92155315C80DBFCABBB7DA0FAE425C4FB896B15C9BFAC4FE67DF5A23D30C93DA4D8F36FB15D100050DA6062E22AEC5F4DAC4
311
F6FEEF97AE05DE63C6D38F9E068A20BC5E3B6BCD75320C5090924E7F93640A7735B1A43451C2D91EE62C6238B797349E59890AF3A520DF4A87095F3ABEC2E61F0593416CE46CDCBE0E00E2523FCCD04408588B5B6C9DB6459C786CE378770B54F51DA3A5E1DF2A3349BEAAC234A6CF8993B598B3B25B4B113E353A4D750FA7
311
534749430F3EBF2512E7EA3FD43C6AB9A1F765A58463B306721A15D224FAFE8C6F5E3432D57EE697DA0DD5A9D4866A8BCCAAA9DFF1F06047851408FEC060471D0E3EB86BFAF46E4B5E60311DC3E3CEA147C75CF971BE74689507154FF2D2E92F15CDB2B9182B11459FD8ACAC5A85F174BC94A7F4EE4C4F5CAFA7C02E37BF0B
311
C77B7DCD0C047BC316F562A01A441AFA7931CC84A28CB9F4AA367EB515778F29BFE61195FA671F4352E5E46E3A64773F1F76EE5EB36D7BCE9BCEAD837A4D77F8DB8C92AEEF6711920D7C7D0F76B0FD0EB7AB83724CD35BCA7D36DDDF5FBB7FF6F04A91F3E2BB3B8F1A43CD659639507FF6331C5F697BCC782AE57D757A27D9
311
7F1AB9E0AEDB43F92F1B2AACDF5FEC8ADBAF9F814E2027003BA2F9E144B1938A7A04050AE5D953B82C45619165C813A10E76DD6906B3C16438064D14CDA713AEC420034613E1AC7241904A49FBF87409AFB1FCB9B72FE7933A87D8FBEDACECE4EDCF6A4FE9FB94D5DEB74FAB7CFEAE17EE965DF980DCCA2D04134994F9A2E9
311
4D2265DA4FE6AA7B7AC15FACAC2B5ABBCD7DFF542C5314FDAB2E1B9D8B65220B8E2B638BE008E8DCA22678C820C5053664D15E89F2D735B51A84955E81A443545E9FF787BE0FA700A76D136C27DA179A7C6E8939E01BE756E19CB292798063D8B97F44E8A27BCF3A614FEB8BE974A718E86F7EC99B53CA35FA24F61F2B0726
311
6684623A3D4CF073E511F3A10A8FDAFAF0078C577F4DF9D339FE7862E5FA47CF4344209E5BF76D783B1B48E152AD281B15FCB934DCDA49CEC5706B1EE8B460F435324A5CAD154725E21AB8044B75A557A79F6C807B9340AA3D92503E866F4274412926C8C504E4D5EF8C0E68DD0B028781A6B4054F11CF18941F101C57CCC7
311
96773ABC8DED9CD91FE5788806C05E548895354AEAC96546D55B0E94A59F148D061F42AA398D822CDECA4CDE79E13469BDCC44FDC990F366BA5978C15F97ED80CBFD73B0CD9B8B83A4F6845BDFBFAF034019473FB9A63BD55D3A4A7284757071574029A4D016DCCBE95DD679EF3C4880BF169422F8C89B68A988D2B13793CA
311
ED4F74DE7486C72DC94DF46B8E93D8E02EFCB1FF9B3BA10C8AE7F653DF94F4AF466CDDCEF5776687F7C4C14B63E4EED1719DC2EC482D7DBCC7AE518CDE3D5FF86D39000EC3673C0044E1D308BF05F74D1B5F033A7D1BE7F74BC55BBE3E4A20F920946CA0271EB17BD2B80E5660ACB8A29A79F5E4BBA49D4D945B6EEF4A7EFE
311
AA65E5555BBB57A7E15D2F83C69F30BBB978D2B39F1F26FC097424D39BB33CA3D87ABF64E307938B685BAD44F71556A30B7E712CA4FE600613C3E554B69ADE949A7CFE214DF1FFF05CB82151EC6FC31950239F94CF7AD39DC473F6EA356E5EC2C4EFA04383CEFE985A127484366FBEE3C0EC4FEA363E4F6632AE781392FD45
311
D67B63FB8DF70E82734F431FD3443172A0E30A83D60982D55FA6A2CF86DBA8382502ACC6CDEF3B907982EED1160E14863FA242F9757347E1544275CCDCF71ECD5F8621CBEA326B8BA884AD7F825781923E66971F04010D574C541D8427A438A37EEF8AF88240EED7362C953F5A81DE2D56109CDE2524EA0F5D2F87308C0C47
311
BD97AD605878AB8589E17CA83930CB5E0DCCD75853D68B1AB136594926DE426C367428E9334AFAFF90ECE221BB5DC9E5BB53D2CDEF954EAA9CD814F0E5725F1965DD458E5F8487683AD86B9D0076BE3EE91EB1CECC5331A67A3F79D8B27587C12EC2A6A70474749F27B4C0BBAFB94B34189E88DC18964BE4121B9137FD516C
311
7755356E50D6714E31ACD222621EBBCD1CFF81D87479056A9DA0E0B8EA19D24CF937DA89F78E8650CCBDC110AAB6C4E46DCBFD0446BA9E2060E81F314AC2031E88135E5476AC0160EF5C0DD2EEF1B8B5CB2D198BE9A554A9093B5F7D7E4B5407DDFCA1D9C152FD97F55BFFFDFE802954DFEC8995B983E28AC92F1971E28F53
311
1DC407A1280EB125F64A72E617EFB27DFBCEDCDA2D6F2BDADA36873EE46B9BE1782998C63DA7182BC383FB6FD15DA472B175D7E8B4FC88F38D6E07FEAA3FA3CBB8F6B449ECF14D2175E5C5CCA3A42ABF24CA6C9395AF74535F4DDB38CB84F56614B0FD32D7E19CA5CF988DB4449C40E23DF2B16772594554579094450F56F2
311
53CD25EA7F77366FB1CFE79696C428BB64D5A41E986189427E5E4D7E2DAE3D5BB4972B3DC44EAABDDDD63A2264ECFA5C786EB0EE1FDC5BE34FA0F08376869FD1E61EA06CAE15191135445EE8F0394161C3266A596AA035572BB0C8876180D8B9C77D307DF9DCDF7365ABDA6F3A2366436457A4DFC1F259666569A9E4A79C81
311
7BDD5610E5200FCE894A358EC72858D50EF67545DA81C6FACE3D457BAF70367E1E6BDD9A952FB4F56247F58F523B97E640246051A72F79BE42FFA0B3187F63097F91C48B868586F714B0EBD5A00A8412C1236E1298F60C72BE6C96B82B404CADAA304AE9F303176B14BA53FBC2D5E86377E35542019E24D97B96A49B2C0E50
311
06E7795954DEAF5DA58958839043C6C70BD3B1B33B6DC5C31316D8A6923F142E26F6711A2258AF977DDF1F970ECC4F1F2B434B96D81BEB6E89BF3BBB3C7C8CC80505070723D6D7D7D3C8CA27CA164A26024FED94B12A86031867241DA53D929636DA600F050BC40CE48B8BA03D69224720DEE2ED2127390BDF5E6EA64527BB
311
D4C4C63FA76BB801FEEC0E61218EC98A8A86CD8313781617877E66692839B9468CF4DB8E50A73986E558E309C0D6F676F921BE02F1185454DC75B111572FF9D27D85EA14C05AD7271225B391C4275659CA4A43759D0BA44639BE4C30A84DB7F67A41399FB95CBF923B1B1672ABC807C1590557FB18D811983FA97F5E609516
311
D62281D38B1281F68FC75528C35E4CD7DF0F7DBB5E5DD69C414EBEA2F4A5B241B996BA77AE6C772E367408C633EA3E438B68563EA8BE7667F3A4C4FDEEA52ABD78A2820F443B7914A15F180018D231E64519C56A12F6CA7C8DAE18F06F6B769DBF92329EF6A5D18FBCE600F36BD8E8198DE5CDAA96181F3A756EBA5501CEE5
311
8F497EA4F418A2B82565B9BCC611713C0B708CCA1F398B78C5F7D03B3437CC18F13061F55C7BEDADD5ACB1DB0E36D3CE47FF6EA1A563A57E9649EA5D14D1A50EAA457463381C073777EF1600607BAF6428A7DDC079D47A204EF1E1F1F0589FB054D45E02CE623B3823C317C601E589E22B1E88B448524B86A82828E32345EC
311
18AE17214B42F8C41C6D428016D9BA31DDCB47572561E5A402E5BA4FCE55F78AF7268524AA04130F3A20BA5D1E9F9948EA48FC8F5314FDB35E21898198060034ACE5E3E2BBCA34092518F275190AF65F45867FF0900AA4B81F25427414C372BF51DC29AA855C5428EE1EEDD6B849AD60F6E73475C2D2523F8A2772C840A478
311
DED18A8C5C91B085F255DC4F54EA7AA8947354FD17ECF8FB3B4A0DE7B483CAF3A1165EE05BBA413E5C1FEF3DE1D6B8F2F3F3251C17D9FCAB48A9AAF63AC773A0E413BBC46A9ADF84A566FC920E4D8C52C9769EE3301CADEEEDD92B312E02E2A7E35B7F1E7D203FE5A7D75578B06E99D0E46FFADB8FDA17ED8880390DA29094
311
202D6F645F76F6F96409CDA05495A96E84B04A00D1A6C6C81D7F3DE9376E828CCF144EE50E364ACCE7237EA0BFB5607ED1AC3CFE73794E5B61739D14DF1743441B1AC98F00ECEDE9E7301FA29755FBEFA68C91EF2B314CF510537EF1ABFC9A762496280B546F5EDAAF8A5B387D469FC9A878A92828C88608453ACEC6094DCA
311
54111E7AD5B2663DFE2DD151B7F123B9F4FEF8EE36AB125FD7AD52A59B1B765B3E3F73E3F73DEA93875004D2AFFE3CDE9493B87A9904DD052028949041A91DC0E1BA47BA714343FD5B25E0A6A09503AFC17C790058A836A324FE31D7893512E28230332F153181C1E018E1124EBE1BA262AA428A518237D1EA7275E48C5C56
311
1BD19ED6912EDD8367DA0F31E40EEAE9683DA9257525AEA7B632B97119E17145A90231768A4F3B9120FF32E8319B015E3CBE26F1A754177D8185345817C096B0CE443A955D13AC15E1FB5DEEA0239EC32A3C92241A237B0B02FFCB4F93CF2B02570C8D192E2F2A68CEEB42F12E6F8CEEFF46C251E22B4341C56FB08CCE550E
311
7A9D6F4D6564B9EA52A83D5BF2C6E03FA19D2775E15A8A7ACF30A13C259EE7F5EF2AC3BA354F1500E1A07FC63FB4686E2F12EC69719F9ECF5FE3F35598DF2CE944008CE78F0911BA5BE5D0A34E0098FF038669C26030BA9B300303039852A8F6F496341737CA7E0D2E3AAA36DE0A70AA7D9CA0D54D9AD84B18A44C9E625475
311
E1C97B93BEBB38DCE7D227E67A2D00F531436136355F243D1FC0D712C5765754FA22FCFFAE97919161F46D6E61ACB37D83777B385889770B50765B127768443A5C4D3A4E35A3151111F146B7CA116F918A049F1C272F2CD7976C69A0068773451659A97E0F4A08FE604C3FF6CE7385DB19F4D3ABC8A0D80DA8A42096AC377D
311
B49382B36E270B6FA7570188B4B7D1DDDDA82ACA487CCA5D38BD3BD039ADBAFA4ACFF27809239B722081E2EB9F145320553D183F28471C388BC8814E5045676767AB58A8E72D1CED2CA731379515D2E533E4CF0B39DFC625F97AC4836831A4DE330E87A8126FA17EBE583D614E71E22A8DBF2825599743E0640037303E8E1B
311
1E8EA4E1ABFA4F62907B5E4E0E5DCFDAB417C36C6848A2B8D15F1E505434C0707E16B1CFC2A1C36A42BBF55734F8F4301DDC2A5110CEE8C0747F69519265012A2174BF4E955ECD4FDE095A3ABC70536B7AD0B9D7892F81287D667C108703C9B66A221E9A0929D030008F77FF6F5D2108EF5706FC87A3069B976F7C9FC3239D
311
13D283CDEA83597461079FEEE049B0F392889898B7D87D31F8D60ED7B56B91823A8E4EDDB36C6172ECEE42BD42B12CD67994FA0F0DFAE9389356F4CD4425A4B8AA55CBF7ECD585C6A2C2316791E43D5C06841ADBB226A87FD61515FFBB0167B74E56BD7F3E90A57A97FEDCBDF483A0D6699A8C0849CAEB4947FAA90D8E332D
311
9DEBD9F4738C37DA0CAF9CF3DAA68BCB67C420459C7A64498D6E848E5CADE92BB6901F607AA331104A67F7CD650EE169B1DAE94D2C31C2F993632259B6957E246EFE4C5481107B07118607700040E5812A2A2A38DA0076875258C753F60E0F2662C748EDD5F3F3686B8FC3BD6FE631ECCAA1E8B1C1E565AD117E54893E79F4
311
672E32F9E46B2A183DFDCF3EECB4D4D077DBEA0DA254D256045109670050129E9B9B1A9E4A11344D61497A992778095151510C4BB7EF2009B63AA4360635312E4CF668B7E0D3D85A8688E2BD83B569439892ADB63461930D428E0DE42E4AC57CE48DA5CC1449530D8BD3D6A0F08DF20C8E8F570F2CFFFCEA286E30969B4654
311
D498A58D9DA782E19FE3F002181838925592C4A1EF0B332D88B61A92C644547BED490D3A42CFFAB70E36D961F694F6307F72FF15A1C79D5B1B5CEFD353D9E2B52566DEC8F8F09CB3E8359C0F68EBBB7898243E34E12A015B2685AB303C04D3A9E00671FF3DFF0A184E4A2ABEB2B666AF5B3A209C73D8EF29DCDB069C9F391E
311
EE9DD0F74C7BCDE16F8F02E3B8816122BBEB50665775B600549D8BB33A54A6BF940C028118BC6878C79958D6784F9DEAA6E26748386FFAF8D0D0101E2847B6563F5D8DC1D78F787BE00E2C941AE12148D4A81599FE8F68D4DA5CDED75530ADE138240300EE13B0FC13A1687FED6774662C05A2B7DFB186732F0D7A93545D8B
311
0A6390AE5054D9CB582DA846D7A061B3358B45E2B52DDE63E114397EDB7E09233A579155D795BE76102CF277F4DF8B188C4F2879BEAE3C08347124BF9ED23B128259FE107D31E34A652F090B30B39E0D9AF917B76A2806135621A8A60681F16AF216514BBD02711585B5B1AE823F4B2D0369EA5B6BCB863072727FFC871CA6
311
C9AB79A814D989057E9470A3D238BC87CBB4A0EA49AFE2B86F22E499793CAA9047080450166BDC357524561E258C77CB697F1ABB32562CF87C3B7AA12F911EF19FB3E5C02222E887D08202A60A17151F5E053A86B437771088B4FEE14D652C43E8D939995D34545E12E2FF93D4E366EAD25F10CB7DED141563C3D0C447AF06
311
078A91135FD4B9611583CB4BF3BD167F2399CEAB0E0100F8FFC305F00F1711717173138B4B48C83022295DE657EFEDD97F238ECA80F528AFB4F8D67AD4E2594B9A3AA86D7487EFC313BA95745C186F0CDD84CC12DC9CB0424B42203D351FD9C0A3AF10CC7F388E0329279087386421F194F4A29464C1DEF7EF8BE515E4A199
311
DCD5B909342598D8FE6A231F71336248D5CEC5454455C7BE383B3BC7B260FED27F703FDC39A170F3827239102F59D4DEE7FEF82EAA1A5E4BA94DCC4CC44E7E2EDE20F24244E4454369D2E87C3F823F193FD4FD27E1C23984B01898D15ABC20711A8A558054951A6AE280096BA36CBA439603B7B0B4C45F248C14B2383B4B5C
311
D8ECECE4FF859AD4A6CA2326D020EF090F4041D28DB66E5256B56232CC52829DE8060BAE6BBF37D4B7469B822454FE93210A3E8D15E69FFCF01123222611C51C4FD0A041A0CFA2471CF6BE38D2B20FA4C3525B5B8B586759475CF80ADFE67A284AC24651E52B8E683D24C2622642F27E7C3C22783BCF63648BC398BD6CD0D9
311
C97E7E7E3EACB6126DB7A6C1FD9F1031302EE67ED96F22B77C7CA0239BB324207559B105E4693EB26EC46182A92C9C0DBD24F29B31C5C5AC1F84300E0E17CEEAC15F5736FA4A98971E2F1423BFCD68D4BBD5F86E74B40A369F39507C88FCDB35D2DD8DEBEA4AF999E23CF2816D204200DF6E611781B9884C1AC8888B4DE397
311
320472959434323A5A36B22A8E1F721A270DF3BD65E4A31C11FF048AFB0D8B7B6881423793963A23CFCE935FC189ED36FAE35C46DA3574C979E4394BE52084F3081837BE033396D2EBD80F1F691B273F660D2B32FA27A33B1DE4ADA5F0FA4651511102DFA410DDA86E065272CA314D5249DF91B06BB92807B28EFD54F08F7B
311
525252782CD276DD02E6B0319B13DF87B1F6361AD6B28FC0D711CF445429B9E5A433CD493051C49A9E03DDB1B147D880253514A5DED88009018620EE229101C041950E2D8AA8E1F5F5438E0C0C0C60EEDEE9E3E0C051948C69F84BB7B2A48A1F3C8EB9E6864687F4F4F6F6E2FA87608ADAF9C5E117B7C1A737E710769DA1D1
311
5ECE6A84502AA855398712D5FB51BE92E4EF824969CE18278798AC303C2C7980DD2500ADF8FB1E6D6C2FAAFF9987178923334A244758BAA01A9A1B70FA5097D01E1CC2A58DAD0EC94CE6430AA9B0C10D75E3C6BAC670EFBADEE1607739CE0FC18A2587E3EC3058562014C64219C69BC269082D5C2F4A659278D58575591217
311
6D78A1B641719C2A394CED495A1AC5D583FD2F5EDD93308EA7EAE8A6DD396598BDBD3D4CFED62D18A5BDFDE0DD5C80D1A89BA62697B131AE7CE9A6594138582F1B37D68F1749AC7CB67A70695D48A4A056AC1FBD4E82358CEAE38F54B95A9016F9000F9879C0D9D131768635CA798895F27D6F1614F11F2838A83611AA51C9
311
A3DDB539D42979C29F10465655C17BEC3E2760B80DCBF609198C7B171A531905F3EC218D696025975E986C6B4C666666787271F202805577DD5A3EF0CAFAF91B62DC4B2DB4217A7606282F31D8DDBC290593BAA93EA6353AFA9939B877978481E15CFC9F2755CDC00C538F63A4BA3E80AE009B73CA0185687D339A507D165B
311
74290D6EE46D5C58148F020C3668ABE9EF2F7549170DC80DB41FFC1D678FF19AEB10C7133832B104B80F691B3138F97A92D26E551F1F110400D45AC71A9B9AC41A1A1B1DAEED0B0810638EFFB511D46B121C6FEA0F38CD00E03CFFEB9713FE1F9C263E4DDEC160D0497FA9A132BA608584057FB15380825DE6C7FC3C667EE9
311
47D488A09898D8E939C4953BF4EC9836344D2CC6B2971B2A21A572B06096F4982D2CC7232D46E8EA69DC83722E267754D777F97F96D5DA74E1E75178084D0E70F12AD33E5F71EF2AFA599B2BEBF60A5BE475F444F240CBFE8143C334E7ED9150FEEFEF7EB020C4DBED388DD1D6A167A76F3CBF119B578AE8CFA7736ACAFA44
311
40A1C47185638A0D2F3EB5BDDEFDA958FB13CE4AA4923D5BF840392D45544329525749734866684BF7F8D9D54D892E19BCA9F829A0F8BFCBEEA6CFDFC61D74EA1A645ED7A1FF241739F15694BD835B66FEC5677E40FE69BD3F91AE402F036537218A401CB0828604AD189E575015C6F3F6BBC8AC79CF6C70653847254B3155
311
1EFCBEB5978B9DB85D58D0FA41A9DFE9C624834AA04949D24B5AE6D299E072D152D12097920F14AA92C31C3B97E28B6C2E6E9C23D63043ECBBC0A60FDF5BD0C33C127EA8A3308B8B6AFFEB28B4455BF6E7AF4FC6222728357EB8E46E85053E6A8843AB23295BF838ABDA94658FEF3F832F147046B4ACD6F7D48E8FCC961858
311
2961C898D1C7A253C91BFECBDA6BA18A1FCF70755DCCEE2222F41B76D23CA98D0CB3D95F0CF66D57FFF65E2A90F5DF40FC3187621E981BD0BC1D992787212688976B94A8F0C6EF646624B570B78E068826F87CE27041A95C9A4871FF65CC17FCB1639629AD6A9517000D63AC231F3D741CB8430777E7ECF80CE7A3F73C0F16
311
2F7E56AA71F4DA80A33CD6ACEE78E2C11FAC03DAFCE929B106F8F6B3ED2DC71FF994BD9CEF4E9A94896EF1B6E2B7B4978168BCF0847A3D2A4F1B0500B926E634B174548E9FBAD27153FB5FC36799B1E6C7C38A94E1F9E996796D7B485E635D5287A2AE76FBD11A341DB3F8F810385BB7296391973DC6C37C452A9305AEBBE0
311
CDB6C566DB59FE60C8E94B1FD090354BF51439FFD1B48D725228FFA88C84F686F547107A7A235665A4593B7C34D748C1AC8D56DD5DA861EEFBADDECBBD65117E65851F90351AEB65F0EFCFF4BCFEF24CB7A5879699FAC437A7AF9099186CF006BB923A59E37D7A36A29FD8D2CBB914A5E9D0A8FD212FBF796AE9A67958FF1D
311
5D8B85F78F96219D4714EB919929241B6C018AAE0C02069F8D919961EC5DDFBFB7573E3AC8E08BFB7C8534BE6DE045B3CD63DBD71F7638BA2309CAE398EA3A7D8F98BBBC7AEB367EFA5CFA27A9F8F2F52FE878058E6209C026453F8E7E8A237DFC389E9590F6059B397CFD65183BBF936E86896612A5B5FEE49DAC8455D026
311
218AFEBEC12B3523A45B57B82C9C97E02ACFA1184DB18E48CF615DBF39C3CC6F0B4AE6BBEEA2E39D944E290302FA3DE33FA7E40296E2EF7BF1CD855BBECFAD0FD622BEE9746FC4FDFDE545AE6E3BC234CADF83A0FB76DFB145BF3828AE3436368AC24989454F8FF70A177672C711CAA1A76107218CF948CA01F873520E7A2B
311
118EBB161ABAD432932029628B6761590C98AB590C8C8C79798CE9F715BA696E839E9131A4BB68BE923F1747FBFF165331FFDD4D05997ACD168F12CA75348DAC04C7F509FE83898A8B421181AF492861CE81E4A2DD0A30850CFA95E05F097FF70F9E777310D584A75BA7018922E271DAB1D785671157685B7D383D3E074DDB
311
4F1E44EF04B07BAAC75A062077C54B9752C738C9D804D402E02851F3F89605AF189738C18C021D2139EAF72513824E10DDD3047BACC8521ED7E98B257D1166903B1B08FA6F918FD7E162913FEC7D0EF4787E29C35FBA8C6E2C9C20E9AB30AE42CA2A01A090E7D010C1B5BF9CEE2A304BF3A987FB40D836979B79E18D70F257
311
DA61E808472DD85B82761825779D6B90CAEB0F23360C6F80A7D7D77545E95B3DFF0CF96A827F9B5BCECD2C9698718417EF80FEEDEE938AFF55859D0D540B7FE09435583A6F04874A0C7E8CF234DF4879722000167F5872CEC6BF3EF7E5A8CC8121E6A359227C8A29C95212F9F735BC72A887D56B8F309FC525BFB4FD767AAE
311
C4AEFF249CFBBD2DE1AB9969A6155C7D8DABC307E47324C1F916C7BCFF40ABA5644E9FFB9238D19ADADA49D9610F01ABBA57E4DFCBDCCBB2B93C8953206C91DE01B0E2651A6D6C31721915B31F7B7CBCE55466F6D70402788FA91D73BE4ADCBA99A35F17D6B83383704917D6833F0FA3CD45C926ADB8BC17999A4A0AFBCE25
311
41F7B8CF4C2F5FBA611B3E626D64407CB32C122DFF4EF8674D6EDBB86C8F7C6A16D50FA685E2CCA34F8F7D1D8265BB0042E9D7F1F666F7BE5FAA5184DF58E12122A42EF02F461B3F369AC746F96528AD208512AB56844CF75B97F352DF7995024FB02855385854F3798670D01CAC771AC3E1889EC25F61A20C1F8CAB468988
311
17F9C47E2CDA1F286BF2F358298709FE567C91133E2638C8B53975E753EA8BFD3578B5F7186B7BF084EBA3F77BAC3132A5779902EC22AF2D2E79F42D324E083386DAEE9810D1B44A5DAA54513C7A71E52A4AB9257D975B621308FE4D2141CC3DCFE946C154A3C1DFCCA7629EC69ACFA831634ADDA93C0388D2A9A2DDAFCF95
311
7C6995BCE7FBB6DC4EBAE79E63EB08E9A25F52F67076F7093CA545CA3053B5BF576DEAD4E0017143C5F759F32B2D6F145B52B67B48909B7C7FCA6586EE385A2189C16932CB6DDFD9152AE317C430492A578ED27B72D85D40C7C93C097939E1B50F4D67F05334FE9DC362C30B7FF561B95259138ECFD9274C8D695C31B14D4E
311
AA9F3D7FA8DDF652F8C5DEFA23284C799B7D94416DEE81E05A866302DC70192A5368EA65E1CED8BF107A1E2D3119A71E85DC1A7B0C1E93274CE04DD0F2ABC8AC7C987FDB002B6F81757B43502EF7A0D92E416494FAEEA4C9C090CD9557AA4D532F4996A272B94355C5A0E4974EEA9627476F30809B94D8D8D860062E022046
311
43BEC7D0438AF800FC7E2B26955D595421E83C69E1A07E0E3122285835F014AD538188CF9737CE76D464A353FA55A001AB2526B84E985083693BC76FE211CA1D000679C889E3C009832C87E1AC2EDD05C302557422DF0800E316FCAC86978A371F025A6C7DAA9F333E7BD160403A1A06EA75AA9888FF01504B030414000608
311
08002249EE5228BB58AF800100009E0500003D00000045394646434135312D324339412D344237452D384246362D4437463232453434324342392F536368656D61732F436F6D6D6F6E536368656D612E786D6CBD544D4FC23018BEFB2B96DE15493C78601010A34B880709DEDFB52FD0D8B54BD70DF6EFED3AC0B12E6442E2
311
716BFB3CEFF3D18E26FB440405EA8C2B1992E1C323095052C5B8DC842437EBFB673219DF8DA659866649B798C078B48AE6410122242F2A4994AC7F93815DF85C049C8564CA0A901499DD886B2EB9B1E02448F358701A9235880C49A0119892A20C89D1B9FD768815CAD268CB5E0355B40B1E47F3E37A2020464BED06AA57CE
311
8FCC20C3C3446D46761A2632A8C1283D07031EFF2AE7CCB1BFEEE916E406DFAC8E36FFD99A9D60A6944090EEDC3B670C7DC13DE86B6B2C5C240D6E503BB85ACD579D513F1B9F9A69DC9CC22AFA80C426D40AF0B21EA168559156B6276F0F726A6BFF04DCD513A87A62CAD41FB24FCB2858B3952E3D852084DA25B9303C1568
311
7973CC8E8AAE11DF2836C38C6A9E765E8C1BA1BFB1DC29CDFE518C8B5A7655A4ED7E77291ABEB80DBD82EC866ADE1B8D05AF9E35CF09D7A061F38A986D9EC412B8F0F65E5D81534D9B231D1E5A8FE577A241F3A5FD01504B03041400060808002249EE52E336299B9F040000341300003E00000045394646434135312D3243
311
39412D344237452D384246362D4437463232453434324342392F536368656D61732F47656E65726963536368656D612E786D6CD5585B6FE238147EDF5F61E5BD1498E9A895A02398AA5D1E2A5665BAAF96710C78D6B9C87168D95FBFE7F81242134A968E469A4855437C72AEDFB965F4F53551642B7421B3741C0D7AFD8888
311
9467B14CD7E3A834AB8BEBE8EBED1FA3495108B3E01B91B0DBD1F3EC8E6C991A470F22155A72F73CBABC1D4D5921DCD1934863A11F990102A6F61466977B8AC49FB13C174CB3940BE4504A22E3713489B7F82406516225536940BD88E4E552493E8E564C1522225AB0384BD56E1C195DC26FAB13882C2EBD62E1FF9E5B0FCC
311
453132C99548446A1872B62267078F1EF14C3DB1DD1952DDBBB384AD456779F387C51992E0ADCE12FED2622BC5CB1952FC9BDF3295E9206E961AB116DA7ACE45F76F07A26EFC3FD762FD7362FC3C0BAA4DB34C09E682CA5167BADCD16CF94370E331E2F1A3D852008AAD5D64BA2373478338AEB1583B905396D158182655E1
311
B938D07926CF007CC7E85E6709999B0D3827C0BF406BEF55C68CF5579DA32C8C85BE03EFE788787E8FEC95DC85C3E31A615658D81F9A34499612004CE69CAB12531B15A887ACA642C110F8C1A8C1974A85853F407794695C905C688E69B116550ACA946B9B4785FC179E0E229240B62665328E86D5BD2C800CF5D80289F35A
311
C25E3DD51508F4BF9A74A0F5A557BB3D284BC6FF59312E282F956A75C5D453906F48D11A876599E49425602400842995BDF02C4D012E226658F78A710416AC552831FDDEF0E6F0BABEBEA9DC36718CCEF4DAC5A0DF871AECBDD8F448F015F8DA113A473609D1751672B723874B2CAB21ECD6E284E51DCC7D1A47A00F60EC21
311
DC4CC3CDC406DC03760A4E6C772F2F4D561A9AE58C4B03F5B4838701472139EDCB36819A66C472B52AB1139C648956F43E0DAEC067B56B0818F5961D3D446B8F1E1E78C0EAD7EE02AF2895D813E88AC5014A7B436DBB20F778D40A1D9737EFE45B47D49CC8360F9966B15AABAC802C1005548A93EE469F5D55317CD8BF0AA8
311
6CABADB2A009D4D6F60CFE53AE370AFE8C45415B15D362A5A038E766E34B00F8C2E3E7098E2093B1C96349FDAEA158903B4BDAEA665F473FECE72186E3BDDCACCADA31839CD6D4FA7D47DF5469006ED340EBE71DF960DDEE88A3E17557039B58C278A1795BA8079419DA8FC5BA1BAA1A66238BF69C7B2BE4E6274839122B7D
311
00BE8B7D52CF61B2D63216046008C8B330FC10F8907787DEF061F47965BBA02FD8F53BA12F9827614979F53563D0BB1AD67A03DC0E00E2FB2CF3EFB457E70E65A3D7C78E7D700DBB45132AE9BBA5E468CD861408961AD8B00A55C2FCC677F4456039FD9F1907A5B3E2D0EE845FDBA2DAFA88C64195671AD6D282DA2E45B1F5
311
0A0D632B0D0B6718757DCC7C84A70A3656F222CDA6DBF07E204AB358961D1BE31E53A82C2C0D56DBF61A5608B5A252A932A1DC6E32462430853353EA30417C8199A662E946A4EF352268B8CDB9A9C6762515ACE8E09BBC031C608A02C4BA89C9DDC074E46E0E26A17BCBD4ED43270D03E3645ADB81F6D62CC07A3243EB81C0
311
7E01681DDF2DB4730631E6DDA6CBBD048BE9F06AEB3CF06B31DD6C9575E37E9FF17161342C4C76D95519672A6509E0F5C4E71B4B1916440059F57D0921F496237E473A83E3E4E06353BD9D27593594D7B6707C08D22FEBDFBFFE03504B03041400060808002249EE528DFFFC99640100009B03000045000000453946464341
311
35312D324339412D344237452D384246362D4437463232453434324342392F536368656D61732F52656E6465724D6174657269616C536368656D612E786D6CA5535D6BC230147DDFAF08799F5FDB600FADA20EA430D968A7AF12D36B1B481349529DFF7EF9A85A718860DFDA73EFB987734EA3D16FC5D10E946652C4B8DFE9
311
610482CA9C8922C6B5D93CBFE3D1F0291A6B0D26A3255464182D920FB4233CC629881CD49C18508CF000E3EE309A100D61622AAB4A8A33B2483F11CB639C545B0E1508438C3D3C0361192846DB7ACD198DF186700D182920B914FC1063A36AFBEE8FBA03FFD3CC1D1F4FC9E151A2AF59F628C5B7821D83FDFD3489305080F2
311
EE04BF962195FB285E9D2DD352320A9E827AE357594914E42B1F5FE35F83688F60C4C91A6C946ED0668E8F244BC2EB0BA6E3BCCFC0B6A4B507F9F9F8D51EB315D9BA9E08D308E89F96931666E577837E2B4172199C68C4FE306156D47DF51C698C7B9D97FE5BEFE2190C3C38BB054E6E8163FB039CB4B993C80BF18D969203
311
116D6BBD26238B821F9BB909AD6D9C71B85BCD8C33D66FEA3D31B4BC0AD45BEA46BBEDDFEC0F504B03041400060808002249EE52E68DE2D351000000570000004700000045394646434135312D324339412D344237452D384246362D4437463232453434324342392F4173736574446174612F41737365745461626C654F66
311
436F6E74656E74732E62696E536160607036B73033327736D435B23435D235313235D075743134D63531313676763673313633341602AACB4D2C492DCA4CCC492C28484D2C4ACC4B4E050A82012F90744FCD03CA26072767A4E6260200504B03041400060808002249EE52C55C663656000000680000004500000045394646
311
434135312D324339412D344237452D384246362D4437463232453434324342392F4173736574446174612F53747265616D56657273696F6E5461626C652E696E665D8CBD0A80300C06F73E4B29FE6CDD8A2E82A083B8B7F209014925C9FBA3AEAEC7DD2555D896CB85E51C2A1BD834F6A1F56EC4494C4695278364ABB24ABD
311
2146F88CCEBB89D5321FF8F3F43D672A3B44DF3CB6A1710F504B03041400060808002249EE52B16719C436010000A20400003600000045394646434135312D324339412D344237452D384246362D4437463232453434324342392F4173736574446174612F636E782E786D6CCD944F4BC43010C5BF4A09786CD216C53FA459
311
442F7B5270F1E06D369DAE61D3A42453D16F6FB2DB83B2E2690F859C86DF4C5E1E7923579F832D3E3044E35DCB6A5EB1029DF69D71BB964DD49737AC582919BCA71F182B1C0CD8B25C664AEE829FC6B9D4610F93CD556BDC7E2EDEC788B481ADC5A7FEC13B42479115DA428C2D8BFA1D07E03091EF30EE790704BCE601A39F
311
82C63489CC80F3241D10083BA69AAAA9CBEABAAC2F37D5ED5D3E576F526452C9ADF776E64DBA2CF8F1A2A9F4F15EA62A2932A0E414CC4CE5D730F5974ABE354E8A442A19292457E60EFA1A53078CA3351A289927BC26A43241088314475849915DF8E5C523F6C699DCB24ED2807C784E023190C1057AF29FDAF37BB37691C0
311
695CB223A71ACFEFC3CBE117BD1E6379C8CDF2D272AA911BD79F212BE2B04E5274F27651DF504B03041400060808002249EE52D0410281E6000000600100006700000045394646434135312D324339412D344237452D384246362D4437463232453434324342392F5265736F75726365732F43373836323743312D32393532
311
2D343235302D414431332D3434333343433644333631332F7468756D626E61696C2F302F636E782E786D6C4D904D6AC4300C85AF12045D2676C294FEE0782ED15537C57534A919C732B65C3AB7AFDD7A31209078FA107A4F9D7F0E3F7C63CA8EC20AF32461C0606973615FA1F0657C86E1AC5522E23B0C86600E5CA1C9A0D5
311
9EA8C42E6D7831C537D5BB70EDE28E0193B31F31EC30586F725E21DB2F3CCC640AD386F93A6D86CD344F09339564B11E6077603F60131AC60DF4229779944FE37C7A932FAFAD1EDF9568A4569F44BEF32E30268A0F8BB454C750FF914A3440AB925CA79A09D077CF2951975A654ED57F87F8162B6462F4CE1AAE3109B28C3C
311
5608CDA1C43FAC95687E6BFB0BA3F6968DFE05504B03041400060808002249EE52A233C2345D000000800000006500000045394646434135312D324339412D344237452D384246362D4437463232453434324342392F5265736F75726365732F43373836323743312D323935322D343235302D414431332D34343333434336
311
44333631332F7468756D626E61696C2F636E782E786D6C4D8B490E80201004BF42E6EE76F3C0F216234B883063108CCF170C074F95AE5473F5C4C06E932E4F28601967600677D21E9D8092EDB002539227A2FCCB80E1168D80A6417297A89C5D6963B7129A0D1E8F2EE73AA7B62BBEB8B27DE50B504B030414000608080022
311
49EE52BE89762363000000880000005B00000045394646434135312D324339412D344237452D384246362D4437463232453434324342392F5265736F75726365732F43373836323743312D323935322D343235302D414431332D3434333343433644333631332F636E782E786D6C4DCC3B0E80201004D0AB90EDFD75167CCE
311
820A4A845D83603CBE602CAC26799919AEEEE0D965E2E908050C6D0FCCE04C8BC355404EB6198129C92351FAD580A10E464065907C8D948F8F166375F655BDC3FDC3B4E530A176BE7057BDC43B2A593FE403504B03041400060808002249EE522F9929E67D000000A30000003600000045394646434135312D324339412D34
311
4237452D384246362D4437463232453434324342392F5265736F75726365732F636E782E786D6C4D8CDF0A83201C465F457EF76EF9276BA0C6B017896521330D97638F3F1D5DECEA83C3778E1C3E9B476F9B5E2E0605E4D200B2E11167175605F958700F68D032C578FCDD008569B30A2A062DD714F37EA2D92E53F6957A17
311
9E27345D2F686708A6B796624EDB06DF47C230E78C19234626082BC6B52A657EBDB235AFBF504B03041400060808002249EE528EA1C99B09010000550300003400000045394646434135312D324339412D344237452D384246362D4437463232453434324342392F536368656D61732F636E782E786D6CCD933B4F04211485
311
FFCA84C4728099687C84610B0B2B1BB5B243B8BB9205EE8487D17F2FAC14BB899D169B50C0C9979B730E20369FDE0D1F1093C5B09089723240D0686CD82DA4E4ED7843868D1411311F616408CAC3429A4CA4D8452C6B970C6C55714D7536ECBB788FDE6378D6EFE01519B453292D241D8E54958C06D29E1A95159D68848425
311
6AA813B2F5D027E8082A832172E6F334F2EB71BA7CE1B7776D5DBD0AD64829DE105DE76DC81071BD98B9C6BA0DD51017AC015294683BD5521079EC8ED63E04AB841429C7DA4227F3D75A49B5AECE6A956B59EC00FE3052B016F624F2030488569F6BE6137BFF16FA098281F8586F2A5AE5CE35FB6F2EFF56013BFC80FA0CDA
311
8790DF504B03041400060808002249EE52E3603EBE7A000000C20000002C00000045394646434135312D324339412D344237452D384246362D4437463232453434324342392F636E782E786D6C6DCD410EC2201085E1AB90D9DBEACE05D09878023D01A1D34A8419C380F1F82DA68B9AB8FDFEC93C3D7C52546FCC12980C9C
311
BA232824CF63A0D9402DD3E10C6AB03A3397DD192872090D3406ABE7CCF5B5D18893ABB1690CF4DCF02282E5EA8A5BB96FFE536F285CB347F95BEFFE81C9ED5AFF9D5B1FB575BB00504B03041400060808002249EE525C45B3C87F000000A300000007000000636E782E786D6C4D8CD10E822018465F85FDF754324ADD0427
311
04EFE1121D13A191B41E3F685E74F56D67DF395DFFD91C7A9BF8B2C133A84E1740C63FC264FDC220ED336E00F5BC8B21EC7F37407EDC0C838281774B0CE979A0C9CC6372853AEBD703AA566B395C2B4C643B602A6A851BA16FF85E6B4214A5448A361BE7A2E4F9F5F2963CFF02504B03041400060808002249EE52CA1DF9C9
311
A900000073010000130000005B436F6E74656E745F54797065735D2E786D6CA590410EC2300C04BF12E5DEBA70400835E500FC800F84E0B411AD13252E2ABF27A55740421CEDDDD9B55CEFA7A117778CC979527255565220197F75D42A39B22DB652EC9BFAFC089844F65252B2630E3B80643A1C742A7D40CA8AF571D09CC7
311
D842D0E6A65B8475556DC07862242E78CE904D7D44ABC79EC569CAEBA537E3521C16DF5CA5A40EA17746733E0B6615DE7217475F386F18B9481C510F1F021CD9FF027EA0E1F5C4E609504B03041400060808002249EE523DEE336E64000000790000001B0000006175746F6465736B2D64657369676E2D7061636B6167652E
311
786D6C35CBC10E83200C00D05F21DCA56CA76D41FC96062B120735B69A7DBE268BB7777961F8D5AF396893C2ADB70FE7ADA196782C2DF776D7A97B5933C430F15651E5469C55D70F80A4992A3ADC954792C525AE70A1E4D6AD9816CC044FEFDF01FE3FDE907802504B03041400060808002249EE52AF51DF49F90000009601
311
00003700000045394646434135312D324339412D344237452D384246362D4437463232453434324342392F4173736574446174612F636F72652E786D6C8550D16E842010FC15B3EF28785AF5825CEEAAF7057DEA1B01CE923BC10834FDFCC26993F6A909C992D9D9D99DA1A7AFF9917DAAD5696B7A2039864C1961A536530F
311
C1DF500BD989D1D55AFF8B0699E1B3EA21C1C0E8B4DAB0EC90B0C62B935063A5DA41EE9CF2908947FCF4E0C4879A79CE838F0C77CF172EEE7C5239C9371EA32168B98F6A19D5F44DAB1518C143339E870EBDB6A44155870FE8325603EABA976B595FEBF17A6969918619F57AFED92E56C5BD92C04A5C12841B44AA37DC1DD3
311
ABDF6991988C3ABF46CFFBD2E40ED8395D3D70CF69B175FFA88645FEAF1AB4F1877257DD265CF4118F7C36182D524AB13C238C3525CABE01504B03041400060808002249EE52144732AFF40000008E0100006800000045394646434135312D324339412D344237452D384246362D4437463232453434324342392F5265736F
311
75726365732F43373836323743312D323935322D343235302D414431332D3434333343433644333631332F7468756D626E61696C2F302F636F72652E786D6C85505D6F842010FC2B66DF51F0B46A835C7A557F419FFA4690B3E44E307C34FDF985D326ED53139225B333B3BB43CF5FEB3DFB94D629A37B2039864C6A6166A5
311
971E82BFA216B233A3D618FF8B0699E6ABEC21C1C0E8624DD80E4818EDA54EA836B33C40EE9CF490897BFCF4E0C4875C79CE838F0C77CB372E6E7C9139C9771EA321A8F990AA39BAA9AB921618C14333BE0C1D7A6D4983AA0E9FD065AC06D4754F53594FF5385D5A5A2431A35EAD3FD38595DCCB1958894B82708348F586BB
311
E7F4EA775A2426A3CEDB78F331345D070CD36247FFB8856DFEDF2D28ED4FE5E1B62B5CDC3F2EF768305AA474627944176B4A927D03504B03041400060808002249EE52CF9FEE4BFA000000960100006600000045394646434135312D324339412D344237452D384246362D4437463232453434324342392F5265736F757263
311
65732F43373836323743312D323935322D343235302D414431332D3434333343433644333631332F7468756D626E61696C2F636F72652E786D6C85505D6F842010FC2B8677143CADDA20975ED55FD0A7BE51E03C720A868FA63FBF70DAA47D6A42B26476767667C8F96B5DB24F699D32BA07384720939A1BA1F4DC83E0AFB0
311
05D999126B8CFF45039966ABEC41820125B335613B206EB4973AA1DA087980CC39E941C697F8E981E337B9B29C051F19EE9E6F8CDFD92C739CEF3C4A4250E2185522AAA9AB9216508C86667C193AF8DAE206561D3AC1CB580DB0EB9EA6B29EEA71BAB4A448C39478B5FE6CE756322F05A0252A31440DC4D51BEA9ED3ABDF49
311
919894386FA3E763697207A8BF85F54333B59062EFFE510D9BF85F3528ED4FE5A1BA4FB8E8231EF9685052A494627944186B4A947E03504B03041400060808002249EE52A8ADB7D80C010000B10100005C00000045394646434135312D324339412D344237452D384246362D4437463232453434324342392F5265736F7572
311
6365732F43373836323743312D323935322D343235302D414431332D3434333343433644333631332F636F72652E786D6C8550C96EC32014FC158B3B368BD70813255EBEA0A7DE904D5C94182C03553FBF90B8527BAA84F4D030F3861976FE5A1FC9A7DCAD32BA05384520917A32B3D24B0BBCBBC11A2467CE7663DC2F1A48
311
B458650B220C385B76E3B7039A8C765247549B591EA0B0563A904C8F7069819D3EE42A52E15D60D87BBA89E92E1699E2F4C5E3CC7B351F5235876DEAA6E40E38467D355CFA067635AE60DE200AAF43DEC3A62947528CC5305E6B964531674EAD3FEED32E859333E004110C510571FE869A533CC53BCB229333EBF690F9308D
311
E900EFAABA24558721690A0273522078E93185794E69D7953D2D3165D94BF8C7D06FF3FF865E6947C961F852D81031FCFFF9C059160B0CE3D96E98B16CFE0D504B03041400060808002249EE523B0DB814FA000000960100003700000045394646434135312D324339412D344237452D384246362D44374632324534343243
311
42392F5265736F75726365732F636F72652E786D6C8550CB6E833010FC15E4BB01132821328E9A021F50F5D49B656FA89560233FAA7E7EED40A5F654C9D25AB3B3B33B43CF5FCB3DFB04EB94D13D22798932D0C248A5E71E057FC547949D19B5C6F85F349469BE408F128C189DAD09EB0E09A33DE8846A236107B973E05126
311
EEF1D323273E60E1390F3E32DC2D5FB9B8F11972926F3C464350721F5532AAA9AB028B182987767C1E3AFC72242DAEBBF2802F633DE0AE7B9AAA666AC6E972A4451A66D4ABE567BBB0C03D48C4AAB222B86C31A9DFCAEE945EF34E8BC464D4791B3DEF4B933BC45EC1996005385A6CDD3FAA6195FFAB06A5FDA1DA55B70917
311
7DC4231F0D468B94522C8F08634D89B26F504B03041400060808002249EE52191FEF8DF7000000940100003500000045394646434135312D324339412D344237452D384246362D4437463232453434324342392F536368656D61732F636F72652E786D6C85505D6F842010FC2B8677143CAD7A412EBDAA7FA07DEA1B01CE92
311
3BC1F0D1F4E717D426ED53139225B3B3B33B432E5FCB23FB94D629A37B80730432A9B9114ACF3D08FE065B905D28B1C6F85F349069B6C81E241850325B13D603E2467BA913AA8D9007C89C931E64FC113F3D70FC432E2C67C14786BBE72BE37736CB1CE73B8F921094384695886AEAA6A40514A3A1199F870EBEB4B8815587
311
4EF03A5603ECBAA7A9ACA77A9CAE2D29D230255E2D3FDBB995CC4B0168894A0C510371F586BA737AF53B29129312E76DF47C2C4DEE007DDDEE74A4D87B7F34C32AFED70C4AFB537968EE132EBA88276E0D4A8A94512C5B80B1A63CE937504B03041400060808002249EE52107AFDE503010000D80100002D00000045394646
311
434135312D324339412D344237452D384246362D4437463232453434324342392F636F72652E786D6C9591DD6E842010855FC5CC3DFEB05AD70DB259AD3E41AF7A4765D6925DC108367DFC42B5697BD7262490C37706CE0C3BBF4FF7E80D17AB8CAE218B5388500F462A3DD6B0BA2B394274E66C31C6FDC020D262C21A820C
311
9C8D8B59E75D1A8C76A883AA8DC45D14D6A28368B8FB430D7678C549C462759EB0B77816C34D8C1867F1C671E6D4F4651D16140E25709AD28CA425C9F2A7B43A85553CB324909CAD4ABB03DD1FC3E905656466E723012F0E2CD9AE3DB62AB9434AFA4FAAABC2057857F57D7B293242DBEA42F2A6ECC8B1E91FC863D953DAE5
311
396D9BCA17F166CEAC5B7C6BF622A1097FB56FC65FD1D659FE33DAE6B0C0B3EF5049E83367C9E710FC1E66C23F00504B03041400060808002249EE52281E2AE007010000B201000008000000636F72652E786D6C8D50D16E842010FC15C23B0A9ED6F3825C7A55BFA04F7DA3C059720A06F0D2FE7DE1B449FBD68464C9CCEC
311
CEECD2F3E73C81BB725E5BD3429261089411566A33B6700D577484E0CCA8B336FC924160F8AC5A9860C8E8E8ECBAEC90B02628935063A5DA41EEBD0A1088297E5AE8C5879A79C6D71015FE962D5CDCF8A832926D3A46839E7F5A85533C280959810B82708D48F98A9B537AD51BCD9392D175D572B7D232BAEBAB560E3282BB
311
BA7FEE1AF47224352A1B7C4097BEEC50D33C0D453554FD7039D23C3533EA838B3BEF4362CE003CBF275F9A6F14A3EFD64EBB208692C09AE90B324CF344FC09BD2EF21FA1B50987621FB875F89839067A10D1385D3096C779634DD766DF504B010214001400060808002249EE528CA2DDAA35010000A80100004F0000000000
311
00000000000000000000000045394646434135312D324339412D344237452D384246362D4437463232453434324342392F4173736574446174612F446566696E6974696F6E4974657261746F7250726F706572746965732E62696E504B010214001400060808002249EE52F6B7F04515010000300200004500000000000000
311
000000000000A201000045394646434135312D324339412D344237452D384246362D4437463232453434324342392F4173736574446174612F496E7374616E636550726F706572746965732E62696E504B010214001400060808002249EE5288E57597CD3F0000904100006B000000000000000000000000001A0300004539
311
4646434135312D324339412D344237452D384246362D4437463232453434324342392F5265736F75726365732F43373836323743312D323935322D343235302D414431332D3434333343433644333631332F7468756D626E61696C2F302F67656E657269635F706E67504B010214001400060808002249EE5228BB58AF8001
311
00009E0500003D000000000000000000000000007043000045394646434135312D324339412D344237452D384246362D4437463232453434324342392F536368656D61732F436F6D6D6F6E536368656D612E786D6C504B010214001400060808002249EE52E336299B9F040000341300003E00000000000000000000000000
311
4B45000045394646434135312D324339412D344237452D384246362D4437463232453434324342392F536368656D61732F47656E65726963536368656D612E786D6C504B010214001400060808002249EE528DFFFC99640100009B0300004500000000000000000000000000464A000045394646434135312D324339412D34
311
4237452D384246362D4437463232453434324342392F536368656D61732F52656E6465724D6174657269616C536368656D612E786D6C504B010214001400060808002249EE52E68DE2D3510000005700000047000000000000000000000000000D4C000045394646434135312D324339412D344237452D384246362D443746
311
3232453434324342392F4173736574446174612F41737365745461626C654F66436F6E74656E74732E62696E504B010214001400060808002249EE52C55C663656000000680000004500000000000000000000000000C34C000045394646434135312D324339412D344237452D384246362D4437463232453434324342392F
311
4173736574446174612F53747265616D56657273696F6E5461626C652E696E66504B010214001400060808002249EE52B16719C436010000A204000036000000000000000000000000007C4D000045394646434135312D324339412D344237452D384246362D4437463232453434324342392F4173736574446174612F636E
311
782E786D6C504B010214001400060808002249EE52D0410281E6000000600100006700000000000000000000000000064F000045394646434135312D324339412D344237452D384246362D4437463232453434324342392F5265736F75726365732F43373836323743312D323935322D343235302D414431332D3434333343
311
433644333631332F7468756D626E61696C2F302F636E782E786D6C504B010214001400060808002249EE52A233C2345D0000008000000065000000000000000000000000007150000045394646434135312D324339412D344237452D384246362D4437463232453434324342392F5265736F75726365732F43373836323743
311
312D323935322D343235302D414431332D3434333343433644333631332F7468756D626E61696C2F636E782E786D6C504B010214001400060808002249EE52BE89762363000000880000005B000000000000000000000000005151000045394646434135312D324339412D344237452D384246362D44374632324534343243
311
42392F5265736F75726365732F43373836323743312D323935322D343235302D414431332D3434333343433644333631332F636E782E786D6C504B010214001400060808002249EE522F9929E67D000000A300000036000000000000000000000000002D52000045394646434135312D324339412D344237452D384246362D
311
4437463232453434324342392F5265736F75726365732F636E782E786D6C504B010214001400060808002249EE528EA1C99B09010000550300003400000000000000000000000000FE52000045394646434135312D324339412D344237452D384246362D4437463232453434324342392F536368656D61732F636E782E786D
311
6C504B010214001400060808002249EE52E3603EBE7A000000C20000002C000000000000000000000000005954000045394646434135312D324339412D344237452D384246362D4437463232453434324342392F636E782E786D6C504B010214001400060808002249EE525C45B3C87F000000A30000000700000000000000
311
0000000000001D550000636E782E786D6C504B010214001400060808002249EE52CA1DF9C9A9000000730100001300000000000000000000000000C15500005B436F6E74656E745F54797065735D2E786D6C504B010214001400060808002249EE523DEE336E64000000790000001B000000000000000000000000009B5600
311
006175746F6465736B2D64657369676E2D7061636B6167652E786D6C504B010214001400060808002249EE52AF51DF49F90000009601000037000000000000000000000000003857000045394646434135312D324339412D344237452D384246362D4437463232453434324342392F4173736574446174612F636F72652E78
311
6D6C504B010214001400060808002249EE52144732AFF40000008E01000068000000000000000000000000008658000045394646434135312D324339412D344237452D384246362D4437463232453434324342392F5265736F75726365732F43373836323743312D323935322D343235302D414431332D3434333343433644
311
333631332F7468756D626E61696C2F302F636F72652E786D6C504B010214001400060808002249EE52CF9FEE4BFA000000960100006600000000000000000000000000005A000045394646434135312D324339412D344237452D384246362D4437463232453434324342392F5265736F75726365732F43373836323743312D
311
323935322D343235302D414431332D3434333343433644333631332F7468756D626E61696C2F636F72652E786D6C504B010214001400060808002249EE52A8ADB7D80C010000B10100005C000000000000000000000000007E5B000045394646434135312D324339412D344237452D384246362D4437463232453434324342
311
392F5265736F75726365732F43373836323743312D323935322D343235302D414431332D3434333343433644333631332F636F72652E786D6C504B010214001400060808002249EE523B0DB814FA000000960100003700000000000000000000000000045D000045394646434135312D324339412D344237452D384246362D
311
4437463232453434324342392F5265736F75726365732F636F72652E786D6C504B010214001400060808002249EE52191FEF8DF7000000940100003500000000000000000000000000535E000045394646434135312D324339412D344237452D384246362D4437463232453434324342392F536368656D61732F636F72652E
311
786D6C504B010214001400060808002249EE52107AFDE503010000D80100002D000000000000000000000000009D5F000045394646434135312D324339412D344237452D384246362D4437463232453434324342392F636F72652E786D6C504B010214001400060808002249EE52281E2AE007010000B20100000800000000
311
000000000000000000EB600000636F72652E786D6C504B0506000000001A001A00210B0000186200000000
310
504B03041400060808002249EE52000000000000000000000000370000006662782F37393734364338322D443732332D343845322D393730462D3733424132303635393837312F617474726962757465732E62696E504B03041400060808002249EE52000000000000000000000000350000006662782F3739373436433832
310
2D443732332D343845322D393730462D3733424132303635393837312F76657274696365732E62696E504B03041400060808002249EE52F270F1330600000004000000360000006662782F37393734364338322D443732332D343845322D393730462D3733424132303635393837312F747269616E676C65732E62696E6366
310
60600000504B03041400060808002249EE5288E57597CD3F000090410000420000006662782F37393734364338322D443732332D343845322D393730462D3733424132303635393837312F7265736F75726365732F322F305F67656E657269632E706E67355B773CD4FF1FBF73E71C0E67EF7576C9DEF3EC995D46C6A1EC50
310
46649CBDF79E192942562825CE965D8A868C2842C8DE9FDFD1F7E7F138F7078FCF6B3F5FCFD7EBFDFEC41B196891913091804020321D6D7513FC77D8C5070EC3FFEE51B21F068154CC75D455CC028A3EA68992803810109FDDE5D5CEC5521B28A1B422BF80741695D5B529DA1C2D058AD2388BDA9F476F7C2CADC939304173
310
DBF48A452BF8A700C0C70C3D121C1AA15A5270C22E2B9E28763651F7DA0D12CE11077B2ECD0D560B5E3DE2368B1E65C5E1C87384A4CC5F2D9FB8BE39E9B77C753783A37998F5CEF1B4FEE553463245C9712270880DF339E0B882A6BA713D865F6F384C842D440934EF264F4A304F8DE4EEFA1E2BF5E2D91F5ADD9613D6E31D
310
DB33ED31DB1D7916CAF091286EA3D31B9CFECB78BB0060245B943C4C040119FF780A74DD308BA9D028678674EB5504ECF284EE814DAED07440BAF649BE4B55DA2890F4D73E2D489A59EE54FDB0A85B59F2F52C4858A02705C4815A792B0C4A996A2023ECB195073E115E3E3647F64243A8338F2000BCB58DA5692C7E7C3D41
310
3F963FEDF3CF00FBB0F831A9D51360FECA43819F527B89FA260EB63C5DA676830AA3626A3693B23F1A17A0DFFCE3EE164E31B5365EDF0C89EF64D8E38AB0BA9A1117D7C3A0EC44F44F4023095E80BA610DE336D0F99593A88BFC5306E72DF98F7FD132ED95878DF2964EA7E43071359FD83B2BDF9C6B5BDF768F0F3C0FC351
310
199526F53D9460A34511F75D1B63E488178569472C91A94497807A3FD4A390C6558F26D416365C3656DE6E769DA9D8FC73774E1709812842DD8EF96AED1960F79D21B395CDDFE6F92CB4EB962A4668C76990E2EF29798C8941D67DA50F4A5F947872460F1F6FDB794E8A29FD7AC0C0D6E0714339CE258FB17AE8535221E346
310
4A10F29A0BE5EEECEFC5675926A89F49EB14E5711894F6586DB5754EB4D5DA9C6437EBA57DB97A24F8B8A8DB295FFD73266CF57E82694DF5166DDF93573AFE9C9C5EB05F8FEF8E89E0A8917B0B3724DB7BEBB53252581EFC3E38166BA131A3A5B42FE2AD00A769BBFA4458D2DE7822F8C4F63D0B8E21B285AE13325F3410A4
310
35C648C9D91FDEB109E73CEDA7BC796961AF79175E1A3CE4C5E8B0D009B0C9E29EFD98BC8E97554E3D8D838424E270F7685226E5AC268E021EDE3522D583E8F20C0BDE2959EF5BBFEEDAB32FE9A3ED0E39F211A86AA9DEBFC68182EDED132AB8BB794442D2D7EA9F4D8BFF52BC4D55BB165124EE90A42D101E67BBBB292FFB
310
4F66DE5BF2300E44546757DA7CEF8932BFC9F92A0707953491A55C5A5ACEDABD9FA1AEA01BAC3DC5A24E22E7C47213493996EFBC369D086ED9397C9BA6C7F9855C7BD5E15BFC8C53DB3D2A4C5901A57ACD2FBDF4D1676E95338B2C2BCE65FDA4C64F5FEFDC7D9CA5AA1FCF11E193F2FDABF0F4916BF13FB916A224380E6462
310
A9815F2300DC49CC4DF8D055CEF76462F4B7A7ACA7365C2707891370BC1D0AA6203C44CCAB47084FEC057F27FFCD57F89B8B9852459798A675C66BD7CE572CAF71FF7E6D7ECF7BF62CAB7B3F1107DCD04DC55A3F9961700286141C94A4F771FEB2BCDA2DDEE0CB0BAE402FF1DB0100F8E475DFFFC074DDB4498AB7D186A765
310
4DDB1CB680D703D47CEB4E72F8CB13D86A4AA68116E26387B93FD6738779B34FEDB8E517EDF2BAF28D9BE93A1D3A164320E07D42E514725C29515FF361754213EDE06B079A2E99EB1CA82A02019EADEEB87B9AF005BD04BBCECB14AACD6B24EFBE482194A97DD32400685FF1FEF1544D1B14EFB1E7F08E6D2CD2AF52DE757F
310
35F5E62332EE88EA26417AD5C3E0E319D68F25414E6D672BD4522B278C57D18F0113921C71D96527E091F00CEB15AE23D24667369BD3CEFA10C7549D930890BA4366F4EBC55F01F746109F98ABCDD5A3EE06619C6AD78AB33E48E4C9BD21BF7478B385EC05C4F8987E2C1BFA0A60EBEDAA0AE0B015C2720ECE180FB6F2DEFB
310
EB822D96338C9B63822183BBF52FB664A7AE57003AABCE512BF77E7E31BDA2E739AC4C131657DDFE5225E900FB56CC01CDE808FA4A9C9DA16AC679656BB64796283D89812B8F91136AE18EE5EBBAF47A73BE3C153EB5D4CD491B4BFB4FE690A4CF9ABA08C0D8AA64220C438C96EA6CA80B58FE5761E697B3A292EB9FBDA502
310
FA863E49FE694ADDFFF9D62C520BDD1A22014147A0903A05B9B729F54272EF83931FEEC057BFF8C8055C279EAC5C0011804828734024F6CFA319C9CC6867C727184465CD9BB7ED386AFFD96B294A85E3802FAE47244602D8273615952B98C4F23F7EAE4463D9D638EEE374A20959E0FE519C4CFB0FBFE5DD80C2AA3F9DB961
310
D1BDE57E67C9BB47B77FDD74EE3094F5DBBE3EBC1FBDB7393F5116263009E2EFE1AF9A221B2AE234C902BF70E9F280ED23E73908361565964333A3F01D0B006AF32FB21AA1316744B489D5A198E85299241735BE559675130955C902A8ED761FC0DBE337A9F91919AF5CE32AF902ADF9AB2615E00E8A94586BA1A90839B618
310
32FF1BFB76D2EFADE6DB1BA04CCAD3DA649E7E2A0219F592E22F2AD54847EEA8E42271011E9074F8F3DD9FBA6CDF88FFC9FC7E811AD1CA8F4557CE4AFC7BBEDCF0114A48689F20A584520C74DA8127124B767E2FB91A6B186246727BE63C9445BAE02088D58B8EFDC0F1072407CD9B89A13F6303B4A928F593AD489B58E686
310
9325790ADC406036C591729FE14021F94B7796BB11848D463536A092A26F077F94639F7CEEE2A724C66EC885F4A24F8B8A0AC321F8FD149BA529460FAA34E4663C02D41FDF80BCA222D42F0ABFF8490F4FA74C673807C2051D8E467B47B616072860069A9A303ABA9B319D58404461401B0A0F9BE5E1E151C14BC33B32ABE0
310
3DDE91708DFAEB15E7C0D593C86BB7D7EC17BE56E57975F077BFD5525F3A1A361D584A75E08CF29FC7B44B2B3085014F3A5A14517377C3F6B8F37E59514C3B12F8AACDEDDA4DFC49BE5710101534CD6FB6DE15B50F11A09472AABA727F0C49D9CB906B158030065F48EB3625E010CEC1D511D0053474B11E6A4F01C0D6EF1B
310
ED3A944FDEC70E0DDCDC756C86545910E0DAE3BE3AA9A404574C2995CD5CAF9549226BC94B4F4F0F5F9086F418F6B32346464610D8BC7391D3C3A3CCF04CFC1FB2A3A3170E369511868F14EEA4E5E438CC73DB1F3248AA94B6B2FF33B222FF3D1E7BF146CAD229770158063BCE4F5391964DF62F7E52A7BE0EEA829C9E13C4
310
C147D6F93FE59E111DAB5E4594D6F3CD1AD375EE039930EFE5AF2BB2D41C83C7DABD8C659BAFBE8FAB392CA634F3D15C1D945DB4588D2B0824A4EC928AAC565557CA2F0DAA588CA5BE30B3A8004F7BF005E96CBF891D7F18112A3619FDF530DC8AA64954258E1811789B5189B49B4EB53F5F89F7D37523894F3EB57B373763
310
C91E502F52CC99EB7BDDF933FC324C4FFC2561DFFA7339FAFDD0A4BFBE6D3A8FF9ED1FC49898139864602458968913181918F719CCF5A68B2EE9C1FF050E34E63107003B8120FA982C21B30A874E4F5E4B38D5A8290C4B8D9BE48A0BE31EA995BDC37AC6DE90BA17D259DEF53605D55922FEB1855D915B659FBEB350EE0DFB
310
2F9F766E1C84CC8964B75D08667445EAB966015F63A18A9E0A325C1B3DC628C0D3CB60F767FA93CC65F25458BD23C3B312716E5F40E5858AC06EBA9AB14F95DB99147B832069201541D09A0D856E12C629CF32683760EE855537D1901988D5EBC156676C7DD51D7207CF3267AF1D76C2AD867315E44618015313A98B19941C
310
696FED3461CAA9B5415F918556D7802EDACEFD6B2E45853A9735DFC9DBF7E440F9319F8B6805A973BCCDC76C069A9144E51F187EDCC12FC31B5DEAAF0A76137199B106EC84ADA6B6EE697D4E6A96E007417F4E880E8B1E89B4BCE9D81EF611E2ED8F0C1A6C25F620FAFAAB656A7C42D464880E8AFAB0E0FC8EA38CA9A8AEEA
310
EE3E4648BA4680270A89743CDD3E6C6CBF34B7B640EFA285ABC7EA0A1E28F3CC963D114A80123EE66D0AF7D5380EB41909B605AB4765B709B808590458157E69BA1378FEC4B48CAF6A730E3BE3C5EF2DD1A5EAF94B1DDE50CEB55DDFD7EE9A16747FA4B223359FB1FCC69E1194892BABB93A1D5C4E807AC0EA2E30180811E7
310
7A2291F6E7F7FAA5E0F60215BC6024E48DE436C511F0628B8CA189982D4D83CCA17D305A7E923C37941CFDFDCD93ACAF735EF5F0E61BBD3E6C41A59B242790D3A3BAC7064DCD89AA2E37214EC839820949D5CAA31E240D2948E48F690298974A96BA9A8432BC90F5071D6537C9666EA4564796B7AFFFA548077BEEA75F6308
310
3435074BA182F3699557397F71548383FDA8CA34D99B981E72835ECDA5DDDC151315173D05A21F651AAF8524E88209E2E7A737ED1045800CE3390050BCFB8BE588DF111617874C62575039CA588EEFDEFEFE319B739DE2EDC147092A262611E159650E787917885EF08F1F51B8F2D8A71D60B58B190FEF9541A1BE94BC19FE
310
A50784DA1419FE4B0FB51B8D36B5FF8E1286FD8AF42B91E59A5F1CC4D60174E764045FD8C57B18209B217F89A62252BD20BE0E63E12B8E8F029FE19E0E8D0870F58721A557082250D5424F7909369376E41666C0EE77CD87CB283F661D5FB6D0DA023CB67320A20DC7BE661E9E1BFE5463085C557DA1FF9BE835733766C3D1
310
39F2CF9E2208873AD0EB4814DE9E6BF2CAF81614D4D43906ED1C05A3265CABBFE192770FC2F64F940CB6B17B5F166F133C9AEEAD2641807C3E69515171DD74C4A85311513D6EC9530B3B601B6BA3EBFF3B5C3D2F7D69765141E345F75433953D013ADDF8F6AA7DC3F4A7563FE5C7D367937E2900D7EAD0F9FC9A4A1A9B5BDF
310
1FEF08532660C01C5D6DE22199AA774383E306DAB87E301ABB7D213887F9869D4942D0D71E94B27EDF216A318BD488D45DF84529EF575AF3C3938C0AAA0215B01994153E2054A0B894DA5C784980633AAD48576957CF4AEAEAFADC7C587368551C73DBE1E57C58AC713303A8BFC258BD04B51724459FF9E24C03A81E0E0679
310
CEB9B348C0DC998FEB9C6D6EFA77D247CC8F92D3848599ED89A23218D0636465AD1CEEB7DC140D7426F83491C4E8E8281C2FB35240918FFECE880CA2A42D70E8B20B34DF5221C7DB0CF90ECCB9C745B37A47E9B716FF7A97B7A252C1F3814DC7B1E1A7F72B8751D524EF7CAE45B0C73B3BE7D08ED39781B380DDFC9AA4A474
310
9C9493DB5BAD07A6EA6C092FBD0E85DB004DF06B8C9D3089C5320187E4CE1846158C7EA7DDAE8AD9AFFF21AA3A1026BB06A259845E8232DEE62811A4DA9CEAB3A4887320B76E2AE5615EAB7BDF738CBDD01F1E64064BC13D9EC53576751CA8CACD58B3CEB0E6CA585BD089B2A59B9FC101403387AADBDBE70586B93D64BF3A
310
D4453EF9C3B6A93817E8346991798601344F79A83C51F3D50F7BF2683A3605F51A72449489E0EE6169C749C60B1035651103AEE24D24E51A759C840DD3FC6504DA6FE107510E447B43461C79D22970B75DE5E1BD3007D1AFC619A4A4A69B5626AF5E9B8374E20677F77E2F8E73DF868E8BEC7EBA7B6A75EEF7205E1AB9486C
310
B642741D6E03FF13FCCEDB1C4AC129886268B01CDF4B124AF797CF784F3C6DEC97A17D4B558070A0F1C04DA4FF9BDBF34159AEFE958479824B3F58EBD1E19088A2AFDE501B6F2052368A3FD0E650A179EFAB1561E1D27527077136E652676C3670F42DCB3352F48F6BC86D2C3B0051727E41A0A4DC6CE2BE9D47F5CAA2935A
310
3C0539AF080665997194ABECD723B08129CC5B6B21D2E7D54CD4D12610E7E9FB8306771A89576C7A982002775ED44F3F744CF21EEBB27A631671D921938AAEE3EB0D19CD1E083727F607823E817BF599DCED5394E37EEBC2E88782E638920CA641EF74D4CDFCDEF06F4278ECB18E31E7E9876F2D783C8BF429C75395F57E98
310
C2B495A3DA077EB3AC3C158608B6B57FE3EA48484D9A480096FCEE0DE880950E7E5A5714131C5C41AAA29FD19AE81AC145FA1B9E85C7169A5AB837B213493DF7E9AA4B5FBF9CDEB36EBD21EF1181B7CF7366AB2A951D01E37AF4EB835D1BE8C117CFBE7625D2EBCDB0B20C5A4B45CED0BCDE3EE8DA9DA78C2E21DEAAFFD119
310
7E463C33CC6A80FB785669B856EFF7A8CCCA2841B5A5369173320B1170C368B2748D81062EA0296E5E2D95D7667A4A46D98A6FF475C76AAB0A8C8D45E226FAFC9FE0133EA9F60111F99CA81ACE03A1D14C89E8B0D69079C91464FA1D99E651D0EAF606F345C42A8A1AA9BA391031582B96D5B4176A77AADB01F12FD298A75D
310
EEBB2C82F0B8650E880722F8DDD90C56A7A058E5FDEF1AC93545BA27367C76F5D8F9690CB6F8DAE141EDD7971F0FB548A2AE435F224D6E5954CA155512F7332029D5A1230854B79F258EC5FFDB09F5F6343A8EB193229B7F7E79B3E48F8E183860B38C8269D1B53738FF1E0BACF6AADA6D4869E9DE708E79B5DADCC09B1BC7
310
6F649731CFAF59A83FD8BAE4C749D66FA87A3810D4D62FFE826FA400C0F325D2BC0F3CA35F5847B82A2ACC7961745C823E4D863D54460AF792CE6F79B5C7A33B25C3AEA6CDE15A919B6367D781E9D44F61BF828672594A3E1D9EDD6DF179A81F27EAC05B936575D73E05C209DDD2115CFB705DF9BBF3C911589B3640735E9E
310
618FC9C36A7326C82B2205E244C55D56FDB9D5DC93CE958D4BF8174D2B3DA54CB3C09F2C2A6DFF73D23B2197355761AD421EC581284A7EF8DE2CE3497C0C804D49B41DFD6A7360844E5BEFFB495CFCDB97A4595911CDBA623274CE852B5E278AF0BEB1770E9D37CD977B2766A7DED0E94B840E1E95E8C77DE5CB6354AF7871
310
427C28ADBEEF7BA0A28E19DE9ACD75F379FE373EAE6DDDAE3834692F9C2B03B4FCA8FCA9ABE8EEEBEBB725B88A7C90941E850682CA04061A7DF0CE82ED49BFAFFD42C309818FAE14755CAAE78B0F73243ECCCAD7DF58FCB9CDFAE7A4D3E6671A613639130D056C8383C8F4FCF4808C331E544DD26E4755D09EA05253B3049A
310
1E32587CC25D72E073E2CD96D04A71BBCB0038FEC3F53D254199C3CDC67CD66640269431860225392B2CB3ECD0B4498AAE78BA1994246AE1EE78F2EDFB79F6C6CB6B5E279C4D373FBC21CB2698C9ACBBEB6A4BB6B39E16AB0E421CCBFC7654D81ED86022F9BB522146F9F4772E2D0E4FA70120C95A85A417BF5078B232F475
310
4363EB1750B2AC2148EB46B1EA72AD9B4D23ADCBC589D70106C3EC2ABEEED84DFE28E718C6C83502C28E9FDD3B09DA0A6F6F7B72B706A31C9E2A331EE70DA56A083D2177BFD63C55B11D8D949FAFCF90B23A1E24B9B5018B9A17E99F2890EC302F330FE7936E2C23F0D237EC8916F5166AB84B62A21BB0B950146962D754F9
310
2CC2C8877BED8FC7B7B25726DD19545392570B3A2C66B58F027BEF412E552D12A588C4A3CC5C3193FCB3485EFFF700D0B9EEC077754A33DC1FB9E25AF814628F91DDFECB667D3F7690803F38D13F8AE39353523BB08FC6760144AFA2CE28236F65EDBB3D5F59A57D612B99E3D7E5F8A851666BF9B5A6658EFC96EEB37A378A
310
BB0EB3FDDF1303AF32C41BD1C8560745D7BD81066B0D6313359CF488563D3BA3F8E2185D1FAA3EBA1397C9D0E3DD232180A4DCADB6AF25DB3AC3CC26589C8239E66E81547BC7E2F328F9884764CA37EB5DBE390DFC03A5246B456A7C3684C4377D0EEF9A350680FA9A077E8B2957B489E09AB1AD41316944C2254B5984830F
310
691C93CAA767EECF976FA5647538830B5E63236A6F0365C1E0F3E327F24FE35EDDBD7360B0F7374837409F7A6311BECC12B7026D4FA1AE204FA3F5FE904B1F420C7A9044AE58E403E7C4848E7DA25DC9EDAC79DD756FAA26B9EA83ACE8A214A2612A22AFA19DAE7DBAC5F8CDE1292A485F98DAC731A29FE01A3966E96BCB9F
310
B5A4C8830E1B9AF0C54B87FBE221A097036E5D28D1F869F810C06A9BB0AC0612F69AEBAF893C6E7AD59460208BAB3A6B09CA4F6BDDAB8CF0D1F84B72487498395A70DCD754796E271099A567A55CF242BBED64696378BB6CF25EF0FCDB589F3A82F1116D010A9AB9FA4358809EE0C973A2B4229BAA876A70B03AB49CBA7FBE
310
71DB1832FFD32F9BF2C8E98075CACAFB36921235D0F552B6A67E94E094097A5D7DF681B40623DA535ADA7A9AD8E9A62407D7C9A5AE51D62A17A83A23728DE86BB56115804D3F2675F2C6B87541A0FC497BF0CA86420F558C9859EBE9FAD62747E323E3AADC03FDCDDFE7407B09DA90B44E3185723C5381EAEF589765E2F7A0
310
99BA46695BAD60CEF3491B8A171F5F56444F7CE9455312C3498C74173AEA0214EC029833B34B650CBB5A5508D5091665309642791708ECF27CF11DB3D797D6CFE474453BD4BFADB768094B2147814D81C7CBAF8228DCAF5564B5891F5EF6A860EB2E323CB82AB868D8EA048880D63B0DE5341F1B3D53297B928A11E15F25E5
310
148990F710747C3509ED14909C552EBE3973246FCE55D00564D8310BC3EBC5085D08D806799B77D6C57FDF5E55837F9E934F09C03C729271B64F12D0A9F9E938107CAF7BF1EC8CF1BB9B42363D33070F4CACB425E605DDB0A34A12BB936DE286B9887A4E2E558F0886498BFF49C311D96C277CF6A9FC0D75AD0ECC5226D7E0
310
E3572012E56D7FDE4410CEC7A6D0F997F225A2055B8B92E3956E875AE4993CB3D4C9063AF98FD45E1BAB165640A43439A2C9181A7C355B297C0A0CCFFAE19B6FA3C2BA238A885FBC98B8F6DAF4B94B97304878DF4D8BFF6A4AEDF79E90ED4E68F00CD7299F4E0D83E35601AF0CBEF18C1E870E74758FA91F5131075004DB3C
310
FCF09AE1DABC11957FD9808C92E8A678CE9DBE40DDA0E0D1D505AAFBCBA208232BFB6FB3704E8985E61ADE53DE74152F5C7DE74B1DEDCD37DC3E8FB30D7EBA8B9EFFC3606BF90B8D438279CB7709FC7C00D327F41817EEA71CD9E49FE9C8C9A81C70915D9F0F15958EC5AA4C3BBFAF46986B90F188BDB24B89DE3C6F29EC3E
310
6F66D84856EE96A35E657CA41B41EFD8DBFA16AD6E91439EA92B40B21C053249F51AE50EB0B24C770FFAF40DF12C8436366819C48E36547D4E7B72FE2BBF10828583057814A668BDF183F6B2E58DFB151103E56303E63D00F39C27C4661605DB644D19175D02E3F0241E8FC3458D17AAAADB117CE9EEA690D0DB01E634878C
310
04C2C9310B69FCAB831151E3AD293BEF6E46B0ABCECB50F5939B39C613D41E81FAE8D34CAE3C4566B761D37185FE864AC32FCB71AEF39DAA5BAB88609BB980CD2F07A8F941653B529567726E2B2A58D079DD57E1E5E31426CF184A04D7B03B985F276D47406AF276FE32E3328BA866EB1FD39BEF57863A317634AA5FE46740
310
9B3873F5069EF0D71AF00AD189D17BA1974ECDB2D623E9E14086386A6AAB5807825C37B015BFE892AFD154920EC437EB945D958E18622E1E0FE2FA06557CE4BB9BBD05A2D40E774DA2B65473791E314B7D6C886820B2FCFE4AA272B3B8B15E7344A145E8AF919B5454D89D36D413E87211186BF6F645E5EC94DCCE8E1C7990
310
22E4EC9BC86D7A0F2AFB1FC4B2CE48F84B3F49ECE65BAD24CADCC07EFF39AB06BE9E6B27A059938EA7208838455383DDBCFCD967DDE4650EF92A14FF933C975DB20BD7FEEBC4487576485963D757D16340D9599FEB362F775F38CA4185A86F74B629C81B133644A3B18FD056E997E0734F9BE26D11C0AAFC669E2AC9FC41D2
310
81F8B2E1C35AE27BCE05F3DA295488096688719D974DF1B5D182DB7792288697F8763CFB43562C1CDEE11C4AABD5C22B6E33F6F389CFC3477C5919DC0D533F8A7A1846B7ADB60ABDC26C43D0CFC8910B7C15EE22675BD02702ED39DB77A87A192CA7A543E6205B979B9F5A6B512A3CA799E198B2D5797C0AF8D1D872CA455D
310
4D431A7879D4DD76110B5FF7F4176B54477A9EB5E4A5D11214FDA585F0382751D8E2582BA5D2075053298FEB8F1537304E32CB22C2E2B693DC0A760B1DFCA751BDC445AFDCBB12820ED85F6D5298933C7EF1211E9E057684056CDA3FEF3BB6052355E162DF27C59E965A8DDB7F9437EB72CDDA3A090DE65A5B2F50326247B7
310
EC67B73ACC7047FC9B353D6EE990F772207C6EC52B39DC2F3C0754821DAB559F7C1809C7D0DD5B0499D0442E0A6E391B3D5DB46D11E731E6794EC77523FBDAA242ED67F9FA1FB684255671F63C9BCFE6E7E896D51001A6113EF2298BA494E0B0980D1FA5B9D60796554C02256B1E0345FB7C6186B6A19D2DCA270416262845
310
FA4F42DB5D9B0A0B6F07FCA2E56C242522E001E0CEB734AF310FC8BFB57E38E03AACE93B3326A2197891E68452B26A6307FDABFEE0223D3C03C3C73D2D5BC054C8311F12004CAE488E5C29287F8156A2CAA4AD0D7BE6B97264E4139F437CE73ADF52E5134C52B819777C18B323A5924E4F67AFD13B1CDC3A61793A79FAF5C0
310
CEB718E441071E797C6DCCB9EFCF7E4A1E9F3DF3C2F9C9E8294E9586868788C972857FB0556D7A26941A7EEB9B580AD78EC40B85DC906B4120A563CA3B87797ED612D3B035962BB75F6515A393F4CB057F564CDF54F2E5A024514E6A1F901DB80C7E70B1FC05E356A7E72FABF4775B3E3FB8F70A2A8E7B6A94542BB3041579
310
78CCC999E707A29CC795E67A59CC546A5D47B368954CA7B6E75EC9E1F6FC73CE3B4F71F8CB1A6B15923D61EAAEB14626AAA9D04A26EB9C66CD1BE86CA31A5D8703DE04CD1EBCE4F5CCB62F93909AD11E55799A781A956ED27D3E738F4538CB04ADABC7DAEF20BC35BA6A90BCC1DC61BA05F20D8832FFB9BC9B15E2DB838A0A
310
FBB7E0C82A562127E0446894F427794C3037186F622BF24DE1B00AA10A23BFA47B2A180D6DA5AD6F7326FEB8C100C2D7142EB2A0B2A9D1008A09BA343D70E054AB69E2A7EDB783CBD92537FAF4A44D1296AC2792729104B3276C276C951D0CF3CF3F1E6B017720A7B8505A5FF9589365979678C36F1BAF759EAF57C60F1FF5
310
FE9DCF5F8E764FF25A2D06CF25117A8FED51884C13B2B750DB0E4F5E3D64124FCF11F0AD8F1CC3B3DA4B38ED22BF1CB2585EE6BFEBBA63FBFD44F9537B9B37BDD6B358720F98A8125AED4349CCFEB0E135F19E208A04CA7E2B10711185D72E381F448036EF57C9F874E54A971CA37A639E986AC0226DC5AA00D5B14FEA9192
310
234B3DE617814FC221C92F33F1D392F297731B567FD98FD91D989379AF567A65B8ADF177591DB90FBEA99BF4ED11B16E50A0AB1DBF1156D034BBE04D69D08F939D8E92BF525A1DDAFF80ECBC95D8F45D3FDD289FD23F7D8B452F8EBB34EC082DEEE68E18EDDF072060FAD2AB1504DD4879BF67099FC58F6E9DEFBF645D1633
310
4A3E9A127C6F1AF6132CF287E433B43A0EE93812B4AA0B194E03EE3FF91EF9C6ED0074A2F6EB18A96A7C9890B1FCDA1F2095E944DB911ED54C60DF16FB74C8CE9BDC7C54C4F14078CF73C2FFF1F1BBCCD7CF64F71407EA1683DBC410D226627F66E509060D5C0AFD611DE681D509DB8DD12FB1265B03C6F5C55FF4C30BD941
310
87FF692B4F152982502F193098A789526A038AB529A52BC0DC4FB6285CBAC10A8B8DB75DCD9BDABBB221E27D1F8DA9F5EE5926A1C8AA9BA9BC09239C6A7F12914EA3B59EFF7AAEC3FFCCE56F1C5C2980AD072793527565E774F4631DB178CEEC691B1F367BEA0CF2907E1D6B854D527065979DDEF002D8B2ACEA7CE21AE297
310
737EDE1D45B31233B73FEA35BCFDD0B09721FDBAF6432681F2FD10C3E9EFB246FD6E854B344ACC9D8A0EEF876A7314B49B6A499FC650B099D650DBFEC7638ADFD245E2B7839DA5AC5F7D5623FC0ECEEC8653FC9B2BDD1AD4D00A566FBA7186DD3C9CD26512551637498CADB950FEC71ADB9A5524285DE328B8EC7EC75D2345
310
AEC6A27C42AF6D9B92155315C80DBFCABBB7DA0FAE425C4FB896B15C9BFAC4FE67DF5A23D30C93DA4D8F36FB15D100050DA6062E22AEC5F4DAC4F6FEEF97AE05DE63C6D38F9E068A20BC5E3B6BCD75320C5090924E7F93640A7735B1A43451C2D91EE62C6238B797349E59890AF3A520DF4A87095F3ABEC2E61F0593416CE4
310
6CDCBE0E00E2523FCCD04408588B5B6C9DB6459C786CE378770B54F51DA3A5E1DF2A3349BEAAC234A6CF8993B598B3B25B4B113E353A4D750FA7534749430F3EBF2512E7EA3FD43C6AB9A1F765A58463B306721A15D224FAFE8C6F5E3432D57EE697DA0DD5A9D4866A8BCCAAA9DFF1F06047851408FEC060471D0E3EB86BFA
310
F46E4B5E60311DC3E3CEA147C75CF971BE74689507154FF2D2E92F15CDB2B9182B11459FD8ACAC5A85F174BC94A7F4EE4C4F5CAFA7C02E37BF0BC77B7DCD0C047BC316F562A01A441AFA7931CC84A28CB9F4AA367EB515778F29BFE61195FA671F4352E5E46E3A64773F1F76EE5EB36D7BCE9BCEAD837A4D77F8DB8C92AEEF
310
6711920D7C7D0F76B0FD0EB7AB83724CD35BCA7D36DDDF5FBB7FF6F04A91F3E2BB3B8F1A43CD659639507FF6331C5F697BCC782AE57D757A27D97F1AB9E0AEDB43F92F1B2AACDF5FEC8ADBAF9F814E2027003BA2F9E144B1938A7A04050AE5D953B82C45619165C813A10E76DD6906B3C16438064D14CDA713AEC420034613
310
E1AC7241904A49FBF87409AFB1FCB9B72FE7933A87D8FBEDACECE4EDCF6A4FE9FB94D5DEB74FAB7CFEAE17EE965DF980DCCA2D04134994F9A2E94D2265DA4FE6AA7B7AC15FACAC2B5ABBCD7DFF542C5314FDAB2E1B9D8B65220B8E2B638BE008E8DCA22678C820C5053664D15E89F2D735B51A84955E81A443545E9FF787BE
310
0FA700A76D136C27DA179A7C6E8939E01BE756E19CB292798063D8B97F44E8A27BCF3A614FEB8BE974A718E86F7EC99B53CA35FA24F61F2B07266684623A3D4CF073E511F3A10A8FDAFAF0078C577F4DF9D339FE7862E5FA47CF4344209E5BF76D783B1B48E152AD281B15FCB934DCDA49CEC5706B1EE8B460F435324A5CAD
310
154725E21AB8044B75A557A79F6C807B9340AA3D92503E866F4274412926C8C504E4D5EF8C0E68DD0B028781A6B4054F11CF18941F101C57CCC796773ABC8DED9CD91FE5788806C05E548895354AEAC96546D55B0E94A59F148D061F42AA398D822CDECA4CDE79E13469BDCC44FDC990F366BA5978C15F97ED80CBFD73B0CD
310
9B8B83A4F6845BDFBFAF034019473FB9A63BD55D3A4A7284757071574029A4D016DCCBE95DD679EF3C4880BF169422F8C89B68A988D2B13793CAED4F74DE7486C72DC94DF46B8E93D8E02EFCB1FF9B3BA10C8AE7F653DF94F4AF466CDDCEF5776687F7C4C14B63E4EED1719DC2EC482D7DBCC7AE518CDE3D5FF86D39000EC3
310
673C0044E1D308BF05F74D1B5F033A7D1BE7F74BC55BBE3E4A20F920946CA0271EB17BD2B80E5660ACB8A29A79F5E4BBA49D4D945B6EEF4A7EFEAA65E5555BBB57A7E15D2F83C69F30BBB978D2B39F1F26FC097424D39BB33CA3D87ABF64E307938B685BAD44F71556A30B7E712CA4FE600613C3E554B69ADE949A7CFE214D
310
F1FFF05CB82151EC6FC31950239F94CF7AD39DC473F6EA356E5EC2C4EFA04383CEFE985A127484366FBEE3C0EC4FEA363E4F6632AE781392FD45D67B63FB8DF70E82734F431FD3443172A0E30A83D60982D55FA6A2CF86DBA8382502ACC6CDEF3B907982EED1160E14863FA242F9757347E1544275CCDCF71ECD5F8621CBEA
310
326B8BA884AD7F825781923E66971F04010D574C541D8427A438A37EEF8AF88240EED7362C953F5A81DE2D56109CDE2524EA0F5D2F87308C0C47BD97AD605878AB8589E17CA83930CB5E0DCCD75853D68B1AB136594926DE426C367428E9334AFAFF90ECE221BB5DC9E5BB53D2CDEF954EAA9CD814F0E5725F1965DD458E5F
310
8487683AD86B9D0076BE3EE91EB1CECC5331A67A3F79D8B27587C12EC2A6A70474749F27B4C0BBAFB94B34189E88DC18964BE4121B9137FD516C7755356E50D6714E31ACD222621EBBCD1CFF81D87479056A9DA0E0B8EA19D24CF937DA89F78E8650CCBDC110AAB6C4E46DCBFD0446BA9E2060E81F314AC2031E88135E5476
310
AC0160EF5C0DD2EEF1B8B5CB2D198BE9A554A9093B5F7D7E4B5407DDFCA1D9C152FD97F55BFFFDFE802954DFEC8995B983E28AC92F1971E28F531DC407A1280EB125F64A72E617EFB27DFBCEDCDA2D6F2BDADA36873EE46B9BE1782998C63DA7182BC383FB6FD15DA472B175D7E8B4FC88F38D6E07FEAA3FA3CBB8F6B449EC
310
F14D2175E5C5CCA3A42ABF24CA6C9395AF74535F4DDB38CB84F56614B0FD32D7E19CA5CF988DB4449C40E23DF2B16772594554579094450F56F253CD25EA7F77366FB1CFE79696C428BB64D5A41E986189427E5E4D7E2DAE3D5BB4972B3DC44EAABDDDD63A2264ECFA5C786EB0EE1FDC5BE34FA0F08376869FD1E61EA06CAE
310
15191135445EE8F0394161C3266A596AA035572BB0C8876180D8B9C77D307DF9DCDF7365ABDA6F3A2366436457A4DFC1F259666569A9E4A79C817BDD5610E5200FCE894A358EC72858D50EF67545DA81C6FACE3D457BAF70367E1E6BDD9A952FB4F56247F58F523B97E640246051A72F79BE42FFA0B3187F63097F91C48B86
310
8586F714B0EBD5A00A8412C1236E1298F60C72BE6C96B82B404CADAA304AE9F303176B14BA53FBC2D5E86377E35542019E24D97B96A49B2C0E5006E7795954DEAF5DA58958839043C6C70BD3B1B33B6DC5C31316D8A6923F142E26F6711A2258AF977DDF1F970ECC4F1F2B434B96D81BEB6E89BF3BBB3C7C8CC80505070723
310
D6D7D7D3C8CA27CA164A26024FED94B12A86031867241DA53D929636DA600F050BC40CE48B8BA03D69224720DEE2ED2127390BDF5E6EA64527BBD4C4C63FA76BB801FEEC0E61218EC98A8A86CD8313781617877E66692839B9468CF4DB8E50A73986E558E309C0D6F676F921BE02F1185454DC75B111572FF9D27D85EA14C0
310
5AD7271225B391C4275659CA4A43759D0BA44639BE4C30A84DB7F67A41399FB95CBF923B1B1672ABC807C1590557FB18D811983FA97F5E609516D62281D38B1281F68FC75528C35E4CD7DF0F7DBB5E5DD69C414EBEA2F4A5B241B996BA77AE6C772E367408C633EA3E438B68563EA8BE7667F3A4C4FDEEA52ABD78A2820F44
310
3B7914A15F180018D231E64519C56A12F6CA7C8DAE18F06F6B769DBF92329EF6A5D18FBCE600F36BD8E8198DE5CDAA96181F3A756EBA5501CEE58F497EA4F418A2B82565B9BCC611713C0B708CCA1F398B78C5F7D03B3437CC18F13061F55C7BEDADD5ACB1DB0E36D3CE47FF6EA1A563A57E9649EA5D14D1A50EAA45746338
310
1C073777EF1600607BAF6428A7DDC079D47A204EF1E1F1F0589FB054D45E02CE623B3823C317C601E589E22B1E88B448524B86A82828E32345EC18AE17214B42F8C41C6D428016D9BA31DDCB47572561E5A402E5BA4FCE55F78AF7268524AA04130F3A20BA5D1E9F9948EA48FC8F5314FDB35E21898198060034ACE5E3E2BB
310
CA34092518F275190AF65F45867FF0900AA4B81F25427414C372BF51DC29AA855C5428EE1EEDD6B849AD60F6E73475C2D2523F8A2772C840A478DED18A8C5C91B085F255DC4F54EA7AA8947354FD17ECF8FB3B4A0DE7B483CAF3A1165EE05BBA413E5C1FEF3DE1D6B8F2F3F3251C17D9FCAB48A9AAF63AC773A0E413BBC46A
310
9ADF84A566FC920E4D8C52C9769EE3301CADEEEDD92B312E02E2A7E35B7F1E7D203FE5A7D75578B06E99D0E46FFADB8FDA17ED8880390DA29094202D6F645F76F6F96409CDA05495A96E84B04A00D1A6C6C81D7F3DE9376E828CCF144EE50E364ACCE7237EA0BFB5607ED1AC3CFE73794E5B61739D14DF1743441B1AC98F00
310
ECEDE9E7301FA29755FBEFA68C91EF2B314CF510537EF1ABFC9A762496280B546F5EDAAF8A5B387D469FC9A878A92828C88608453ACEC6094DCA54111E7AD5B2663DFE2DD151B7F123B9F4FEF8EE36AB125FD7AD52A59B1B765B3E3F73E3F73DEA93875004D2AFFE3CDE9493B87A9904DD052028949041A91DC0E1BA47BA71
310
4343FD5B25E0A6A09503AFC17C790058A836A324FE31D7893512E28230332F153181C1E018E1124EBE1BA262AA428A518237D1EA7275E48C5C561BD19ED6912EDD8367DA0F31E40EEAE9683DA9257525AEA7B632B97119E17145A90231768A4F3B9120FF32E8319B015E3CBE26F1A754177D8185345817C096B0CE443A955D
310
13AC15E1FB5DEEA0239EC32A3C92241A237B0B02FFCB4F93CF2B02570C8D192E2F2A68CEEB42F12E6F8CEEFF46C251E22B4341C56FB08CCE550E7A9D6F4D6564B9EA52A83D5BF2C6E03FA19D2775E15A8A7ACF30A13C259EE7F5EF2AC3BA354F1500E1A07FC63FB4686E2F12EC69719F9ECF5FE3F35598DF2CE944008CE78F
310
0911BA5BE5D0A34E0098FF038669C26030BA9B300303039852A8F6F496341737CA7E0D2E3AAA36DE0A70AA7D9CA0D54D9AD84B18A44C9E625475E1C97B93BEBB38DCE7D227E67A2D00F531436136355F243D1FC0D712C5765754FA22FCFFAE97919161F46D6E61ACB37D83777B385889770B50765B127768443A5C4D3A4E35
310
A3151111F146B7CA116F918A049F1C272F2CD7976C69A0068773451659A97E0F4A08FE604C3FF6CE7385DB19F4D3ABC8A0D80DA8A42096AC377DB49382B36E270B6FA7570188B4B7D1DDDDA82ACA487CCA5D38BD3BD039ADBAFA4ACFF27809239B722081E2EB9F145320553D183F28471C388BC8814E5045676767AB58A8E7
310
2D1CED2CA731379515D2E533E4CF0B39DFC625F97AC4836831A4DE330E87A8126FA17EBE583D614E71E22A8DBF2825599743E0640037303E8E1B1E8EA4E1ABFA4F62907B5E4E0E5DCFDAB417C36C6848A2B8D15F1E505434C0707E16B1CFC2A1C36A42BBF55734F8F4301DDC2A5110CEE8C0747F69519265012A2174BF4E95
310
5ECD4FDE095A3ABC70536B7AD0B9D7892F81287D667C108703C9B66A221E9A0929D030008F77FF6F5D2108EF5706FC87A3069B976F7C9FC3239D13D283CDEA83597461079FEEE049B0F392889898B7D87D31F8D60ED7B56B91823A8E4EDDB36C6172ECEE42BD42B12CD67994FA0F0DFAE9389356F4CD4425A4B8AA55CBF7EC
310
D585C6A2C2316791E43D5C06841ADBB226A87FD61515FFBB0167B74E56BD7F3E90A57A97FEDCBDF483A0D6699A8C0849CAEB4947FAA90D8E332D9DEBD9F4738C37DA0CAF9CF3DAA68BCB67C420459C7A64498D6E848E5CADE92BB6901F607AA331104A67F7CD650EE169B1DAE94D2C31C2F993632259B6957E246EFE4C5481
310
107B07118607700040E5812A2A2A38DA0076875258C753F60E0F2662C748EDD5F3F3686B8FC3BD6FE631ECCAA1E8B1C1E565AD117E54893E79F4672E32F9E46B2A183DFDCF3EECB4D4D077DBEA0DA254D256045109670050129E9B9B1A9E4A11344D61497A992778095151510C4BB7EF2009B63AA4360635312E4CF668B7E0
310
D3D85A8688E2BD83B569439892ADB63461930D428E0DE42E4AC57CE48DA5CC1449530D8BD3D6A0F08DF20C8E8F570F2CFFFCEA286E30969B4654D498A58D9DA782E19FE3F002181838925592C4A1EF0B332D88B61A92C644547BED490D3A42CFFAB70E36D961F694F6307F72FF15A1C79D5B1B5CEFD353D9E2B52566DEC8F8
310
F09CB3E8359C0F68EBBB7898243E34E12A015B2685AB303C04D3A9E00671FF3DFF0A184E4A2ABEB2B666AF5B3A209C73D8EF29DCDB069C9F391EEE9DD0F74C7BCDE16F8F02E3B8816122BBEB50665775B600549D8BB33A54A6BF940C028118BC6878C79958D6784F9DEAA6E26748386FFAF8D0D0101E2847B6563F5D8DC1D7
310
8F787BE00E2C941AE12148D4A81599FE8F68D4DA5CDED75530ADE138240300EE13B0FC13A1687FED6774662C05A2B7DFB186732F0D7A93545D8B0A6390AE5054D9CB582DA846D7A061B3358B45E2B52DDE63E114397EDB7E09233A579155D795BE76102CF277F4DF8B188C4F2879BEAE3C08347124BF9ED23B128259FE107D
310
31E34A652F090B30B39E0D9AF917B76A2806135621A8A60681F16AF216514BBD02711585B5B1AE823F4B2D0369EA5B6BCB863072727FFC871CA6C9AB79A814D989057E9470A3D238BC87CBB4A0EA49AFE2B86F22E499793CAA9047080450166BDC357524561E258C77CB697F1ABB32562CF87C3B7AA12F911EF19FB3E5C022
310
22E887D08202A60A17151F5E053A86B437771088B4FEE14D652C43E8D939995D34545E12E2FF93D4E366EAD25F10CB7DED141563C3D0C447AF06078A91135FD4B9611583CB4BF3BD167F2399CEAB0E0100F8FFC305F00F1711717173138B4B48C83022295DE657EFEDD97F238ECA80F528AFB4F8D67AD4E2594B9A3AA86D74
310
87EFC313BA95745C186F0CDD84CC12DC9CB0424B42203D351FD9C0A3AF10CC7F388E0329279087386421F194F4A29464C1DEF7EF8BE515E4A199DCD5B909342598D8FE6A231F71336248D5CEC5454455C7BE383B3BC7B260FED27F703FDC39A170F3827239102F59D4DEE7FEF82EAA1A5E4BA94DCC4CC44E7E2EDE20F24244
310
E4454369D2E87C3F823F193FD4FD27E1C23984B01898D15ABC20711A8A558054951A6AE280096BA36CBA439603B7B0B4C45F248C14B2383B4B5CD8ECECE4FF859AD4A6CA2326D020EF090F4041D28DB66E5256B56232CC52829DE8060BAE6BBF37D4B7469B822454FE93210A3E8D15E69FFCF01123222611C51C4FD0A041A0
310
CFA2471CF6BE38D2B20FA4C3525B5B8B586759475CF80ADFE67A284AC24651E52B8E683D24C2622642F27E7C3C22783BCF63648BC398BD6CD0D9C97E7E7E3EACB6126DB7A6C1FD9F1031302EE67ED96F22B77C7CA0239BB324207559B105E4693EB26EC46182A92C9C0DBD24F29B31C5C5AC1F84300E0E17CEEAC15F5736FA
310
4A98971E2F1423BFCD68D4BBD5F86E74B40A369F39507C88FCDB35D2DD8DEBEA4AF999E23CF2816D204200DF6E611781B9884C1AC8888B4DE397320472959434323A5A36B22A8E1F721A270DF3BD65E4A31C11FF048AFB0D8B7B6881423793963A23CFCE935FC189ED36FAE35C46DA3574C979E4394BE52084F3081837BE03
310
3396D2EBD80F1F691B273F660D2B32FA27A33B1DE4ADA5F0FA4651511102DFA410DDA86E065272CA314D5249DF91B06BB92807B28EFD54F08F7B525252782CD276DD02E6B0319B13DF87B1F6361AD6B28FC0D711CF445429B9E5A433CD493051C49A9E03DDB1B147D880253514A5DED88009018620EE229101C041950E2D8A
310
A8E1F5F5438E0C0C0C60EEDEE9E3E0C051948C69F84BB7B2A48A1F3C8EB9E6864687F4F4F6F6E2FA87608ADAF9C5E117B7C1A737E710769DA1D15ECE6A84502AA855398712D5FB51BE92E4EF824969CE18278798AC303C2C7980DD2500ADF8FB1E6D6C2FAAFF9987178923334A244758BAA01A9A1B70FA5097D01E1CC2A58D
310
AD0EC94CE6430AA9B0C10D75E3C6BAC670EFBADEE1607739CE0FC18A2587E3EC3058562014C64219C69BC269082D5C2F4A659278D585755912176D78A1B641719C2A394CED495A1AC5D583FD2F5EDD93308EA7EAE8A6DD396598BDBD3D4CFED62D18A5BDFDE0DD5C80D1A89BA62697B131AE7CE9A6594138582F1B37D68F17
310
49AC7CB67A70695D48A4A056AC1FBD4E82358CEAE38F54B95A9016F9000F9879C0D9D131768635CA798895F27D6F1614F11F2838A83611AA51C9A3DDB539D42979C29F10465655C17BEC3E2760B80DCBF609198C7B171A531905F3EC218D696025975E986C6B4C666666787271F202805577DD5A3EF0CAFAF91B62DC4B2DB4
310
217A7606282F31D8DDBC290593BAA93EA6353AFA9939B877978481E15CFC9F2755CDC00C538F63A4BA3E80AE009B73CA0185687D339A507D165B74290D6EE46D5C58148F020C3668ABE9EF2F7549170DC80DB41FFC1D678FF19AEB10C7133832B104B80F691B3138F97A92D26E551F1F110400D45AC71A9B9AC41A1A1B1DAE
310
ED0B0810638EFFB511D46B121C6FEA0F38CD00E03CFFEB9713FE1F9C263E4DDEC160D0497FA9A132BA608584057FB15380825DE6C7FC3C667EE947D488A09898D8E939C4953BF4EC9836344D2CC6B2971B2A21A572B06096F4982D2CC7232D46E8EA69DC83722E267754D777F97F96D5DA74E1E75178084D0E70F12AD33E5F
310
71EF2AFA599B2BEBF60A5BE475F444F240CBFE8143C334E7ED9150FEEFEF7EB020C4DBED388DD1D6A167A76F3CBF119B578AE8CFA7736ACAFA4440A1C47185638A0D2F3EB5BDDEFDA958FB13CE4AA4923D5BF840392D45544329525749734866684BF7F8D9D54D892E19BCA9F829A0F8BFCBEEA6CFDFC61D74EA1A645ED7A1
310
FF241739F15694BD835B66FEC5677E40FE69BD3F91AE402F036537218A401CB0828604AD189E575015C6F3F6BBC8AC79CF6C70653847254B31551EFCBEB5978B9DB85D58D0FA41A9DFE9C624834AA04949D24B5AE6D299E072D152D12097920F14AA92C31C3B97E28B6C2E6E9C23D63043ECBBC0A60FDF5BD0C33C127EA8A3
310
308B8B6AFFEB28B4455BF6E7AF4FC6222728357EB8E46E85053E6A8843AB23295BF838ABDA94658FEF3F832F147046B4ACD6F7D48E8FCC9618582961C898D1C7A253C91BFECBDA6BA18A1FCF70755DCCEE2222F41B76D23CA98D0CB3D95F0CF66D57FFF65E2A90F5DF40FC3187621E981BD0BC1D992787212688976B94A8F0
310
C6EF646624B570B78E068826F87CE27041A95C9A4871FF65CC17FCB1639629AD6A9517000D63AC231F3D741CB8430777E7ECF80CE7A3F73C0F162F7E56AA71F4DA80A33CD6ACEE78E2C11FAC03DAFCE929B106F8F6B3ED2DC71FF994BD9CEF4E9A94896EF1B6E2B7B4978168BCF0847A3D2A4F1B0500B926E634B174548E9F
310
BAD27153FB5FC36799B1E6C7C38A94E1F9E996796D7B485E635D5287A2AE76FBD11A341DB3F8F810385BB7296391973DC6C37C452A9305AEBBE0CDB6C566DB59FE60C8E94B1FD090354BF51439FFD1B48D725228FFA88C84F686F547107A7A235665A4593B7C34D748C1AC8D56DD5DA861EEFBADDECBBD65117E65851F9035
310
1AEB65F0EFCFF4BCFEF24CB7A5879699FAC437A7AF9099186CF006BB923A59E37D7A36A29FD8D2CBB914A5E9D0A8FD212FBF796AE9A67958FF1D5D8B85F78F96219D4714EB919929241B6C018AAE0C02069F8D919961EC5DDFBFB7573E3AC8E08BFB7C8534BE6DE045B3CD63DBD71F7638BA2309CAE398EA3A7D8F98BBBC7A
310
EB367EFA5CFA27A9F8F2F52FE878058E6209C026453F8E7E8A237DFC389E9590F6059B397CFD65183BBF936E86896612A5B5FEE49DAC8455D026218AFEBEC12B3523A45B57B82C9C97E02ACFA1184DB18E48CF615DBF39C3CC6F0B4AE6BBEEA2E39D944E290302FA3DE33FA7E40296E2EF7BF1CD855BBECFAD0FD622BEE974
310
6FC4FDFDE545AE6E3BC234CADF83A0FB76DFB145BF3828AE3436368AC24989454F8FF70A177672C711CAA1A76107218CF948CA01F873520E7A2B118EBB161ABAD432932029628B6761590C98AB590C8C8C79798CE9F715BA696E839E9131A4BB68BE923F1747FBFF165331FFDD4D05997ACD168F12CA75348DAC04C7F509FE
310
83898A8B421181AF492861CE81E4A2DD0A30850CFA95E05F097FF70F9E777310D584A75BA7018922E271DAB1D785671157685B7D383D3E074DDB4F1E44EF04B07BAAC75A062077C54B9752C738C9D804D402E02851F3F89605AF189738C18C021D2139EAF72513824E10DDD3047BACC8521ED7E98B257D1166903B1B08FA6F
310
918FD7E162913FEC7D0EF4787E29C35FBA8C6E2C9C20E9AB30AE42CA2A01A090E7D010C1B5BF9CEE2A304BF3A987FB40D836979B79E18D70F257DA61E808472DD85B82761825779D6B90CAEB0F23360C6F80A7D7D77545E95B3DFF0CF96A827F9B5BCECD2C9698718417EF80FEEDEE938AFF55859D0D540B7FE09435583A6F
310
04874A0C7E8CF234DF4879722000167F5872CEC6BF3EF7E5A8CC8121E6A359227C8A29C95212F9F735BC72A887D56B8F309FC525BFB4FD767AAEC4AEFF249CFBBD2DE1AB9969A6155C7D8DABC307E47324C1F916C7BCFF40ABA5644E9FFB9238D19ADADA49D9610F01ABBA57E4DFCBDCCBB2B93C8953206C91DE01B0E2651A
310
6D6C31721915B31F7B7CBCE55466F6D70402788FA91D73BE4ADCBA99A35F17D6B83383704917D6833F0FA3CD45C926ADB8BC17999A4A0AFBCE2541F7B8CF4C2F5FBA611B3E626D64407CB32C122DFF4EF8674D6EDBB86C8F7C6A16D50FA685E2CCA34F8F7D1D8265BB0042E9D7F1F666F7BE5FAA5184DF58E12122A42EF02F
310
461B3F369AC746F96528AD208512AB56844CF75B97F352DF7995024FB02855385854F3798670D01CAC771AC3E1889EC25F61A20C1F8CAB46898817F9C47E2CDA1F286BF2F358298709FE567C91133E2638C8B53975E753EA8BFD3578B5F7186B7BF084EBA3F77BAC3132A5779902EC22AF2D2E79F42D324E083386DAEE9810
310
D1B44A5DAA54513C7A71E52A4AB9257D975B621308FE4D2141CC3DCFE946C154A3C1DFCCA7629EC69ACFA831634ADDA93C0388D2A9A2DDAFCF957C6995BCE7FBB6DC4EBAE79E63EB08E9A25F52F67076F7093CA545CA3053B5BF576DEAD4E0017143C5F759F32B2D6F145B52B67B48909B7C7FCA6586EE385A2189C16932CB
310
6DDFD9152AE317C430492A578ED27B72D85D40C7C93C097939E1B50F4D67F05334FE9DC362C30B7FF561B95259138ECFD9274C8D695C31B14D4EAA9F3D7FA8DDF652F8C5DEFA23284C799B7D94416DEE81E05A866302DC70192A5368EA65E1CED8BF107A1E2D3119A71E85DC1A7B0C1E93274CE04DD0F2ABC8AC7C987FDB00
310
2B6F81757B43502EF7A0D92E416494FAEEA4C9C090CD9557AA4D532F4996A272B94355C5A0E4974EEA9627476F30809B94D8D8D860062E02204643BEC7D0438AF800FC7E2B26955D595421E83C69E1A07E0E3122285835F014AD538188CF9737CE76D464A353FA55A001AB2526B84E985083693BC76FE211CA1D000679C889
310
E3C009832C87E1AC2EDD05C302557422DF0800E316FCAC86978A371F025A6C7DAA9F333E7BD160403A1A06EA75AA9888FF01504B03041400060808002249EE5251464CB48900000043010000360000006662782F37393734364338322D443732332D343845322D393730462D3733424132303635393837312F646972656374
310
6F72792E786D6C9D8F310EC2300C45AF127987122606C71DD918B841D4B851A43646695A717C52A85029031293A5A76FBF6FACEF7DA7264E43906840EF0FA03836E242F406C6DCEE4EA06AC22492573150D1F66C60C640E8938CB705396EEDD86DE9B5042FE27813D640EA63BB001C722AF6E55CB61E4863F58284D5D3F53D
310
D715CE1C3985E63FD7F1B7EBDD617E9F1E504B03041400060808002249EE52BA6A0EA03E070000541C0000340000006662782F37393734364338322D443732332D343845322D393730462D3733424132303635393837312F6F626A656374732E786D6CDD59DB6EDB3810FD1542FBB2FB605D7D2D141789DD144691B6A8D1C5
310
BE09B44439DCE8064A4A9CFDFA1D52A42C29B2AD645BA0D804481C861ACE9C9939331CB9EF0F71841E09CB699A5C69966E6A88247E1AD0647FA59545389A6BE8FD12B92C4D8BC63E0D253826571A5FD696EE9EA56526970212E232EAAEDEDEFC85729F2444437E84F3FC4ACBFD7B12631D97451A90FC410F7081F57D78D02D
310
BDDAD816BB6738BBEF1C95614692025485F504A4480DACF69F6092B1740DBEA1B5CD1EB6CD39B3CD1086B715A5495EE0C47FA155478E3D4C2BC71AAF3FD893C568321E3BA3F1D4B64637B737EB913573CCD574B55A5C7F586868E9EED234AA1D909124002F3E6B4BCB35F87F6AF3250A7D7AFB6992105FA2D9B72120522E25
310
79179316B09630ADE190CAD6C68233D0F813DB0681D252A985B6324EFD6E466FBAFB1B40C8874429CB098FF2BC60E06B897D950FA66B54AB2DBFD01CC5B8208CE2084574C7300307C1D6CA412D313C5BB828C431135E54F29ABA42605FCEA53E2DC3328A78FE6A4B91691EE4232972A119FD87B0A3F6CDD34027B0B6A44931
310
97C616CF198858B88658ACFEE7D8F29F1590288CF01EA205CCE49B1CBB83D78A73C166AD2D3FDDEE0E5BCE0FFD87672CCD082B78E489649679A73CD8082D08BE01A054B8B67D7744E51B40FF1990AF75412E788ED1C3F83056B6339CE461CA62F00E32D1C8841F26E21F5F7C728DFAE125422DAE3C8529A4ED0FC2B46546EB
310
EC06A44BF711823E658E346EEBE30862FA8E263CCF21505094C212F07DB83B68CB0D90292CC2533802EBE1DB35F84704BF2A39C0371D0FF5D1EF0047A984E9E6D9D1571F216618F56B57B56C3C85EFE487E07BBDDE7EDA962CC43EB99389BD26214D6801C5B45FA116E8AD94FFBEF92C32F2853DAD5D3E9CB34F3971F4F865
310
2BFD82846340155E872BD788953B0AE91E4538216999CBF53EA2F2D32865DEEED9AB72B8F7AC3F55105487417EF308E82533A8EE3EA31907455B4AF36A26D48F38711E9401B8AF9CEAEDB0FFC0E1F57C60ACB7E801518B59576819671E8ED332E1F4FD32BCBBA6E98E29BE2C6B619B0B7BBE984C64C083EEE200953F8A1C6A
310
F5F94931CE4E1CB36AF94BF28602B2CAA431F0659F0D3E744D65E1A519F669D11F0D1D3306AA1CD0302C73A0F55E603A1AEB8E35A9B0513F6D1B99AF58AD953A6FAD54CAA331DE132FC4BC26F6EAD702B416AE9CD48BE43E4AF39C2624173DCD0BAEEBA068EA401D55A42BA93D614B732F26057E4BC48A22D9095846C2C883
310
EEABE0FDEFE578550ACA7A7B4A22EFF5D2C413F63F7B398EB3A8EAEB2E6160D99D137A71E54AF3231E213E3D5C786640449B7E497ACD240ADF41D2176F167F021E867F3A3CEA080ACD3A54D5CB9EB5F489B5E05F73A0A1E9C472A6B3DA1597D0528715BC6F894AE8B4FC67EF89D0FDFD3012542E3F7B4E4EA2D0A35154C65E
310
55430A1243DB868B920DCAD829B049F720C90C9D94689C14D2089AEAC1342BFA15D5B1C061A2613945B38D63C0289AC0BD6E90212FACE80D62E10B7187E557B5CBFE7FBDD4FFCC98CDBBCD03797E4A59D0AB69BBF5505D9B6A323861CA9A58BB57485EBACDF48BC565E7320E632544325C75B39011C2C823E5C30C716BEABD
310
73E44FB8F0814AB7E2F7E806322220C1B10F698993A3116D09872A69AAB76DDE8E80EE780169356B1B4EA9314C283067DA3BFE21FA86C1D5D02DE686EC848C6A7DC34B9B0EC398A31E67647DF9B8ED488195C14F7FE51891A78E04B9BAE2CDDF1951DF37C71EB723415AF47D73E6F1E2BE8C7709A6BC36F2B0C041F6EEBDB8
310
7F5E1970B930668BD978BA9ADBA3F5CC8679C7FC833D5ACCCCDBD1CCB9B9B6CDE964319F590623795A329FE4866D989EEAB6B264AF02A3826EC82D04261197AF8B2A9EBB0EFE1FDF42A274874FC5E2AF7A09A91B3EDE92757271E825A497A877AFBB31582F88BABF88BDAAD7AEE60B2AC0CF972D202355EF8737174AB4AAF0
310
FD3A372AE22B0BEFC9FBCD4FAF312D42EFAD0FAD1D7D94DFE6629857F55429752316BCB69ACDA7F66C658DECC5C41E8DED8939BA5E5BC06863C759ADA66B676A3935E2B2160EAD2BBF04872A651BA3379820E7694461904F02B42729DC81605231805F594C7271B78106409671F51661C0D38FD51CB6C0BB483DEDDF631866
310
47B222973E0C52E1DE71A5C975F41B8C4EF9F4520CB4F407283C32DA3554327AA541081414EA8BBE83119818380AE99D1127B80D277B7E6BAA9EAAFF3E3EC6D1815839DA55EF19828BB4AC159D304EC8C4BB05603BD590BCDD74A50EC2057CDC95456DCC71E1688D0441BD44A88C8349E18384F700C473DE2E4B177B5A900C
310
9AE69F8D834AEAA8C06C2F46F20DBCAFD75F0D3E4DDF7C415954EEB93BCFD5FB96A411EF33A2B21A5CB91018D2CC0CF39BF8EA9DF195A5F05A2A46B7148200FD7E984FFF3056691CA749B5645CCB975B687B0FAFAA02438D09A17131ADB921FA1EF92A00665D39D171903FC002B896513E4FAD206E05404D4F8D00501EE1BE
310
80C75AFB376B248B40A3856DB6AE1C1EF11E004122F1F73F3C6D9A1B1A434BC805D0AA9AEDD61FD4826B30189C2FFF05504B03041400060808002249EE520CF9957FDF000000550100003C0000006662782F37393734364338322D443732332D343845322D393730462D3733424132303635393837312F7265736F75726365
310
732F322F636E782E786D6C4D90DB6A042110447F45843C8E3A43422E38EE4FE4292F8BD15E23ABF6E025247F1FDD1808082D5587A6BAE4E92B06F209B9784C3B5D99A0049241EB93DB69AB97E58992939219B1FEC328493AC24E874C957419DB31250B17DDC250834FD7298AB38304D99BF3911C2526E852765ACC0744CD74
310
AB68A15C99D555B3956528D8B281BEA2FA087385C9A02B58AA36B1AD8B785CD6FB57F1FC32DEC39BE48354F21D314CDEA70A198FBB4D18ECDFD41309C907A064CB7E52E38C6EFCC5633D9EE4DD56B2D4DC3B9858FD3E3AE6A376C06FC8AFAB241F47F6716BA0CF5188FA01504B03041400060808002249EE52FF15A4A45D00
310
0000800000003A0000006662782F37393734364338322D443732332D343845322D393730462D3733424132303635393837312F7265736F75726365732F636E782E786D6C4D8B3B0E80201005AF42B6F75B59F0390B113044D83508C6E30BC6C26AF226F3B8BA6360974DA7271430F523308B2B198F9B80925DB700539227A2
310
FCCB80A18E5640D320F996A81C9F32D6E9129A0D1EF74FCE750E6D57BC7165FBCA07504B03041400060808002249EE526B05C63D4101000056050000300000006662782F37393734364338322D443732332D343845322D393730462D3733424132303635393837312F636E782E786D6CCD94CD6A032114855F6510BA1C9D09
310
2DFDC131D0459FA08BD29DE3DC4E6D1C1DF45A9AB7AFA6266929A15D04127021D74F38E77ABC7CF93199EA1D7CD0CE76A4A50DA9C02A37683B7624E24B7D43AAA5E0DE39FC8691CACA093A92CB44F0D1BB3897D2002F329A5C35DAAE4A51227ADD4784402A6564081D09EA1526496544374058D141A2A42DF5105CF40AD27D
310
D41394FBCA8344188858348BB66EAEEBF6F2B1B9BDCBEBEA99B34C0ADE3B670AAF2D8277F3C5A2512E6D6D92D3709601C1A3D785CA1E88D86BA3BDB69CA573C143D26BC7C2E17ACEDC3C1BAD24A64631A710B04E10C889B32F5870961DFFF0FD70FFB4D7907683F6A0D0F9F5C9DAD01E6AC34E1A4D89F85F1736E05FE65DFF
310
962C9FEEDD0F1A2EC28E66779BDC90A2FB3B09294FD28EE61C3FC04EDAF1F39F060B6A758EA6B7CA8EE4996D46607AF83C11C527504B03041400060808002249EE52E3EDAD237F000000A30000000B0000006662782F636E782E786D6C4D8CCB0E832014057F85DC3D2DA2F56202983EFFC35434A4080D95A69F5F685C7475
310
92C99991FD6771E46DE2CB06AFA0DA3120C6DFC368FDAC20AD1315407A2D6308EBDF0D881F16A3A060D0728E213D37349A6948AE5067FD6383D861D39E05A717E4356DC495D30ED98D627D3A72D61E3A815536F645C9F3EBE52D79FD05504B03041400060808002249EE52A6D797065F0000008200000007000000636E782E
310
786D6C4DCB3B0E80201045D1AD90E9FD7516806B51190811670C8A61F982B1B0BAC9C97B72CA7B1037C6D3332918DA1E04D2CAC69353902EDB8C20262D23F3F59B81A079470595414B17391D1F19B4730A5583A7ED43BBE4025D9592775E5ADFFA01504B03041400060808002249EE52ECFD112DA800000026010000130000
310
005B436F6E74656E745F54797065735D2E786D6C7D4F4B0EC22010BD0A61DF525D18634ABB506FE00510A79458060253536F2FD89D5197F3FED3F68B9BD80362B21E25DFD40D6780DADF2C1AC9671AAA3D677DD75E9E0112CB5A4C928F44E12044D22338956A1F003333F8E814E5331A1194BE2B0362DB343BA13D12205554
310
3278D79E6050F344ECBC6478EDCD76CE8EABAE5449AE4298AC56946789C28AAFBEABC53F3EAF09A84A1441B91F0101CD4780756578C173A578FFDDBD00504B03041400060808002249EE523DEE336E64000000790000001B0000006175746F6465736B2D64657369676E2D7061636B6167652E786D6C35CBC10E83200C00D0
310
5F21DCA56CA76D41FC96062B120735B69A7DBE268BB7777961F8D5AF396893C2ADB70FE7ADA196782C2DF776D7A97B5933C430F15651E5469C55D70F80A4992A3ADC954792C525AE70A1E4D6AD9816CC044FEFDF01FE3FDE907802504B03041400060808002249EE52216C69D6F40000008E0100003D0000006662782F3739
310
3734364338322D443732332D343845322D393730462D3733424132303635393837312F7265736F75726365732F322F636F72652E786D6C8550CB6EC32010FC156BEFD8063B8E5D61A2B471BFA0A7DE10101725068B47D5CF2FC4AED49E2AADB4AB6166961D7AFA5AEEC5A7725E5B33022E6B289411566A338F10C315F5509C
310
1875D6865F34280C5FD4081906466767E3BA43C29AA04C468D956A07B9F72A4021EE6918C18B0FB5F092C79018FE56AE5CDCF8AC4A5C6E3C4663D472976A99DCF4552B076CE82E1DA95F7B743976136A87F68086EEA5416742DA7E9A9E277C6E6895C58C06BDFC6C174EF1A0243052138CEA23C2ED5B3D3CE53ABCD32A3319
310
F5C1A59BF7A5F9BA44A7D586FE718BABFCDF2D6A131AB2BB6D0A0F0CA7CF3D1E18AD723AA93DA24B3D27C9BE01504B03041400060808002249EE520F457FADF9000000960100003B0000006662782F37393734364338322D443732332D343845322D393730462D3733424132303635393837312F7265736F75726365732F63
310
6F72652E786D6C8550CB6E833010FC15B477F3308440651CA50DFD829E7AB3CC865A0936F2A3EAE7D70E546A4F952CAD353B33BB3BECF4B5DCB34FB44E193D40959790A19666527A1E20F82BE9203B71668DF1BF689069B1E0000906CE666BC2BA43D2688F3AA1DA4CB883C239F490C97BFC0CE0E4072E2217C14786BBE5AB
310
903731635EE51B8FB310D4B44BD514DDD455A105DEB7979696AF1DB91CDB91347D73207DFB529333A54D378ECF6375AE5991C49C79B5FC4C971685C709382D6945CA23A99AB7B27F4AEFF0CE8AC4E4CC791B6FDE87A6EB805B742658898E155BF78F6B58A7FF5D83D2BEA6BBEBA670C0ABB8E4A3C15991528AE51161AC2951
310
FE0D504B03041400060808002249EE5204FF1050EF000000B1010000310000006662782F37393734364338322D443732332D343845322D393730462D3733424132303635393837312F636F72652E786D6C8D504B6EC32014BC8AF5F6D8183BC1AE3051BF27E8AA3B04C44589C1E253F5F885D895DA5D24A487861966DEB0D3
310
F772ADBEB40FC6D909DA1A43A5AD74CAD8798214CF6880EAC499772EFEA14165C5A227283070367B97D61D92CE466D0B6A9DD23B2842D0112A79CD970982FCD48BA8458A99112EF52AE445CCBA6EEB8DC75934CBAF547A2DA256C009262DC214B5FD3B1E1FCA397CB0A630394BC9A8DDCAA8EC6ECE467BE074A4FDF17920E8
310
85920EF5C32B4123C56F88764F8F041F0FE3405BD614316721FABCF3FE49D9EE5EF926FC9739ADEA8ECCC6C68EEC869B22002F796E0F9C35A5C03C6EEDE659CAE63F504B03041400060808002249EE52DD88B87753010000DD0200000C0000006662782F636F72652E786D6C8D52CB6E833010FC15E4BB7985905019476943
310
BFA0A7DE1CDBA156C046C646F9FCDA3C443934AD40D89ADD99DD19814E8FB60906AE7BA164099230060197543121EB1258738347109C30D24A991F6D2090A4E525F030C0A8D6CA76334495345C7A542AC66790F43D3720A08DBB94A0A75FBC2521B1C675F4F7B023F44E6A1E26E1D48791B582CD54C19C9AB809AE012EF24B
310
9EC6EF477839E415CC8A6C0F8BFC6D07CF699A1DABEAB54ACE3B1479324646B4CB74AA39319C019CC66902E3034CB28FB878F1EFFE1345BE13A3DE68E7791EEADD017CBB3E5034E11B3DDBB1BFF5AC906697CE7A13A3073871EB8D058C229F8F3BC6F0B619BAC12E3F43AECD62E1EEA08153A374E62A4CD9B53490C672271D
310
07E383A2A9EA944781DF74D2273ACF355C5044D66E3562DCF56A8D9FBEDDA9E31A0EE61148A55BD2ACCB4D2BAEDF75D0C6D242A7AA51FA3FECC5EA1266E47F4CFC0D504B03041400060808002249EE52359598C008010000B201000008000000636F72652E786D6C8D50416EC32010FC0ADA3BB6C18E134798286DDC17F4D4
310
1B05E2A2D860191CB5BF2FC4AED4DE2A212D9A99DD995D76FA1C0774D7B337CEB640B20290B6D22963FB169670C5074027CE66E7C22F19202B46DD428281B37E76CBB441D2D9A06D42AD537A0385F73A009243FCB4E0E5871E4526961015FE964D42DE44AF3392AD3ACE82197F5AE5AC45D00A382D28C1C51E93EAB5688EE9
310
EDDE589E949C2D8B519B9551D1DD5C8D9E8137F5A5A6C5CB015FF67587ABA6DAE1A67E2EF199D2EAD0754F1D39972C4FCD9CF930C79DB7213167405EDC932FCB578AB377E7864D104329E4ECF005BC607922FE845E26F58FD0C686926E03D70E0F9CC4400F221AA70BC6F2386FACE9DAFC1B504B0102140014000608080022
310
49EE520000000000000000000000003700000000000000000000000000000000006662782F37393734364338322D443732332D343845322D393730462D3733424132303635393837312F617474726962757465732E62696E504B010214001400060808002249EE520000000000000000000000003500000000000000000000
310
000000550000006662782F37393734364338322D443732332D343845322D393730462D3733424132303635393837312F76657274696365732E62696E504B010214001400060808002249EE52F270F13306000000040000003600000000000000000000000000A80000006662782F37393734364338322D443732332D343845
310
322D393730462D3733424132303635393837312F747269616E676C65732E62696E504B010214001400060808002249EE5288E57597CD3F0000904100004200000000000000000000000000020100006662782F37393734364338322D443732332D343845322D393730462D3733424132303635393837312F7265736F757263
310
65732F322F305F67656E657269632E706E67504B010214001400060808002249EE5251464CB4890000004301000036000000000000000000000000002F4100006662782F37393734364338322D443732332D343845322D393730462D3733424132303635393837312F6469726563746F72792E786D6C504B01021400140006
310
0808002249EE52BA6A0EA03E070000541C000034000000000000000000000000000C4200006662782F37393734364338322D443732332D343845322D393730462D3733424132303635393837312F6F626A656374732E786D6C504B010214001400060808002249EE520CF9957FDF000000550100003C000000000000000000
310
000000009C4900006662782F37393734364338322D443732332D343845322D393730462D3733424132303635393837312F7265736F75726365732F322F636E782E786D6C504B010214001400060808002249EE52FF15A4A45D000000800000003A00000000000000000000000000D54A00006662782F37393734364338322D
310
443732332D343845322D393730462D3733424132303635393837312F7265736F75726365732F636E782E786D6C504B010214001400060808002249EE526B05C63D410100005605000030000000000000000000000000008A4B00006662782F37393734364338322D443732332D343845322D393730462D3733424132303635
310
393837312F636E782E786D6C504B010214001400060808002249EE52E3EDAD237F000000A30000000B00000000000000000000000000194D00006662782F636E782E786D6C504B010214001400060808002249EE52A6D797065F000000820000000700000000000000000000000000C14D0000636E782E786D6C504B010214
310
001400060808002249EE52ECFD112DA8000000260100001300000000000000000000000000454E00005B436F6E74656E745F54797065735D2E786D6C504B010214001400060808002249EE523DEE336E64000000790000001B000000000000000000000000001E4F00006175746F6465736B2D64657369676E2D7061636B61
310
67652E786D6C504B010214001400060808002249EE52216C69D6F40000008E0100003D00000000000000000000000000BB4F00006662782F37393734364338322D443732332D343845322D393730462D3733424132303635393837312F7265736F75726365732F322F636F72652E786D6C504B010214001400060808002249
310
EE520F457FADF9000000960100003B000000000000000000000000000A5100006662782F37393734364338322D443732332D343845322D393730462D3733424132303635393837312F7265736F75726365732F636F72652E786D6C504B010214001400060808002249EE5204FF1050EF000000B10100003100000000000000
310
0000000000005C5200006662782F37393734364338322D443732332D343845322D393730462D3733424132303635393837312F636F72652E786D6C504B010214001400060808002249EE52DD88B87753010000DD0200000C000000000000000000000000009A5300006662782F636F72652E786D6C504B0102140014000608
310
08002249EE52359598C008010000B2010000080000000000000000000000000017550000636F72652E786D6C504B050600000000120012002D060000455600000000
  0
XRECORD
  5
1E5
102
{ACAD_REACTORS
330
1E0
102
}
330
1E0
100
AcDbXrecord
280
     1
270
     1
271
     1
  0
XRECORD
  5
1E4
102
{ACAD_REACTORS
330
1E0
102
}
330
1E0
100
AcDbXrecord
280
     1
270
     1
271
     1
  0
XRECORD
  5
1E6
102
{ACAD_REACTORS
330
1E0
102
}
330
1E0
100
AcDbXrecord
280
     1
270
     1
271
     1
  0
XRECORD
  5
1E3
102
{ACAD_REACTORS
330
1E0
102
}
330
1E0
100
AcDbXrecord
280
     1
270
     1
271
     1
  0
XRECORD
  5
149AF
102
{ACAD_REACTORS
330
149AE
102
}
330
149AE
100
AcDbXrecord
280
     1
102
DISPLAYNAME
  1
Imperial24
102
FLAGS
 90
        0
  0
CELLSTYLEMAP
  5
149A4
102
{ACAD_REACTORS
330
F11A
102
}
330
F11A
100
AcDbCellStyleMap
 90
        3
300
CELLSTYLE
  1
TABLEFORMAT_BEGIN
 90
        5
170
     1
 91
        0
 92
    32768
 62
   257
 93
        1
300
CONTENTFORMAT
  1
CONTENTFORMAT_BEGIN
 90
        0
 91
        0
 92
      512
 93
        0
300

 40
0.0
140
1.0
 94
        5
 62
     0
340
A
144
0.25
309
CONTENTFORMAT_END
171
     1
301
MARGIN
  1
CELLMARGIN_BEGIN
 40
0.06
 40
0.06
 40
0.06
 40
0.06
 40
0.18
 40
0.18
309
CELLMARGIN_END
 94
        6
 95
        1
302
GRIDFORMAT
  1
GRIDFORMAT_BEGIN
 90
        0
 91
        1
 62
     0
 92
       -2
340
0
 93
        0
 40
0.045
309
GRIDFORMAT_END
 95
        2
302
GRIDFORMAT
  1
GRIDFORMAT_BEGIN
 90
        0
 91
        1
 62
     0
 92
       -2
340
0
 93
        0
 40
0.045
309
GRIDFORMAT_END
 95
        4
302
GRIDFORMAT
  1
GRIDFORMAT_BEGIN
 90
        0
 91
        1
 62
     0
 92
       -2
340
0
 93
        0
 40
0.045
309
GRIDFORMAT_END
 95
        8
302
GRIDFORMAT
  1
GRIDFORMAT_BEGIN
 90
        0
 91
        1
 62
     0
 92
       -2
340
0
 93
        0
 40
0.045
309
GRIDFORMAT_END
 95
       16
302
GRIDFORMAT
  1
GRIDFORMAT_BEGIN
 90
        0
 91
        1
 62
     0
 92
       -2
340
0
 93
        0
 40
0.045
309
GRIDFORMAT_END
 95
       32
302
GRIDFORMAT
  1
GRIDFORMAT_BEGIN
 90
        0
 91
        1
 62
     0
 92
       -2
340
0
 93
        0
 40
0.045
309
GRIDFORMAT_END
309
TABLEFORMAT_END
  1
CELLSTYLE_BEGIN
 90
        1
 91
        1
300
_TITLE
309
CELLSTYLE_END
300
CELLSTYLE
  1
TABLEFORMAT_BEGIN
 90
        5
170
     1
 91
        0
 92
        0
 62
   257
 93
        1
300
CONTENTFORMAT
  1
CONTENTFORMAT_BEGIN
 90
        0
 91
        0
 92
      512
 93
        0
300

 40
0.0
140
1.0
 94
        5
 62
     0
340
A
144
0.18
309
CONTENTFORMAT_END
171
     1
301
MARGIN
  1
CELLMARGIN_BEGIN
 40
0.06
 40
0.06
 40
0.06
 40
0.06
 40
0.18
 40
0.18
309
CELLMARGIN_END
 94
        6
 95
        1
302
GRIDFORMAT
  1
GRIDFORMAT_BEGIN
 90
        0
 91
        1
 62
     0
 92
       -2
340
0
 93
        0
 40
0.045
309
GRIDFORMAT_END
 95
        2
302
GRIDFORMAT
  1
GRIDFORMAT_BEGIN
 90
        0
 91
        1
 62
     0
 92
       -2
340
0
 93
        0
 40
0.045
309
GRIDFORMAT_END
 95
        4
302
GRIDFORMAT
  1
GRIDFORMAT_BEGIN
 90
        0
 91
        1
 62
     0
 92
       -2
340
0
 93
        0
 40
0.045
309
GRIDFORMAT_END
 95
        8
302
GRIDFORMAT
  1
GRIDFORMAT_BEGIN
 90
        0
 91
        1
 62
     0
 92
       -2
340
0
 93
        0
 40
0.045
309
GRIDFORMAT_END
 95
       16
302
GRIDFORMAT
  1
GRIDFORMAT_BEGIN
 90
        0
 91
        1
 62
     0
 92
       -2
340
0
 93
        0
 40
0.045
309
GRIDFORMAT_END
 95
       32
302
GRIDFORMAT
  1
GRIDFORMAT_BEGIN
 90
        0
 91
        1
 62
     0
 92
       -2
340
0
 93
        0
 40
0.045
309
GRIDFORMAT_END
309
TABLEFORMAT_END
  1
CELLSTYLE_BEGIN
 90
        2
 91
        1
300
_HEADER
309
CELLSTYLE_END
300
CELLSTYLE
  1
TABLEFORMAT_BEGIN
 90
        5
170
     1
 91
        0
 92
        0
 62
   257
 93
        1
300
CONTENTFORMAT
  1
CONTENTFORMAT_BEGIN
 90
        0
 91
        0
 92
      512
 93
        0
300

 40
0.0
140
1.0
 94
        2
 62
     0
340
A
144
0.18
309
CONTENTFORMAT_END
171
     1
301
MARGIN
  1
CELLMARGIN_BEGIN
 40
0.06
 40
0.06
 40
0.06
 40
0.06
 40
0.18
 40
0.18
309
CELLMARGIN_END
 94
        6
 95
        1
302
GRIDFORMAT
  1
GRIDFORMAT_BEGIN
 90
        0
 91
        1
 62
     0
 92
       -2
340
0
 93
        0
 40
0.045
309
GRIDFORMAT_END
 95
        2
302
GRIDFORMAT
  1
GRIDFORMAT_BEGIN
 90
        0
 91
        1
 62
     0
 92
       -2
340
0
 93
        0
 40
0.045
309
GRIDFORMAT_END
 95
        4
302
GRIDFORMAT
  1
GRIDFORMAT_BEGIN
 90
        0
 91
        1
 62
     0
 92
       -2
340
0
 93
        0
 40
0.045
309
GRIDFORMAT_END
 95
        8
302
GRIDFORMAT
  1
GRIDFORMAT_BEGIN
 90
        0
 91
        1
 62
     0
 92
       -2
340
0
 93
        0
 40
0.045
309
GRIDFORMAT_END
 95
       16
302
GRIDFORMAT
  1
GRIDFORMAT_BEGIN
 90
        0
 91
        1
 62
     0
 92
       -2
340
0
 93
        0
 40
0.045
309
GRIDFORMAT_END
 95
       32
302
GRIDFORMAT
  1
GRIDFORMAT_BEGIN
 90
        0
 91
        1
 62
     0
 92
       -2
340
0
 93
        0
 40
0.045
309
GRIDFORMAT_END
309
TABLEFORMAT_END
  1
CELLSTYLE_BEGIN
 90
        3
 91
        2
300
_DATA
309
CELLSTYLE_END
  0
ENDSEC
  0
SECTION
  2
ACDSDATA
 70
     2
 71
     8
  0
ACDSSCHEMA
 90
        0
  1
AcDb_Thumbnail_Schema
  2
AcDbDs::ID
280
    10
 91
        8
  2
Thumbnail_Data
280
    15
 91
        0
101
ACDSRECORD
 95
        0
 90
        1
  2
AcDbDs::TreatedAsObjectData
280
     1
291
     1
101
ACDSRECORD
 95
        0
 90
        2
  2
AcDbDs::Legacy
280
     1
291
     1
101
ACDSRECORD
  1
AcDbDs::ID
 90
        3
  2
AcDs:Indexable
280
     1
291
     1
101
ACDSRECORD
  1
AcDbDs::ID
 90
        4
  2
AcDbDs::HandleAttribute
280
     7
282
     1
  0
ACDSSCHEMA
 90
        1
  1
AcDbDs::TreatedAsObjectDataSchema
  2
AcDbDs::TreatedAsObjectData
280
     1
 91
        0
  0
ACDSSCHEMA
 90
        2
  1
AcDbDs::LegacySchema
  2
AcDbDs::Legacy
280
     1
 91
        0
  0
ACDSSCHEMA
 90
        3
  1
AcDbDs::IndexedPropertySchema
  2
AcDs:Indexable
280
     1
 91
        0
  0
ACDSSCHEMA
 90
        4
  1
AcDbDs::HandleAttributeSchema
  2
AcDbDs::HandleAttribute
280
     7
 91
        1
284
     1
  0
ACDSRECORD
 90
        0
  2
AcDbDs::ID
280
    10
320
21E
  2
Thumbnail_Data
280
    15
 94
     1581
310
89504E470D0A1A0A0000000D49484452000000B800000100080300000037034C5900000300504C5445FFFFFFFFFFFFFFFFFF0000000000000000000000000000000000000000000000000000330000660000990000CC0000FF0033000033330033660033990033CC0033FF0066000066330066660066990066CC0066FF0099
310
000099330099660099990099CC0099FF00CC0000CC3300CC6600CC9900CCCC00CCFF00FF0000FF3300FF6600FF9900FFCC00FFFF3300003300333300663300993300CC3300FF3333003333333333663333993333CC3333FF3366003366333366663366993366CC3366FF3399003399333399663399993399CC3399FF33CC00
310
33CC3333CC6633CC9933CCCC33CCFF33FF0033FF3333FF6633FF9933FFCC33FFFF6600006600336600666600996600CC6600FF6633006633336633666633996633CC6633FF6666006666336666666666996666CC6666FF6699006699336699666699996699CC6699FF66CC0066CC3366CC6666CC9966CCCC66CCFF66FF0066
310
FF3366FF6666FF9966FFCC66FFFF9900009900339900669900999900CC9900FF9933009933339933669933999933CC9933FF9966009966339966669966999966CC9966FF9999009999339999669999999999CC9999FF99CC0099CC3399CC6699CC9999CCCC99CCFF99FF0099FF3399FF6699FF9999FFCC99FFFFCC0000CC00
310
33CC0066CC0099CC00CCCC00FFCC3300CC3333CC3366CC3399CC33CCCC33FFCC6600CC6633CC6666CC6699CC66CCCC66FFCC9900CC9933CC9966CC9999CC99CCCC99FFCCCC00CCCC33CCCC66CCCC99CCCCCCCCCCFFCCFF00CCFF33CCFF66CCFF99CCFFCCCCFFFFFF0000FF0033FF0066FF0099FF00CCFF00FFFF3300FF3333
310
FF3366FF3399FF33CCFF33FFFF6600FF6633FF6666FF6699FF66CCFF66FFFF9900FF9933FF9966FF9999FF99CCFF99FFFFCC00FFCC33FFCC66FFCC99FFCCCCFFCCFFFFFF00FFFF33FFFF66FFFF99FFFFCCFFFFFF0000000D0D0D1A1A1A2828283535354343435050505D5D5D6B6B6B787878868686939393A1A1A1AEAEAEBB
310
BBBBC9C9C9D6D6D6E4E4E4F1F1F1FFFFFF000000000000000000000000000000000000000000000000000000000000AD4AB4E4000002E84944415478DAEDDDDB6E83300C8061BFFF63FA72EA434CD54ACBA95D6CE7E4F2E7666A25E0AB312C014CE496B0C9BDDD345F7BC02567030E1C3870E0C08103070E1C3870E0C08117
310
C1CFAE07185A6CE9007CB7313BFCC3CADAC22524D7DDBA7454C46DF2FDC22A1DE112814B6469E01EB826851FE444DC0CD7A439AE690FCE3C117F77FFC2DA4D69D85B2986976D5EC7C28B459D9041B8A7A332035C8003070E1C3870E0C081D33BCCDE1F2F1C39F6BBDACE1D09E0C08103070E1C3870E0C081B71C2C2F63335D
310
06A0CB87CDC06EE631A73C80CB87C9E1B285AFFFE688B86C93465EC19F162E6BF8DF987E795462E6CB139C0E8103070E1C3870E0C08103070E1C3870E0C08103070E1CF897C3434F13869E452C5F6C3678F1938B9395FE96FFC8C22A71F5C34D45951ACCF1434567B95C0F6F2330FC6A8DC2F5246F8B13DC1D71D3E15096E3
310
6280FBF7BF4A5DB81A76E2F306E818F866537FBBDA04D7DD0AC6C0C3111F06173BDC9929C08177839FF456DC704BF508F09E70C37F0BE05F09375576C5E1DE37950007DE1C6EE983F680DBAA2EAF0C3F8EF381039F02AE3217DC58CA7D69F8FEA20E70E02DE1860BCC49E12AC07D2F2A060EDC05B79E54807783ABD4846F6F
310
E4004F0037A738F0ACF0F5969BC255805F1A6E4F71E069E1AB6D03AFB195B67047C08103EF0E371FEF5F00F7B88103075E0CB70EAAF2C37D0FBBA7823B86E4C08157841B2F002F7067214A5DB8E7C1F719E0E152837277AA883784B7CD71E06FD61CA903FAEF184A0A6FD45791E7AB2FD3455C2CD5A4E6D2537D33D4AE0117
310
0916E98D84379B9DC63DA1F370B86685FB0A1189F8E572DC3F2333F0ABC1F3E6B812F19EF0C074E9C06BC0350B3CF20A99A15300F6804FD78003070E1C3870E0C08103070E1CF8610CBC9D8EEEF59D73E07898E0EEF99D94ADCC0A5F73450FB3021AE072BE706914BC11FF001757C4DBC1E53C558EF32E8A7F8D2771A80B97
310
7D8E87E1AFDD2035E19C0E8103070E1C3870E0C08103070E1CB807FE93AE3DE0F9DADDFD0BB54A0E8C2FD3C60F0000000049454E44AE426082
  0
ACDSRECORD
 90
        0
  2
AcDbDs::ID
280
    10
320
21D
  2
Thumbnail_Data
280
    15
 94
     1187
310
89504E470D0A1A0A0000000D49484452000001000000006608030000001376BFA700000300504C5445000000FFFFFF0000000000000000000000000000000000000000000000000000000000330000660000990000CC0000FF0033000033330033660033990033CC0033FF0066000066330066660066990066CC0066FF0099
310
000099330099660099990099CC0099FF00CC0000CC3300CC6600CC9900CCCC00CCFF00FF0000FF3300FF6600FF9900FFCC00FFFF3300003300333300663300993300CC3300FF3333003333333333663333993333CC3333FF3366003366333366663366993366CC3366FF3399003399333399663399993399CC3399FF33CC00
310
33CC3333CC6633CC9933CCCC33CCFF33FF0033FF3333FF6633FF9933FFCC33FFFF6600006600336600666600996600CC6600FF6633006633336633666633996633CC6633FF6666006666336666666666996666CC6666FF6699006699336699666699996699CC6699FF66CC0066CC3366CC6666CC9966CCCC66CCFF66FF0066
310
FF3366FF6666FF9966FFCC66FFFF9900009900339900669900999900CC9900FF9933009933339933669933999933CC9933FF9966009966339966669966999966CC9966FF9999009999339999669999999999CC9999FF99CC0099CC3399CC6699CC9999CCCC99CCFF99FF0099FF3399FF6699FF9999FFCC99FFFFCC0000CC00
310
33CC0066CC0099CC00CCCC00FFCC3300CC3333CC3366CC3399CC33CCCC33FFCC6600CC6633CC6666CC6699CC66CCCC66FFCC9900CC9933CC9966CC9999CC99CCCC99FFCCCC00CCCC33CCCC66CCCC99CCCCCCCCCCFFCCFF00CCFF33CCFF66CCFF99CCFFCCCCFFFFFF0000FF0033FF0066FF0099FF00CCFF00FFFF3300FF3333
310
FF3366FF3399FF33CCFF33FFFF6600FF6633FF6666FF6699FF66CCFF66FFFF9900FF9933FF9966FF9999FF99CCFF99FFFFCC00FFCC33FFCC66FFCC99FFCCCCFFCCFFFFFF00FFFF33FFFF66FFFF99FFFFCCFFFFFF0000000D0D0D1A1A1A2828283535354343435050505D5D5D6B6B6B787878868686939393A1A1A1AEAEAEBB
310
BBBBC9C9C9D6D6D6E4E4E4F1F1F1FFFFFF0000000000000000000000000000000000000000000000000000000000003AE5ACE90000015E4944415478DAEDDD416EC320100550EE7FDFD9578ADA4D3D34C869D5F079AC225BB2C4D34020333863FC61AB5F6A63D7566FF51800000000000000C07F00D46BFDDB1E60BAA05B5C
310
E9A544C0B5A3B3EBA943E00A504B1D0C0618A700F463BDCE99035EDBEEC6AC03BEF7B4EE3D060000000000ECB91BBCF96BAFED300000000000885807DCCB790200600E0000000000000000000000604B80D9E2FFE7CA8983012A0CE0AB33D5E609DAB479DA10183DC0E4F2DD04CA9B035403D097C88402CC2360C4034CCAC1
310
26003500000000E01C80A67C320FE07325B004500300000000CE01E86AE803011E1F97006A00000000C03900ED41AA4480C7B7DB0240171500000000900AD09FA68D04E833436D0000C81C02D73C78D5242D181A01F5340D9C3D0496929EC911B006707804F4B9A29300444038C0B33333FD0D8592000000000000C0F6004F
310
5FA135BB0D0080390000000000000000B01DC0067FB2F20193D98A7DCC4761470000000049454E44AE426082
  0
ENDSEC
  0
EOF
