  0
SECTION
  2
HEADER
  9
$ACADVER
  1
AC1014
  9
$ACADMAINTVER
 70
     9
  9
$DWGCODEPAGE
  3
ANSI_1252
  9
$INSBASE
 10
0.0
 20
0.0
 30
0.0
  9
$EXTMIN
 10
0.0006375810245949
 20
0.0025624428137903
 30
0.0
  9
$EXTMAX
 10
12.12286176218324
 20
13.22229150306674
 30
0.0
  9
$LIMMIN
 10
0.0
 20
0.0
  9
$LIMMAX
 10
12.0
 20
9.0
  9
$ORTHOMODE
 70
     1
  9
$REGENMODE
 70
     1
  9
$FILLMODE
 70
     1
  9
$QTEXTMODE
 70
     0
  9
$MIRRTEXT
 70
     0
  9
$DRAGMODE
 70
     2
  9
$LTSCALE
 40
1.5
  9
$OSMODE
 70
     0
  9
$ATTMODE
 70
     1
  9
$TEXTSIZE
 40
0.75
  9
$TRACEWID
 40
0.05
  9
$TEXTSTYLE
  7
STANDARD
  9
$CLAYER
  8
USP
  9
$CELTYPE
  6
BYLAYER
  9
$CECOLOR
 62
   256
  9
$CELTSCALE
 40
1.0
  9
$DELOBJ
 70
     1
  9
$DISPSILH
 70
     1
  9
$DIMSCALE
 40
7.0
  9
$DIMASZ
 40
0.125
  9
$DIMEXO
 40
0.0625
  9
$DIMDLI
 40
0.37890625
  9
$DIMRND
 40
0.0
  9
$DIMDLE
 40
0.0
  9
$DIMEXE
 40
0.09375
  9
$DIMTP
 40
0.0
  9
$DIMTM
 40
0.0
  9
$DIMTXT
 40
0.109375
  9
$DIMCEN
 40
0.0
  9
$DIMTSZ
 40
0.0
  9
$DIMTOL
 70
     0
  9
$DIMLIM
 70
     0
  9
$DIMTIH
 70
     1
  9
$DIMTOH
 70
     1
  9
$DIMSE1
 70
     0
  9
$DIMSE2
 70
     0
  9
$DIMTAD
 70
     0
  9
$DIMZIN
 70
     8
  9
$DIMBLK
  1

  9
$DIMASO
 70
     1
  9
$DIMSHO
 70
     1
  9
$DIMPOST
  1

  9
$DIMAPOST
  1

  9
$DIMALT
 70
     0
  9
$DIMALTD
 70
     2
  9
$DIMALTF
 40
25.4
  9
$DIMLFAC
 40
1.0
  9
$DIMTOFL
 70
     0
  9
$DIMTVP
 40
0.0
  9
$DIMTIX
 70
     0
  9
$DIMSOXD
 70
     0
  9
$DIMSAH
 70
     0
  9
$DIMBLK1
  1

  9
$DIMBLK2
  1

  9
$DIMSTYLE
  2
STANDARD
  9
$DIMCLRD
 70
     0
  9
$DIMCLRE
 70
     0
  9
$DIMCLRT
 70
   256
  9
$DIMTFAC
 40
1.0
  9
$DIMGAP
 40
0.08984375
  9
$DIMJUST
 70
     0
  9
$DIMSD1
 70
     0
  9
$DIMSD2
 70
     0
  9
$DIMTOLJ
 70
     1
  9
$DIMTZIN
 70
     0
  9
$DIMALTZ
 70
     0
  9
$DIMALTTZ
 70
     0
  9
$DIMFIT
 70
     3
  9
$DIMUPT
 70
     1
  9
$DIMUNIT
 70
     7
  9
$DIMDEC
 70
     4
  9
$DIMTDEC
 70
     4
  9
$DIMALTU
 70
     2
  9
$DIMALTTD
 70
     2
  9
$DIMTXSTY
  7
STANDARD
  9
$DIMAUNIT
 70
     0
  9
$LUNITS
 70
     5
  9
$LUPREC
 70
     6
  9
$SKETCHINC
 40
0.1
  9
$FILLETRAD
 40
0.0
  9
$AUNITS
 70
     0
  9
$AUPREC
 70
     1
  9
$MENU
  1
CUSTOM
  9
$ELEVATION
 40
0.0
  9
$PELEVATION
 40
0.0
  9
$THICKNESS
 40
0.0
  9
$LIMCHECK
 70
     0
  9
$BLIPMODE
 70
     0
  9
$CHAMFERA
 40
0.0
  9
$CHAMFERB
 40
0.0
  9
$CHAMFERC
 40
0.0
  9
$CHAMFERD
 40
0.0
  9
$SKPOLY
 70
     0
  9
$TDCREATE
 40
2451263.663231366
  9
$TDUPDATE
 40
2452759.747888449
  9
$TDINDWG
 40
0.5444392940
  9
$TDUSRTIMER
 40
0.5444392940
  9
$USRTIMER
 70
     1
  9
$ANGBASE
 50
0.0
  9
$ANGDIR
 70
     0
  9
$PDMODE
 70
     0
  9
$PDSIZE
 40
0.0
  9
$PLINEWID
 40
0.0
  9
$COORDS
 70
     2
  9
$SPLFRAME
 70
     0
  9
$SPLINETYPE
 70
     6
  9
$SPLINESEGS
 70
     8
  9
$ATTDIA
 70
     0
  9
$ATTREQ
 70
     0
  9
$HANDLING
 70
     1
  9
$HANDSEED
  5
66
  9
$SURFTAB1
 70
     6
  9
$SURFTAB2
 70
     6
  9
$SURFTYPE
 70
     6
  9
$SURFU
 70
     6
  9
$SURFV
 70
     6
  9
$UCSNAME
  2

  9
$UCSORG
 10
0.0
 20
0.0
 30
0.0
  9
$UCSXDIR
 10
1.0
 20
0.0
 30
0.0
  9
$UCSYDIR
 10
0.0
 20
1.0
 30
0.0
  9
$PUCSNAME
  2

  9
$PUCSORG
 10
0.0
 20
0.0
 30
0.0
  9
$PUCSXDIR
 10
1.0
 20
0.0
 30
0.0
  9
$PUCSYDIR
 10
0.0
 20
1.0
 30
0.0
  9
$USERI1
 70
     0
  9
$USERI2
 70
     0
  9
$USERI3
 70
     0
  9
$USERI4
 70
     0
  9
$USERI5
 70
     0
  9
$USERR1
 40
0.0
  9
$USERR2
 40
0.0
  9
$USERR3
 40
0.0
  9
$USERR4
 40
0.0
  9
$USERR5
 40
0.0
  9
$WORLDVIEW
 70
     1
  9
$SHADEDGE
 70
     3
  9
$SHADEDIF
 70
    70
  9
$TILEMODE
 70
     1
  9
$MAXACTVP
 70
    16
  9
$PINSBASE
 10
0.0
 20
0.0
 30
0.0
  9
$PLIMCHECK
 70
     0
  9
$PEXTMIN
 10
1.000000000000000E+20
 20
1.000000000000000E+20
 30
1.000000000000000E+20
  9
$PEXTMAX
 10
-1.000000000000000E+20
 20
-1.000000000000000E+20
 30
-1.000000000000000E+20
  9
$PLIMMIN
 10
0.0
 20
0.0
  9
$PLIMMAX
 10
12.0
 20
9.0
  9
$UNITMODE
 70
     0
  9
$VISRETAIN
 70
     0
  9
$PLINEGEN
 70
     0
  9
$PSLTSCALE
 70
     0
  9
$TREEDEPTH
 70
  3020
  9
$PICKSTYLE
 70
     1
  9
$CMLSTYLE
  2
STANDARD
  9
$CMLJUST
 70
     0
  9
$CMLSCALE
 40
1.0
  9
$PROXYGRAPHICS
 70
     1
  9
$MEASUREMENT
 70
     0
  0
ENDSEC
  0
SECTION
  2
CLASSES
  0
CLASS
  1
ACDBDICTIONARYWDFLT
  2
AcDbDictionaryWithDefault
  3
AutoCAD 2000
 90
        0
280
     1
281
     0
  0
CLASS
  1
ACDBPLACEHOLDER
  2
AcDbPlaceHolder
  3
AutoCAD 2000
 90
        0
280
     1
281
     0
  0
CLASS
  1
LAYOUT
  2
AcDbLayout
  3
AutoCAD 2000
 90
        0
280
     1
281
     0
  0
CLASS
  1
DICTIONARYVAR
  2
AcDbDictionaryVar
  3
"AutoCAD"
 90
        0
280
     1
281
     0
  0
CLASS
  1
LONG_TRANSACTION
  2
AcDbLongTransaction
  3
AutoCAD 2000
 90
        0
280
     1
281
     0
  0
CLASS
  1
LWPOLYLINE
  2
AcDbPolyline
  3
"AutoCAD"
 90
        0
280
     1
281
     1
  0
CLASS
  1
HATCH
  2
AcDbHatch
  3
"ACAD_SEDONA"
 90
        0
280
     1
281
     1
  0
CLASS
  1
XRECORD
  2
AcDbXrecord
  3
"<Built In>"
 90
        0
280
     0
281
     0
  0
ENDSEC
  0
SECTION
  2
TABLES
  0
TABLE
  2
VPORT
  5
50
100
AcDbSymbolTable
 70
     1
  0
VPORT
  5
62
100
AcDbSymbolTableRecord
100
AcDbViewportTableRecord
  2
*ACTIVE
 70
     0
 10
0.0
 20
0.0
 11
1.0
 21
1.0
 12
-13.06142811029152
 22
17.15643331174294
 13
0.0
 23
0.0
 14
1.0
 24
1.0
 15
0.0
 25
0.0
 16
0.0
 26
0.0
 36
1.0
 17
23.09603071721725
 27
-10.27010416511325
 37
-10.44050274849355
 40
13.76753340763179
 41
1.457627118644067
 42
50.0
 43
10.55307667737539
 44
10.55307667737539
 50
0.0
 51
0.0
 71
     0
 72
   100
 73
     1
 74
     1
 75
     0
 76
     0
 77
     0
 78
     0
  0
ENDTAB
  0
TABLE
  2
LTYPE
  5
4C
100
AcDbSymbolTable
 70
     1
  0
LTYPE
  5
4D
100
AcDbSymbolTableRecord
100
AcDbLinetypeTableRecord
  2
BYBLOCK
 70
     0
  3

 72
    65
 73
     0
 40
0.0
  0
LTYPE
  5
6
100
AcDbSymbolTableRecord
100
AcDbLinetypeTableRecord
  2
BYLAYER
 70
     0
  3

 72
    65
 73
     0
 40
0.0
  0
LTYPE
  5
5
100
AcDbSymbolTableRecord
100
AcDbLinetypeTableRecord
  2
CONTINUOUS
 70
     0
  3
Solid line
 72
    65
 73
     0
 40
0.0
  0
ENDTAB
  0
TABLE
  2
LAYER
  5
4A
100
AcDbSymbolTable
 70
     5
  0
LAYER
  5
1E
100
AcDbSymbolTableRecord
100
AcDbLayerTableRecord
  2
0
 70
     0
 62
     7
  6
CONTINUOUS
  0
LAYER
  5
C
100
AcDbSymbolTableRecord
100
AcDbLayerTableRecord
  2
USP-GEO
 70
     0
 62
     7
  6
CONTINUOUS
  0
LAYER
  5
9
100
AcDbSymbolTableRecord
100
AcDbLayerTableRecord
  2
USP-TXT
 70
     0
 62
     7
  6
CONTINUOUS
  0
LAYER
  5
10
102
{ACAD_XDICTIONARY
360
11
102
}
100
AcDbSymbolTableRecord
100
AcDbLayerTableRecord
  2
USP-HID
 70
     0
 62
     7
  6
CONTINUOUS
  0
LAYER
  5
4
100
AcDbSymbolTableRecord
100
AcDbLayerTableRecord
  2
USP
 70
     0
 62
     7
  6
CONTINUOUS
  0
ENDTAB
  0
TABLE
  2
STYLE
  5
4B
100
AcDbSymbolTable
 70
     1
  0
STYLE
  5
A
100
AcDbSymbolTableRecord
100
AcDbTextStyleTableRecord
  2
STANDARD
 70
     0
 40
0.0
 41
1.0
 50
0.0
 71
     0
 42
0.75
  3
txt
  4

  0
ENDTAB
  0
TABLE
  2
VIEW
  5
4E
100
AcDbSymbolTable
 70
     0
  0
ENDTAB
  0
TABLE
  2
UCS
  5
4F
100
AcDbSymbolTable
 70
     0
  0
ENDTAB
  0
TABLE
  2
APPID
  5
52
100
AcDbSymbolTable
 70
     1
  0
APPID
  5
12
100
AcDbSymbolTableRecord
100
AcDbRegAppTableRecord
  2
ACAD
 70
     0
  0
ENDTAB
  0
TABLE
  2
DIMSTYLE
  5
53
100
AcDbSymbolTable
 70
     1
  0
DIMSTYLE
105
5A
100
AcDbSymbolTableRecord
100
AcDbDimStyleTableRecord
  2
STANDARD
 70
     0
  3

  4

  5

  6

  7

 40
1.0
 41
0.18
 42
0.0625
 43
0.38
 44
0.18
 45
0.0
 46
0.0
 47
0.0
 48
0.0
140
0.18
141
0.09
142
0.0
143
25.4
144
1.0
145
0.0
146
1.0
147
0.09
 71
     0
 72
     0
 73
     1
 74
     1
 75
     0
 76
     0
 77
     0
 78
     0
170
     0
171
     2
172
     0
173
     0
174
     0
175
     0
176
     0
177
     0
178
     0
270
     2
271
     4
272
     4
273
     2
274
     2
340
A
275
     0
280
     0
281
     0
282
     0
283
     1
284
     0
285
     0
286
     0
287
     3
288
     0
  0
ENDTAB
  0
TABLE
  2
BLOCK_RECORD
  5
1
100
AcDbSymbolTable
 70
     3
  0
BLOCK_RECORD
  5
2
102
{ACAD_XDICTIONARY
360
43
102
}
100
AcDbSymbolTableRecord
100
AcDbBlockTableRecord
  2
*MODEL_SPACE
  0
BLOCK_RECORD
  5
46
102
{ACAD_XDICTIONARY
360
47
102
}
100
AcDbSymbolTableRecord
100
AcDbBlockTableRecord
  2
*PAPER_SPACE
  0
BLOCK_RECORD
  5
7
100
AcDbSymbolTableRecord
100
AcDbBlockTableRecord
  2
ZC4_S
  0
BLOCK_RECORD
  5
21
100
AcDbSymbolTableRecord
100
AcDbBlockTableRecord
  2
ZC4_F
  0
BLOCK_RECORD
  5
32
100
AcDbSymbolTableRecord
100
AcDbBlockTableRecord
  2
ZC4_T
  0
ENDTAB
  0
ENDSEC
  0
SECTION
  2
BLOCKS
  0
BLOCK
  5
44
100
AcDbEntity
  8
0
100
AcDbBlockBegin
  2
*MODEL_SPACE
 70
     0
 10
0.0
 20
0.0
 30
0.0
  3
*MODEL_SPACE
  1

  0
ENDBLK
  5
45
100
AcDbEntity
  8
0
100
AcDbBlockEnd
  0
BLOCK
  5
48
100
AcDbEntity
 67
     1
  8
0
100
AcDbBlockBegin
  2
*PAPER_SPACE
 70
     0
 10
0.0
 20
0.0
 30
0.0
  3
*PAPER_SPACE
  1

  0
ENDBLK
  5
49
100
AcDbEntity
 67
     1
  8
0
100
AcDbBlockEnd
  0
BLOCK
  5
1D
100
AcDbEntity
  8
0
100
AcDbBlockBegin
  2
ZC4_S
 70
     0
 10
0.0
 20
0.0
 30
0.0
  3
ZC4_S
  1

  0
TEXT
  5
8
100
AcDbEntity
  8
USP-TXT
100
AcDbText
 10
-0.3435333333333315
 20
-1.662843258730887
 30
0.0
 40
0.296875
  1
ZC4 - SIDE VIEW
 72
     1
 11
1.833550000000002
 21
-1.662843258730887
 31
0.0
100
AcDbText
  0
LINE
  5
B
100
AcDbEntity
  8
USP-GEO
100
AcDbLine
 10
3.562499999999998
 20
1.375
 30
0.0
 11
0.0
 21
1.375
 31
0.0
  0
LINE
  5
D
100
AcDbEntity
  8
USP-GEO
100
AcDbLine
 10
3.667099999999997
 20
1.479600000000004
 30
0.0
 11
0.1046000000000031
 21
1.479600000000004
 31
0.0
  0
LINE
  5
E
100
AcDbEntity
  8
USP-GEO
100
AcDbLine
 10
0.1046000000000014
 20
2.854600000000004
 30
0.0
 11
0.0
 21
2.854600000000004
 31
0.0
  0
LINE
  5
F
100
AcDbEntity
  8
USP-HID
100
AcDbLine
 10
0.0000000000000053
 20
2.081100000000005
 30
0.0
 11
0.1046000000000049
 21
2.081100000000005
 31
0.0
  0
LINE
  5
13
100
AcDbEntity
  8
USP-HID
100
AcDbLine
 10
0.0000000000000018
 20
2.253100000000004
 30
0.0
 11
0.1046000000000014
 21
2.253100000000004
 31
0.0
  0
LINE
  5
14
100
AcDbEntity
  8
USP-GEO
100
AcDbLine
 10
0.0
 20
1.375
 30
0.0
 11
0.0
 21
2.854600000000004
 31
0.0
  0
LINE
  5
15
100
AcDbEntity
  8
USP-GEO
100
AcDbLine
 10
0.1046000000000014
 20
1.479600000000004
 30
0.0
 11
0.1046000000000014
 21
2.854600000000004
 31
0.0
  0
LINE
  5
16
100
AcDbEntity
  8
USP-HID
100
AcDbLine
 10
1.663999999999996
 20
1.375
 30
0.0
 11
1.663999999999996
 21
1.479599999999997
 31
0.0
  0
LINE
  5
17
100
AcDbEntity
  8
USP-HID
100
AcDbLine
 10
1.835999999999996
 20
1.375
 30
0.0
 11
1.835999999999996
 21
1.479599999999997
 31
0.0
  0
LINE
  5
18
100
AcDbEntity
  8
USP-GEO
100
AcDbLine
 10
3.667099999999998
 20
0.0
 30
0.0
 11
3.667099999999998
 21
1.479600000000004
 31
0.0
  0
LINE
  5
19
100
AcDbEntity
  8
USP-GEO
100
AcDbLine
 10
3.562499999999998
 20
0.0
 30
0.0
 11
3.562499999999998
 21
1.375
 31
0.0
  0
LINE
  5
1A
100
AcDbEntity
  8
USP-GEO
100
AcDbLine
 10
3.667099999999998
 20
0.0
 30
0.0
 11
3.562499999999998
 21
0.0
 31
0.0
  0
LINE
  5
1B
100
AcDbEntity
  8
USP-HID
100
AcDbLine
 10
3.562499999999998
 20
0.6015000000000002
 30
0.0
 11
3.667099999999997
 21
0.6015000000000002
 31
0.0
  0
LINE
  5
1C
100
AcDbEntity
  8
USP-HID
100
AcDbLine
 10
3.562499999999995
 20
0.7734999999999999
 30
0.0
 11
3.667099999999997
 21
0.7734999999999999
 31
0.0
  0
ENDBLK
  5
1F
100
AcDbEntity
  8
0
100
AcDbBlockEnd
  0
BLOCK
  5
2F
100
AcDbEntity
  8
0
100
AcDbBlockBegin
  2
ZC4_F
 70
     0
 10
0.0
 20
0.0
 30
0.0
  3
ZC4_F
  1

  0
TEXT
  5
22
100
AcDbEntity
  8
USP-TXT
100
AcDbText
 10
-1.624999999999999
 20
-1.662843258730887
 30
0.0
 40
0.296875
  1
ZC4 - FRONT VIEW
 72
     1
 11
0.75
 21
-1.662843258730887
 31
0.0
100
AcDbText
  0
LINE
  5
23
100
AcDbEntity
  8
USP-GEO
100
AcDbLine
 10
1.5
 20
2.854600000000004
 30
0.0
 11
0.0
 21
2.854600000000004
 31
0.0
  0
LINE
  5
24
100
AcDbEntity
  8
USP-GEO
100
AcDbLine
 10
0.0
 20
0.0
 30
0.0
 11
1.5
 21
0.0000000000000011
 31
0.0
  0
LINE
  5
25
100
AcDbEntity
  8
USP-GEO
100
AcDbLine
 10
1.5
 20
1.479600000000004
 30
0.0
 11
-0.0000000000000018
 21
1.479600000000004
 31
0.0
  0
LINE
  5
26
100
AcDbEntity
  8
USP-HID
100
AcDbLine
 10
-0.0000000000000036
 20
1.374999999999999
 30
0.0
 11
1.499999999999998
 21
1.375
 31
0.0
  0
LINE
  5
27
100
AcDbEntity
  8
USP-GEO
100
AcDbLine
 10
-0.0000000000000018
 20
1.479599999999997
 30
0.0
 11
0.0
 21
0.0
 31
0.0
  0
CIRCLE
  5
28
100
AcDbEntity
  8
USP-GEO
100
AcDbCircle
 10
0.7499999999999965
 20
0.6875
 30
0.0
 40
0.086
  0
LINE
  5
29
100
AcDbEntity
  8
USP-GEO
100
AcDbLine
 10
0.0
 20
2.854600000000004
 30
0.0
 11
0.0
 21
1.479599999999997
 31
0.0
  0
LINE
  5
2A
100
AcDbEntity
  8
USP-HID
100
AcDbLine
 10
0.6639999999999962
 20
1.479599999999997
 30
0.0
 11
0.6639999999999962
 21
1.375
 31
0.0
  0
LINE
  5
2B
100
AcDbEntity
  8
USP-HID
100
AcDbLine
 10
0.8359999999999967
 20
1.479599999999997
 30
0.0
 11
0.8359999999999967
 21
1.375
 31
0.0
  0
CIRCLE
  5
2C
100
AcDbEntity
  8
USP-GEO
100
AcDbCircle
 10
0.75
 20
2.167100000000004
 30
0.0
 40
0.086
  0
LINE
  5
2D
100
AcDbEntity
  8
USP-GEO
100
AcDbLine
 10
1.5
 20
0.0
 30
0.0
 11
1.499999999999998
 21
1.479600000000004
 31
0.0
  0
LINE
  5
2E
100
AcDbEntity
  8
USP-GEO
100
AcDbLine
 10
1.5
 20
1.479600000000004
 30
0.0
 11
1.499999999999998
 21
2.854600000000004
 31
0.0
  0
ENDBLK
  5
30
100
AcDbEntity
  8
0
100
AcDbBlockEnd
  0
BLOCK
  5
41
100
AcDbEntity
  8
0
100
AcDbBlockBegin
  2
ZC4_T
 70
     0
 10
0.0
 20
0.0
 30
0.0
  3
ZC4_T
  1

  0
TEXT
  5
33
100
AcDbEntity
  8
USP-TXT
100
AcDbText
 10
-1.328125
 20
-1.382606765364576
 30
0.0
 40
0.296875
  1
ZC4 - TOP VIEW
 72
     1
 11
0.75
 21
-1.382606765364576
 31
0.0
100
AcDbText
  0
LINE
  5
34
100
AcDbEntity
  8
USP-GEO
100
AcDbLine
 10
1.5
 20
3.667099999999999
 30
0.0
 11
0.0
 21
3.667099999999997
 31
0.0
  0
LINE
  5
35
100
AcDbEntity
  8
USP-GEO
100
AcDbLine
 10
1.500000000000001
 20
3.562500000000001
 30
0.0
 11
0.0000000000000018
 21
3.5625
 31
0.0
  0
LINE
  5
36
100
AcDbEntity
  8
USP-GEO
100
AcDbLine
 10
1.500000000000001
 20
0.0000000000000018
 30
0.0
 11
0.0
 21
0.0
 31
0.0
  0
LINE
  5
37
100
AcDbEntity
  8
USP-HID
100
AcDbLine
 10
-0.0000000000000018
 20
0.1045999999999978
 30
0.0
 11
1.5
 21
0.1046000000000014
 31
0.0
  0
LINE
  5
38
100
AcDbEntity
  8
USP-GEO
100
AcDbLine
 10
0.0
 20
0.0000000000000018
 30
0.0
 11
-0.0000000000000036
 21
3.562499999999994
 31
0.0
  0
LINE
  5
39
100
AcDbEntity
  8
USP-HID
100
AcDbLine
 10
0.663999999999998
 20
0.0000000000000018
 30
0.0
 11
0.663999999999998
 21
0.1046000000000067
 31
0.0
  0
LINE
  5
3A
100
AcDbEntity
  8
USP-HID
100
AcDbLine
 10
0.8359999999999985
 20
0.0000000000000018
 30
0.0
 11
0.8359999999999985
 21
0.1046000000000067
 31
0.0
  0
CIRCLE
  5
3B
100
AcDbEntity
  8
USP-GEO
100
AcDbCircle
 10
0.7499999999999983
 20
1.917099999999999
 30
0.0
 40
0.086
  0
LINE
  5
3C
100
AcDbEntity
  8
USP-GEO
100
AcDbLine
 10
0.0000000000000018
 20
3.562499999999994
 30
0.0
 11
0.0000000000000018
 21
3.667099999999992
 31
0.0
  0
LINE
  5
3D
100
AcDbEntity
  8
USP-HID
100
AcDbLine
 10
0.6640000000000015
 20
3.562499999999994
 30
0.0
 11
0.6640000000000015
 21
3.667099999999999
 31
0.0
  0
LINE
  5
3E
100
AcDbEntity
  8
USP-HID
100
AcDbLine
 10
0.836000000000002
 20
3.562499999999994
 30
0.0
 11
0.836000000000002
 21
3.667099999999999
 31
0.0
  0
LINE
  5
3F
100
AcDbEntity
  8
USP-GEO
100
AcDbLine
 10
1.500000000000001
 20
0.0000000000000018
 30
0.0
 11
1.499999999999998
 21
3.562499999999994
 31
0.0
  0
LINE
  5
40
100
AcDbEntity
  8
USP-GEO
100
AcDbLine
 10
1.500000000000001
 20
3.562500000000001
 30
0.0
 11
1.500000000000001
 21
3.667099999999999
 31
0.0
  0
ENDBLK
  5
42
100
AcDbEntity
  8
0
100
AcDbBlockEnd
  0
ENDSEC
  0
SECTION
  2
ENTITIES
  0
INSERT
  5
3
100
AcDbEntity
  8
USP
100
AcDbBlockReference
  2
ZC4_S
 10
0.3441709143579263
 20
1.665405701544678
 30
0.0
  0
INSERT
  5
20
100
AcDbEntity
  8
USP
100
AcDbBlockReference
  2
ZC4_F
 10
8.997861762183243
 20
1.665405701544678
 30
0.0
  0
INSERT
  5
31
100
AcDbEntity
  8
USP
100
AcDbBlockReference
  2
ZC4_T
 10
8.997861762183241
 20
9.555191503066749
 30
0.0
  0
ENDSEC
  0
SECTION
  2
OBJECTS
  0
DICTIONARY
  5
57
102
{ACAD_XDICTIONARY
360
58
102
}
100
AcDbDictionary
  3
ACAD_GROUP
350
55
  3
ACAD_MLINESTYLE
350
56
1001
ACAD
1000
TREAT_AS_HARD
1070
     0
  0
DICTIONARY
  5
11
100
AcDbDictionary
280
     1
1001
ACAD
1000
TREAT_AS_HARD
1070
     1
  0
DICTIONARY
  5
43
100
AcDbDictionary
280
     1
  0
DICTIONARY
  5
47
100
AcDbDictionary
280
     1
  0
DICTIONARY
  5
58
100
AcDbDictionary
280
     1
  0
DICTIONARY
  5
55
102
{ACAD_REACTORS
330
57
102
}
100
AcDbDictionary
1001
ACAD
1000
TREAT_AS_HARD
1070
     0
  0
DICTIONARY
  5
56
102
{ACAD_REACTORS
330
57
102
}
100
AcDbDictionary
  3
STANDARD
350
59
1001
ACAD
1000
TREAT_AS_HARD
1070
     0
  0
MLINESTYLE
  5
59
102
{ACAD_REACTORS
330
56
102
}
100
AcDbMlineStyle
  2
STANDARD
 70
     0
  3

 62
     0
 51
90.0
 52
90.0
 71
     2
 49
0.5
 62
   256
  6
BYLAYER
 49
-0.5
 62
   256
  6
BYLAYER
  0
ENDSEC
  0
EOF
