  0
SECTION
  2
HEADER
  9
$ACADVER
  1
AC1014
  9
$ACADMAINTVER
 70
     8
  9
$DWGCODEPAGE
  3
ANSI_1252
  9
$INSBASE
 10
0.0
 20
0.0
 30
0.0
  9
$EXTMIN
 10
0.0045497707704998
 20
1.45414072962176
 30
0.0
  9
$EXTMAX
 10
16.86352236119823
 20
17.49376355920778
 30
0.0
  9
$LIMMIN
 10
0.0
 20
0.0
  9
$LIMMAX
 10
12.0
 20
9.0
  9
$ORTHOMODE
 70
     0
  9
$REGENMODE
 70
     1
  9
$FILLMODE
 70
     1
  9
$QTEXTMODE
 70
     0
  9
$MIRRTEXT
 70
     0
  9
$DRAGMODE
 70
     2
  9
$LTSCALE
 40
1.5
  9
$OSMODE
 70
     0
  9
$ATTMODE
 70
     1
  9
$TEXTSIZE
 40
0.25
  9
$TRACEWID
 40
0.05
  9
$TEXTSTYLE
  7
STANDARD
  9
$CLAYER
  8
USP
  9
$CELTYPE
  6
BYLAYER
  9
$CECOLOR
 62
   256
  9
$CELTSCALE
 40
1.0
  9
$DELOBJ
 70
     1
  9
$DISPSILH
 70
     1
  9
$DIMSCALE
 40
5.0
  9
$DIMASZ
 40
0.125
  9
$DIMEXO
 40
0.0625
  9
$DIMDLI
 40
0.38
  9
$DIMRND
 40
0.0
  9
$DIMDLE
 40
0.0
  9
$DIMEXE
 40
0.09375
  9
$DIMTP
 40
0.0
  9
$DIMTM
 40
0.0
  9
$DIMTXT
 40
0.109375
  9
$DIMCEN
 40
0.0
  9
$DIMTSZ
 40
0.0
  9
$DIMTOL
 70
     0
  9
$DIMLIM
 70
     0
  9
$DIMTIH
 70
     1
  9
$DIMTOH
 70
     1
  9
$DIMSE1
 70
     0
  9
$DIMSE2
 70
     0
  9
$DIMTAD
 70
     0
  9
$DIMZIN
 70
     8
  9
$DIMBLK
  1

  9
$DIMASO
 70
     1
  9
$DIMSHO
 70
     1
  9
$DIMPOST
  1

  9
$DIMAPOST
  1

  9
$DIMALT
 70
     0
  9
$DIMALTD
 70
     2
  9
$DIMALTF
 40
25.4
  9
$DIMLFAC
 40
1.0
  9
$DIMTOFL
 70
     0
  9
$DIMTVP
 40
0.0
  9
$DIMTIX
 70
     0
  9
$DIMSOXD
 70
     0
  9
$DIMSAH
 70
     0
  9
$DIMBLK1
  1

  9
$DIMBLK2
  1

  9
$DIMSTYLE
  2
STANDARD
  9
$DIMCLRD
 70
   256
  9
$DIMCLRE
 70
   256
  9
$DIMCLRT
 70
   256
  9
$DIMTFAC
 40
1.0
  9
$DIMGAP
 40
0.09
  9
$DIMJUST
 70
     0
  9
$DIMSD1
 70
     0
  9
$DIMSD2
 70
     0
  9
$DIMTOLJ
 70
     1
  9
$DIMTZIN
 70
     0
  9
$DIMALTZ
 70
     0
  9
$DIMALTTZ
 70
     0
  9
$DIMFIT
 70
     3
  9
$DIMUPT
 70
     1
  9
$DIMUNIT
 70
     7
  9
$DIMDEC
 70
     4
  9
$DIMTDEC
 70
     4
  9
$DIMALTU
 70
     2
  9
$DIMALTTD
 70
     2
  9
$DIMTXSTY
  7
STANDARD
  9
$DIMAUNIT
 70
     0
  9
$LUNITS
 70
     5
  9
$LUPREC
 70
     6
  9
$SKETCHINC
 40
0.1
  9
$FILLETRAD
 40
0.0
  9
$AUNITS
 70
     0
  9
$AUPREC
 70
     1
  9
$MENU
  1
CUSTOM
  9
$ELEVATION
 40
0.0
  9
$PELEVATION
 40
0.0
  9
$THICKNESS
 40
0.0
  9
$LIMCHECK
 70
     0
  9
$BLIPMODE
 70
     0
  9
$CHAMFERA
 40
0.0
  9
$CHAMFERB
 40
0.0
  9
$CHAMFERC
 40
0.0
  9
$CHAMFERD
 40
0.0
  9
$SKPOLY
 70
     0
  9
$TDCREATE
 40
2451263.621564698
  9
$TDUPDATE
 40
2453026.047648646
  9
$TDINDWG
 40
1.0718840394
  9
$TDUSRTIMER
 40
1.0718840394
  9
$USRTIMER
 70
     1
  9
$ANGBASE
 50
0.0
  9
$ANGDIR
 70
     0
  9
$PDMODE
 70
     0
  9
$PDSIZE
 40
0.0
  9
$PLINEWID
 40
0.0
  9
$COORDS
 70
     2
  9
$SPLFRAME
 70
     0
  9
$SPLINETYPE
 70
     6
  9
$SPLINESEGS
 70
     8
  9
$ATTDIA
 70
     0
  9
$ATTREQ
 70
     0
  9
$HANDLING
 70
     1
  9
$HANDSEED
  5
F9
  9
$SURFTAB1
 70
     6
  9
$SURFTAB2
 70
     6
  9
$SURFTYPE
 70
     6
  9
$SURFU
 70
     6
  9
$SURFV
 70
     6
  9
$UCSNAME
  2

  9
$UCSORG
 10
0.0
 20
0.0
 30
0.0
  9
$UCSXDIR
 10
1.0
 20
0.0
 30
0.0
  9
$UCSYDIR
 10
0.0
 20
1.0
 30
0.0
  9
$PUCSNAME
  2

  9
$PUCSORG
 10
0.0
 20
0.0
 30
0.0
  9
$PUCSXDIR
 10
1.0
 20
0.0
 30
0.0
  9
$PUCSYDIR
 10
0.0
 20
1.0
 30
0.0
  9
$USERI1
 70
     0
  9
$USERI2
 70
     0
  9
$USERI3
 70
     0
  9
$USERI4
 70
     0
  9
$USERI5
 70
     0
  9
$USERR1
 40
0.0
  9
$USERR2
 40
0.0
  9
$USERR3
 40
0.0
  9
$USERR4
 40
0.0
  9
$USERR5
 40
0.0
  9
$WORLDVIEW
 70
     1
  9
$SHADEDGE
 70
     3
  9
$SHADEDIF
 70
    70
  9
$TILEMODE
 70
     1
  9
$MAXACTVP
 70
    16
  9
$PINSBASE
 10
0.0
 20
0.0
 30
0.0
  9
$PLIMCHECK
 70
     0
  9
$PEXTMIN
 10
1.000000000000000E+20
 20
1.000000000000000E+20
 30
1.000000000000000E+20
  9
$PEXTMAX
 10
-1.000000000000000E+20
 20
-1.000000000000000E+20
 30
-1.000000000000000E+20
  9
$PLIMMIN
 10
0.0
 20
0.0
  9
$PLIMMAX
 10
12.0
 20
9.0
  9
$UNITMODE
 70
     0
  9
$VISRETAIN
 70
     0
  9
$PLINEGEN
 70
     0
  9
$PSLTSCALE
 70
     0
  9
$TREEDEPTH
 70
  3020
  9
$PICKSTYLE
 70
     1
  9
$CMLSTYLE
  2
STANDARD
  9
$CMLJUST
 70
     0
  9
$CMLSCALE
 40
1.0
  9
$PROXYGRAPHICS
 70
     1
  9
$MEASUREMENT
 70
     0
  0
ENDSEC
  0
SECTION
  2
CLASSES
  0
CLASS
  1
ACDBDICTIONARYWDFLT
  2
AcDbDictionaryWithDefault
  3
AutoCAD 2000
 90
        0
280
     0
281
     0
  0
CLASS
  1
ACDBPLACEHOLDER
  2
AcDbPlaceHolder
  3
AutoCAD 2000
 90
        0
280
     0
281
     0
  0
CLASS
  1
LAYOUT
  2
AcDbLayout
  3
AutoCAD 2000
 90
        0
280
     0
281
     0
  0
CLASS
  1
DICTIONARYVAR
  2
AcDbDictionaryVar
  3
"AutoCAD"
 90
        0
280
     0
281
     0
  0
CLASS
  1
SORTENTSTABLE
  2
AcDbSortentsTable
  3
"AutoCAD"
 90
        0
280
     0
281
     0
  0
CLASS
  1
LONG_TRANSACTION
  2
AcDbLongTransaction
  3
AutoCAD 2000
 90
        0
280
     0
281
     0
  0
CLASS
  1
LWPOLYLINE
  2
AcDbPolyline
  3
"AutoCAD"
 90
        0
280
     0
281
     1
  0
CLASS
  1
HATCH
  2
AcDbHatch
  3
"ACAD_SEDONA"
 90
        0
280
     0
281
     1
  0
CLASS
  1
XRECORD
  2
AcDbXrecord
  3
"<Built In>"
 90
        0
280
     0
281
     0
  0
CLASS
  1
LONG_TRANSACTION
  2
AcDbLongTransaction
  3
AutoCAD 2000
 90
        0
280
     0
281
     0
  0
CLASS
  1
LWPOLYLINE
  2
AcDbPolyline
  3
"AutoCAD"
 90
        0
280
     0
281
     1
  0
CLASS
  1
HATCH
  2
AcDbHatch
  3
"ACAD_SEDONA"
 90
        0
280
     0
281
     1
  0
CLASS
  1
XRECORD
  2
AcDbXrecord
  3
"<Built In>"
 90
        0
280
     0
281
     0
  0
CLASS
  1
LONG_TRANSACTION
  2
AcDbLongTransaction
  3
AutoCAD 2000
 90
        0
280
     0
281
     0
  0
CLASS
  1
LWPOLYLINE
  2
AcDbPolyline
  3
"AutoCAD"
 90
        0
280
     0
281
     1
  0
CLASS
  1
HATCH
  2
AcDbHatch
  3
"ACAD_SEDONA"
 90
        0
280
     0
281
     1
  0
CLASS
  1
XRECORD
  2
AcDbXrecord
  3
"<Built In>"
 90
        0
280
     0
281
     0
  0
CLASS
  1
LONG_TRANSACTION
  2
AcDbLongTransaction
  3
AutoCAD 2000
 90
        0
280
     0
281
     0
  0
CLASS
  1
LWPOLYLINE
  2
AcDbPolyline
  3
"AutoCAD"
 90
        0
280
     0
281
     1
  0
CLASS
  1
HATCH
  2
AcDbHatch
  3
"ACAD_SEDONA"
 90
        0
280
     0
281
     1
  0
CLASS
  1
XRECORD
  2
AcDbXrecord
  3
"<Built In>"
 90
        0
280
     0
281
     0
  0
CLASS
  1
LONG_TRANSACTION
  2
AcDbLongTransaction
  3
AutoCAD 2000
 90
        0
280
     0
281
     0
  0
CLASS
  1
LWPOLYLINE
  2
AcDbPolyline
  3
"AutoCAD"
 90
        0
280
     0
281
     1
  0
CLASS
  1
HATCH
  2
AcDbHatch
  3
"ACAD_SEDONA"
 90
        0
280
     0
281
     1
  0
CLASS
  1
XRECORD
  2
AcDbXrecord
  3
"<Built In>"
 90
        0
280
     0
281
     0
  0
ENDSEC
  0
SECTION
  2
TABLES
  0
TABLE
  2
VPORT
  5
EA
100
AcDbSymbolTable
 70
     1
  0
VPORT
  5
EB
100
AcDbSymbolTableRecord
100
AcDbViewportTableRecord
  2
*ACTIVE
 70
     0
 10
0.0
 20
0.0
 11
1.0
 21
1.0
 12
1.347188143713392
 22
13.01967480246951
 13
0.0
 23
0.0
 14
1.0
 24
1.0
 15
0.0
 25
0.0
 16
0.0
 26
0.0
 36
1.0
 17
8.907379999423518
 27
-1.370333547061886
 37
-2.587809271614156
 40
20.48969259861797
 41
1.379227053140096
 42
50.0
 43
0.0
 44
0.0
 50
0.0
 51
0.0
 71
     0
 72
   100
 73
     1
 74
     1
 75
     0
 76
     0
 77
     0
 78
     0
  0
ENDTAB
  0
TABLE
  2
LTYPE
  5
E5
100
AcDbSymbolTable
 70
     1
  0
LTYPE
  5
E6
100
AcDbSymbolTableRecord
100
AcDbLinetypeTableRecord
  2
BYBLOCK
 70
     0
  3

 72
    65
 73
     0
 40
0.0
  0
LTYPE
  5
E7
100
AcDbSymbolTableRecord
100
AcDbLinetypeTableRecord
  2
BYLAYER
 70
     0
  3

 72
    65
 73
     0
 40
0.0
  0
LTYPE
  5
5
100
AcDbSymbolTableRecord
100
AcDbLinetypeTableRecord
  2
CONTINUOUS
 70
     0
  3
Solid line
 72
    65
 73
     0
 40
0.0
  0
ENDTAB
  0
TABLE
  2
LAYER
  5
E3
100
AcDbSymbolTable
 70
     4
  0
LAYER
  5
3A
100
AcDbSymbolTableRecord
100
AcDbLayerTableRecord
  2
0
 70
     0
 62
     7
  6
CONTINUOUS
  0
LAYER
  5
8
102
{ACAD_XDICTIONARY
360
9
102
}
100
AcDbSymbolTableRecord
100
AcDbLayerTableRecord
  2
USP-GEO
 70
     0
 62
     7
  6
CONTINUOUS
  0
LAYER
  5
35
102
{ACAD_XDICTIONARY
360
36
102
}
100
AcDbSymbolTableRecord
100
AcDbLayerTableRecord
  2
USP-TXT
 70
     0
 62
     7
  6
CONTINUOUS
  0
LAYER
  5
4
100
AcDbSymbolTableRecord
100
AcDbLayerTableRecord
  2
USP
 70
     0
 62
     7
  6
CONTINUOUS
  0
ENDTAB
  0
TABLE
  2
STYLE
  5
E4
100
AcDbSymbolTable
 70
     1
  0
STYLE
  5
38
100
AcDbSymbolTableRecord
100
AcDbTextStyleTableRecord
  2
STANDARD
 70
     0
 40
0.0
 41
1.0
 50
0.0
 71
     0
 42
0.25
  3
txt
  4

  0
ENDTAB
  0
TABLE
  2
VIEW
  5
E8
100
AcDbSymbolTable
 70
     0
  0
ENDTAB
  0
TABLE
  2
UCS
  5
E9
100
AcDbSymbolTable
 70
     0
  0
ENDTAB
  0
TABLE
  2
APPID
  5
EC
100
AcDbSymbolTable
 70
     1
  0
APPID
  5
41
100
AcDbSymbolTableRecord
100
AcDbRegAppTableRecord
  2
ACAD
 70
     0
  0
ENDTAB
  0
TABLE
  2
DIMSTYLE
  5
ED
100
AcDbSymbolTable
 70
     1
  0
DIMSTYLE
105
F3
102
{ACAD_XDICTIONARY
360
F4
102
}
100
AcDbSymbolTableRecord
100
AcDbDimStyleTableRecord
  2
STANDARD
 70
     0
  3

  4

  5

  6

  7

 40
1.0
 41
0.125
 42
0.0625
 43
0.38
 44
0.09375
 45
0.0
 46
0.0
 47
0.0
 48
0.0
140
0.109375
141
0.0
142
0.0
143
25.4
144
1.0
145
0.0
146
1.0
147
0.09
 71
     0
 72
     0
 73
     1
 74
     1
 75
     0
 76
     0
 77
     0
 78
     8
170
     0
171
     2
172
     0
173
     0
174
     0
175
     0
176
     0
177
     0
178
     0
270
     7
271
     4
272
     4
273
     2
274
     2
340
38
275
     0
280
     0
281
     0
282
     0
283
     1
284
     0
285
     0
286
     0
287
     3
288
     0
  0
ENDTAB
  0
TABLE
  2
BLOCK_RECORD
  5
1
100
AcDbSymbolTable
 70
     3
  0
BLOCK_RECORD
  5
2
102
{ACAD_XDICTIONARY
360
DA
102
}
100
AcDbSymbolTableRecord
100
AcDbBlockTableRecord
  2
*MODEL_SPACE
  0
BLOCK_RECORD
  5
DE
102
{ACAD_XDICTIONARY
360
DF
102
}
100
AcDbSymbolTableRecord
100
AcDbBlockTableRecord
  2
*PAPER_SPACE
  0
BLOCK_RECORD
  5
6
100
AcDbSymbolTableRecord
100
AcDbBlockTableRecord
  2
TMPH4PR_T
  0
BLOCK_RECORD
  5
3D
100
AcDbSymbolTableRecord
100
AcDbBlockTableRecord
  2
TMPH4PR_F
  0
BLOCK_RECORD
  5
AE
100
AcDbSymbolTableRecord
100
AcDbBlockTableRecord
  2
TMPH4PR_S
  0
ENDTAB
  0
ENDSEC
  0
SECTION
  2
BLOCKS
  0
BLOCK
  5
DC
100
AcDbEntity
  8
0
100
AcDbBlockBegin
  2
*MODEL_SPACE
 70
     0
 10
0.0
 20
0.0
 30
0.0
  3
*MODEL_SPACE
  1

  0
ENDBLK
  5
DD
100
AcDbEntity
  8
0
100
AcDbBlockEnd
  0
BLOCK
  5
E1
100
AcDbEntity
 67
     1
  8
0
100
AcDbBlockBegin
  2
*PAPER_SPACE
 70
     0
 10
0.0
 20
0.0
 30
0.0
  3
*PAPER_SPACE
  1

  0
ENDBLK
  5
E2
100
AcDbEntity
 67
     1
  8
0
100
AcDbBlockEnd
  0
BLOCK
  5
39
100
AcDbEntity
  8
0
100
AcDbBlockBegin
  2
TMPH4PR_T
 70
     0
 10
0.0
 20
0.0
 30
0.0
  3
TMPH4PR_T
  1

  0
LWPOLYLINE
  5
7
100
AcDbEntity
  8
USP-GEO
100
AcDbPolyline
 90
        2
 70
   128
 43
0.0
 10
3.905476132848673
 20
1.255362727511695
 10
2.493301961234196
 20
1.255362727511695
  0
LWPOLYLINE
  5
B
100
AcDbEntity
  8
USP-GEO
100
AcDbPolyline
 90
        2
 70
   128
 43
0.0
 10
2.423607986077406
 20
0.0
 10
2.423607986077406
 20
1.290209715090091
  0
LWPOLYLINE
  5
C
100
AcDbEntity
  8
USP-GEO
100
AcDbPolyline
 90
        2
 70
   128
 43
0.0
 10
4.655557540473636
 20
1.307633208879289
 10
3.905476132848673
 20
1.307633208879289
  0
LWPOLYLINE
  5
D
100
AcDbEntity
  8
USP-GEO
100
AcDbPolyline
 90
        2
 70
   128
 43
0.0
 10
3.905476132848673
 20
1.255362727511695
 10
3.905476132848673
 20
1.290209715090091
  0
LWPOLYLINE
  5
E
100
AcDbEntity
  8
USP-GEO
100
AcDbPolyline
 90
        2
 70
   128
 43
0.0
 10
6.120002193455706
 20
0.0
 10
6.120002193455706
 20
1.290209715090091
  0
LWPOLYLINE
  5
F
100
AcDbEntity
  8
USP-GEO
100
AcDbPolyline
 90
        2
 70
   128
 43
0.0
 10
6.050308218298915
 20
1.255362727511695
 10
4.655557540473636
 20
1.255362727511695
  0
LWPOLYLINE
  5
10
100
AcDbEntity
  8
USP-GEO
100
AcDbPolyline
 90
        2
 70
   128
 43
0.0
 10
4.655557540473636
 20
1.255362727511695
 10
4.655557540473636
 20
1.290209715090091
  0
LWPOLYLINE
  5
11
100
AcDbEntity
  8
USP-GEO
100
AcDbPolyline
 90
        2
 70
   128
 43
0.0
 10
6.050308218298915
 20
0.0
 10
6.120002193455706
 20
0.0
  0
LWPOLYLINE
  5
12
100
AcDbEntity
  8
USP-GEO
100
AcDbPolyline
 90
        2
 70
   128
 43
0.0
 10
6.050308218298915
 20
0.0
 10
6.050308218298915
 20
1.255362727511695
  0
LWPOLYLINE
  5
13
100
AcDbEntity
  8
USP-GEO
100
AcDbPolyline
 90
        2
 70
   128
 43
0.0
 10
6.120002193455706
 20
3.662418394489364
 10
6.120002193455706
 20
1.290209715090091
  0
LWPOLYLINE
  5
14
100
AcDbEntity
  8
USP-GEO
100
AcDbPolyline
 90
        2
 70
   128
 43
0.0
 10
6.120002193455706
 20
1.290209715090091
 10
4.655557540473636
 20
1.290209715090091
  0
LWPOLYLINE
  5
15
100
AcDbEntity
  8
USP-GEO
100
AcDbPolyline
 90
        2
 70
   128
 43
0.0
 10
4.655557540473636
 20
1.342480196457685
 10
4.655557540473636
 20
1.290209715090091
  0
LWPOLYLINE
  5
16
100
AcDbEntity
  8
USP-GEO
100
AcDbPolyline
 90
        2
 70
   128
 43
0.0
 10
4.655557540473636
 20
1.342480196457685
 10
3.905476132848673
 20
1.342480196457685
  0
LWPOLYLINE
  5
17
100
AcDbEntity
  8
USP-GEO
100
AcDbPolyline
 90
        2
 70
   128
 43
0.0
 10
3.905476132848673
 20
1.342480196457685
 10
3.905476132848673
 20
1.290209715090091
  0
LWPOLYLINE
  5
18
100
AcDbEntity
  8
USP-GEO
100
AcDbPolyline
 90
        2
 70
   128
 43
0.0
 10
2.423607986077406
 20
1.290209715090091
 10
3.905476132848673
 20
1.290209715090091
  0
LWPOLYLINE
  5
19
100
AcDbEntity
  8
USP-GEO
100
AcDbPolyline
 90
        2
 70
   128
 43
0.0
 10
2.423607986077406
 20
1.290209715090091
 10
2.423607986077406
 20
3.662418394489364
  0
LWPOLYLINE
  5
1A
100
AcDbEntity
  8
USP-GEO
100
AcDbPolyline
 90
        2
 70
   128
 43
0.0
 10
2.493301961234196
 20
0.0
 10
2.423607986077406
 20
0.0
  0
LWPOLYLINE
  5
1B
100
AcDbEntity
  8
USP-GEO
100
AcDbPolyline
 90
        2
 70
   128
 43
0.0
 10
2.493301961234196
 20
1.255362727511695
 10
2.493301961234196
 20
0.0
  0
LWPOLYLINE
  5
1C
100
AcDbEntity
  8
USP-GEO
100
AcDbPolyline
 90
        2
 70
   128
 43
0.0
 10
0.0
 20
4.848087146844271
 10
0.0
 20
4.778393171687479
  0
LWPOLYLINE
  5
1D
100
AcDbEntity
  8
USP-GEO
100
AcDbPolyline
 90
        2
 70
   128
 43
0.0
 10
0.0
 20
4.848087146844271
 10
3.905476132848673
 20
4.848087146844271
  0
LWPOLYLINE
  5
1E
100
AcDbEntity
  8
USP-GEO
100
AcDbPolyline
 90
        2
 70
   128
 43
0.0
 10
3.905476132848673
 20
4.848087146844271
 10
3.905476132848673
 20
4.778393171687479
  0
LWPOLYLINE
  5
1F
100
AcDbEntity
  8
USP-GEO
100
AcDbPolyline
 90
        2
 70
   128
 43
0.0
 10
3.905476132848673
 20
4.848087146844271
 10
4.655557540473636
 20
4.848087146844271
  0
LWPOLYLINE
  5
20
100
AcDbEntity
  8
USP-GEO
100
AcDbPolyline
 90
        2
 70
   128
 43
0.0
 10
8.560162498632848
 20
4.848087146844271
 10
8.560162498632848
 20
4.778393171687479
  0
LWPOLYLINE
  5
21
100
AcDbEntity
  8
USP-GEO
100
AcDbPolyline
 90
        2
 70
   128
 43
0.0
 10
4.655557540473636
 20
4.848087146844271
 10
4.655557540473636
 20
4.778393171687479
  0
LWPOLYLINE
  5
22
100
AcDbEntity
  8
USP-GEO
100
AcDbPolyline
 90
        2
 70
   128
 43
0.0
 10
4.655557540473636
 20
4.848087146844271
 10
8.560162498632848
 20
4.848087146844271
  0
LWPOLYLINE
  5
23
100
AcDbEntity
  8
USP-GEO
100
AcDbPolyline
 90
        2
 70
   128
 43
0.0
 10
0.0
 20
4.778393171687479
 10
3.905476132848673
 20
4.778393171687479
  0
LWPOLYLINE
  5
24
100
AcDbEntity
  8
USP-GEO
100
AcDbPolyline
 90
        2
 70
   128
 43
0.0
 10
3.905476132848673
 20
4.778393171687479
 10
4.655557540473636
 20
4.778393171687479
  0
LWPOLYLINE
  5
25
100
AcDbEntity
  8
USP-GEO
100
AcDbPolyline
 90
        2
 70
   128
 43
0.0
 10
4.655557540473636
 20
4.778393171687479
 10
8.560162498632848
 20
4.778393171687479
  0
LWPOLYLINE
  5
26
100
AcDbEntity
  8
USP-GEO
100
AcDbPolyline
 90
        2
 70
   128
 43
0.0
 10
1.586409109506454
 20
4.778393171687479
 10
1.586409109506454
 20
4.673852208952293
  0
LWPOLYLINE
  5
27
100
AcDbEntity
  8
USP-GEO
100
AcDbPolyline
 90
        2
 70
   128
 43
0.0
 10
6.956329895337197
 20
4.673852208952293
 10
1.586409109506454
 20
4.673852208952293
  0
LWPOLYLINE
  5
28
100
AcDbEntity
  8
USP-GEO
100
AcDbPolyline
 90
        2
 70
   128
 43
0.0
 10
1.586409109506454
 20
4.604158233795502
 10
1.586409109506454
 20
4.673852208952293
  0
LWPOLYLINE
  5
29
100
AcDbEntity
  8
USP-GEO
100
AcDbPolyline
 90
        2
 70
   128
 43
0.0
 10
6.956329895337197
 20
4.673852208952293
 10
6.956329895337197
 20
4.604158233795502
  0
LWPOLYLINE
  5
2A
100
AcDbEntity
  8
USP-GEO
100
AcDbPolyline
 90
        2
 70
   128
 43
0.0
 10
6.956329895337197
 20
4.778393171687479
 10
6.956329895337197
 20
4.673852208952293
  0
LWPOLYLINE
  5
2B
100
AcDbEntity
  8
USP-GEO
100
AcDbPolyline
 90
        2
 70
   128
 43
0.0
 10
6.904059413969604
 20
3.784382851013749
 10
6.904059413969604
 20
3.662418394489364
  0
LWPOLYLINE
  5
2C
100
AcDbEntity
  8
USP-GEO
100
AcDbPolyline
 90
        2
 70
   128
 43
0.0
 10
6.904059413969604
 20
4.586734740006303
 10
6.904059413969604
 20
3.784382851013749
  0
LWPOLYLINE
  5
2D
100
AcDbEntity
  8
USP-GEO
100
AcDbPolyline
 90
        2
 70
   128
 43
0.0
 10
6.904059413969604
 20
4.604158233795502
 10
6.904059413969604
 20
4.586734740006303
  0
LWPOLYLINE
  5
2E
100
AcDbEntity
  8
USP-GEO
100
AcDbPolyline
 90
        2
 70
   128
 43
0.0
 10
6.956329895337197
 20
4.604158233795502
 10
6.904059413969604
 20
4.604158233795502
  0
LWPOLYLINE
  5
2F
100
AcDbEntity
  8
USP-GEO
100
AcDbPolyline
 90
        2
 70
   128
 43
0.0
 10
1.656974259352705
 20
4.604158233795502
 10
1.586409109506454
 20
4.604158233795502
  0
LWPOLYLINE
  5
30
100
AcDbEntity
  8
USP-GEO
100
AcDbPolyline
 90
        2
 70
   128
 43
0.0
 10
1.656974259352705
 20
3.784382851013749
 10
1.656974259352705
 20
4.586734740006303
  0
LWPOLYLINE
  5
31
100
AcDbEntity
  8
USP-GEO
100
AcDbPolyline
 90
        2
 70
   128
 43
0.0
 10
1.656974259352705
 20
3.662418394489364
 10
1.656974259352705
 20
3.784382851013749
  0
LWPOLYLINE
  5
32
100
AcDbEntity
  8
USP-GEO
100
AcDbPolyline
 90
        2
 70
   128
 43
0.0
 10
1.656974259352705
 20
4.586734740006303
 10
1.656974259352705
 20
4.604158233795502
  0
LWPOLYLINE
  5
33
100
AcDbEntity
  8
USP-GEO
100
AcDbPolyline
 90
        2
 70
   128
 43
0.0
 10
6.904059413969604
 20
3.662418394489364
 10
1.656974259352705
 20
3.662418394489364
  0
TEXT
  5
34
100
AcDbEntity
  8
USP-TXT
100
AcDbText
 10
2.280516836661155
 20
-0.9478974480818731
 30
0.0
 40
0.25
  1
TMPH4 - TOP VIEW
 72
     1
 11
4.280516836661155
 21
-0.9478974480818731
 31
0.0
100
AcDbText
  0
ENDBLK
  5
3B
100
AcDbEntity
  8
0
100
AcDbBlockEnd
  0
BLOCK
  5
AB
100
AcDbEntity
  8
0
100
AcDbBlockBegin
  2
TMPH4PR_F
 70
     0
 10
0.0
 20
0.0
 30
0.0
  3
TMPH4PR_F
  1

  0
LWPOLYLINE
  5
3E
100
AcDbEntity
  8
USP-GEO
100
AcDbPolyline
 90
        2
 70
   128
 43
0.0
 10
3.905476132848673
 20
3.418489481440595
 10
2.493301961234196
 20
3.418489481440595
  0
LWPOLYLINE
  5
3F
100
AcDbEntity
  8
USP-GEO
100
AcDbPolyline
 90
        2
 70
   128
 43
0.0
 10
2.423607986077406
 20
1.256233902201156
 10
2.423607986077406
 20
3.470759962808189
  0
ELLIPSE
  5
40
100
AcDbEntity
  8
USP-GEO
  6
CONTINUOUS
100
AcDbEllipse
 10
2.558326335334448
 20
1.417759768829663
 30
0.0
 11
-0.0937499999999965
 21
0.0
 31
0.0
210
0.0
220
0.0
230
1.0
 40
0.4999999999999987
 41
3.039226518436975
 42
4.663332616915547
1001
ACAD
1000
RTLwPs
1070
   128
  0
LWPOLYLINE
  5
42
100
AcDbEntity
  8
USP-GEO
100
AcDbPolyline
 90
        2
 70
   128
 43
0.0
 10
2.650113405336976
 20
1.413045346303935
 10
2.650113405336976
 20
1.378198358725541
  0
ELLIPSE
  5
43
100
AcDbEntity
  8
USP-GEO
  6
CONTINUOUS
100
AcDbEllipse
 10
5.995826335334448
 20
1.417759768829663
 30
0.0
 11
-0.09375
 21
0.0
 31
0.0
210
0.0
220
0.0
230
1.0
 40
0.4999999999999987
 41
4.698298891268238
 42
6.374296481321637
1001
ACAD
1000
RTLwPs
1070
   128
  0
LWPOLYLINE
  5
44
100
AcDbEntity
  8
USP-GEO
100
AcDbPolyline
 90
        2
 70
   128
 43
0.0
 10
5.997166562241862
 20
1.465315827671529
 10
6.050308218298915
 20
1.465315827671529
  0
LWPOLYLINE
  5
45
100
AcDbEntity
  8
USP-GEO
100
AcDbPolyline
 90
        2
 70
   128
 43
0.0
 10
4.655557540473636
 20
3.418489481440595
 10
4.655557540473636
 20
3.3836424938622
  0
LWPOLYLINE
  5
46
100
AcDbEntity
  8
USP-GEO
100
AcDbPolyline
 90
        2
 70
   128
 43
0.0
 10
4.655557540473636
 20
3.3836424938622
 10
3.905476132848673
 20
3.3836424938622
  0
LWPOLYLINE
  5
47
100
AcDbEntity
  8
USP-GEO
100
AcDbPolyline
 90
        2
 70
   128
 43
0.0
 10
3.905476132848673
 20
3.418489481440595
 10
3.905476132848673
 20
3.470759962808189
  0
LWPOLYLINE
  5
48
100
AcDbEntity
  8
USP-GEO
100
AcDbPolyline
 90
        2
 70
   128
 43
0.0
 10
3.905476132848673
 20
3.3836424938622
 10
3.905476132848673
 20
3.418489481440595
  0
LWPOLYLINE
  5
49
100
AcDbEntity
  8
USP-GEO
100
AcDbPolyline
 90
        2
 70
   128
 43
0.0
 10
6.120002193455706
 20
1.256233902201156
 10
6.120002193455706
 20
3.470759962808189
  0
LWPOLYLINE
  5
4A
100
AcDbEntity
  8
USP-GEO
100
AcDbPolyline
 90
        2
 70
   128
 43
0.0
 10
6.050308218298915
 20
3.418489481440595
 10
4.655557540473636
 20
3.418489481440595
  0
LWPOLYLINE
  5
4B
100
AcDbEntity
  8
USP-GEO
100
AcDbPolyline
 90
        2
 70
   128
 43
0.0
 10
4.655557540473636
 20
3.418489481440595
 10
4.655557540473636
 20
3.470759962808189
  0
LWPOLYLINE
  5
4C
100
AcDbEntity
  8
USP-GEO
100
AcDbPolyline
 90
        2
 70
   128
 43
0.0
 10
6.050308218298915
 20
1.256233902201156
 10
6.120002193455706
 20
1.256233902201156
  0
LWPOLYLINE
  5
4D
100
AcDbEntity
  8
USP-GEO
100
AcDbPolyline
 90
        2
 70
   128
 43
0.0
 10
6.120002193455706
 20
0.175106112581437
 10
6.120002193455706
 20
1.256233902201156
  0
LWPOLYLINE
  5
4E
100
AcDbEntity
  8
USP-GEO
100
AcDbPolyline
 90
        2
 70
   128
 43
0.0
 10
6.050308218298915
 20
0.175106112581437
 10
6.120002193455706
 20
0.175106112581437
  0
LWPOLYLINE
  5
4F
100
AcDbEntity
  8
USP-GEO
100
AcDbPolyline
 90
        2
 70
   128
 43
0.0
 10
6.050308218298915
 20
1.256233902201156
 10
6.050308218298915
 20
3.418489481440595
  0
LWPOLYLINE
  5
50
100
AcDbEntity
  8
USP-GEO
100
AcDbPolyline
 90
        2
 70
   128
 43
0.0
 10
6.050308218298915
 20
0.175106112581437
 10
6.050308218298915
 20
1.256233902201156
  0
LWPOLYLINE
  5
51
100
AcDbEntity
  8
USP-GEO
100
AcDbPolyline
 90
        2
 70
   128
 43
0.0
 10
6.120002193455706
 20
3.470759962808189
 10
4.655557540473636
 20
3.470759962808189
  0
LWPOLYLINE
  5
52
100
AcDbEntity
  8
USP-GEO
100
AcDbPolyline
 90
        2
 70
   128
 43
0.0
 10
4.655557540473636
 20
3.435912975229793
 10
3.905476132848673
 20
3.435912975229793
  0
LWPOLYLINE
  5
53
100
AcDbEntity
  8
USP-GEO
100
AcDbPolyline
 90
        2
 70
   128
 43
0.0
 10
2.423607986077406
 20
3.470759962808189
 10
3.905476132848673
 20
3.470759962808189
  0
LWPOLYLINE
  5
54
100
AcDbEntity
  8
USP-GEO
100
AcDbPolyline
 90
        2
 70
   128
 43
0.0
 10
2.493301961234196
 20
1.465315827671529
 10
2.562995936390987
 20
1.465315827671529
  0
LWPOLYLINE
  5
55
100
AcDbEntity
  8
USP-GEO
100
AcDbPolyline
 90
        2
 70
   128
 43
0.0
 10
2.423607986077406
 20
1.256233902201156
 10
2.423607986077406
 20
0.175106112581437
  0
LWPOLYLINE
  5
56
100
AcDbEntity
  8
USP-GEO
100
AcDbPolyline
 90
        2
 70
   128
 43
0.0
 10
2.493301961234196
 20
1.256233902201156
 10
2.423607986077406
 20
1.256233902201156
  0
LWPOLYLINE
  5
57
100
AcDbEntity
  8
USP-GEO
100
AcDbPolyline
 90
        2
 70
   128
 43
0.0
 10
2.493301961234196
 20
0.175106112581437
 10
2.423607986077406
 20
0.175106112581437
  0
LWPOLYLINE
  5
58
100
AcDbEntity
  8
USP-GEO
100
AcDbPolyline
 90
        2
 70
   128
 43
0.0
 10
2.493301961234196
 20
1.256233902201156
 10
2.493301961234196
 20
0.175106112581437
  0
LWPOLYLINE
  5
59
100
AcDbEntity
  8
USP-GEO
100
AcDbPolyline
 90
        2
 70
   128
 43
0.0
 10
2.493301961234196
 20
3.418489481440595
 10
2.493301961234196
 20
1.256233902201156
  0
LWPOLYLINE
  5
5A
100
AcDbEntity
  8
USP-GEO
100
AcDbPolyline
 90
        2
 70
   128
 43
0.0
 10
5.892625599506676
 20
1.378198358725541
 10
5.892625599506676
 20
1.413045346303935
  0
LWPOLYLINE
  5
5B
100
AcDbEntity
  8
USP-GEO
100
AcDbPolyline
 90
        2
 70
   128
 43
0.0
 10
2.650113405336976
 20
1.378198358725541
 10
5.892625599506676
 20
1.378198358725541
  0
ARC
  5
5C
100
AcDbEntity
  8
USP-GEO
100
AcDbCircle
 10
2.558326335334449
 20
1.386259768829662
 30
0.0
 40
0.0937499999999965
100
AcDbArc
 50
354.9807457752359
 51
39.6519543563358
  0
LWPOLYLINE
  5
5D
100
AcDbEntity
  8
USP-GEO
100
AcDbPolyline
 90
        2
 70
   128
 43
0.0
 10
2.423607986077406
 20
1.482739321460726
 10
1.62125609708485
 20
1.482739321460726
  0
ARC
  5
5E
100
AcDbEntity
  8
USP-GEO
100
AcDbCircle
 10
1.620826335334443
 20
1.386259768829662
 30
0.0
 40
0.09375
100
AcDbArc
 50
89.74478144886658
 51
206.3343390306358
  0
LWPOLYLINE
  5
5F
100
AcDbEntity
  8
USP-GEO
100
AcDbPolyline
 90
        2
 70
   128
 43
0.0
 10
0.1916584316811756
 20
0.0
 10
1.534138628138861
 20
1.343351371147145
  0
LWPOLYLINE
  5
60
100
AcDbEntity
  8
USP-GEO
100
AcDbPolyline
 90
        2
 70
   128
 43
0.0
 10
0.0
 20
0.0
 10
0.1916584316811756
 20
0.0
  0
LWPOLYLINE
  5
61
100
AcDbEntity
  8
USP-GEO
100
AcDbPolyline
 90
        2
 70
   128
 43
0.0
 10
0.0
 20
4.69214687743095
 10
0.0
 20
0.0
  0
LWPOLYLINE
  5
62
100
AcDbEntity
  8
USP-GEO
100
AcDbPolyline
 90
        2
 70
   128
 43
0.0
 10
0.0
 20
4.69214687743095
 10
3.905476132848673
 20
4.69214687743095
  0
LWPOLYLINE
  5
63
100
AcDbEntity
  8
USP-GEO
100
AcDbPolyline
 90
        2
 70
   128
 43
0.0
 10
3.905476132848673
 20
4.69214687743095
 10
3.905476132848673
 20
4.639876396063357
  0
LWPOLYLINE
  5
64
100
AcDbEntity
  8
USP-GEO
100
AcDbPolyline
 90
        2
 70
   128
 43
0.0
 10
3.905476132848673
 20
4.639876396063357
 10
4.655557540473636
 20
4.639876396063357
  0
LWPOLYLINE
  5
65
100
AcDbEntity
  8
USP-GEO
100
AcDbPolyline
 90
        2
 70
   128
 43
0.0
 10
4.655557540473636
 20
4.69214687743095
 10
4.655557540473636
 20
4.639876396063357
  0
LWPOLYLINE
  5
66
100
AcDbEntity
  8
USP-GEO
100
AcDbPolyline
 90
        2
 70
   128
 43
0.0
 10
4.655557540473636
 20
4.69214687743095
 10
8.560162498632848
 20
4.69214687743095
  0
LWPOLYLINE
  5
67
100
AcDbEntity
  8
USP-GEO
100
AcDbPolyline
 90
        2
 70
   128
 43
0.0
 10
8.560162498632848
 20
4.69214687743095
 10
8.560162498632848
 20
0.0
  0
LWPOLYLINE
  5
68
100
AcDbEntity
  8
USP-GEO
100
AcDbPolyline
 90
        2
 70
   128
 43
0.0
 10
8.560162498632848
 20
0.0
 10
8.351080573162477
 20
0.0
  0
LWPOLYLINE
  5
69
100
AcDbEntity
  8
USP-GEO
100
AcDbPolyline
 90
        2
 70
   128
 43
0.0
 10
8.351080573162477
 20
0.0
 10
7.026023870493989
 20
1.343351371147145
  0
ARC
  5
6A
100
AcDbEntity
  8
USP-GEO
100
AcDbCircle
 10
6.93332633533445
 20
1.386259768829662
 30
0.0
 40
0.09375
100
AcDbArc
 50
335.1612390641798
 51
86.68988446489384
  0
LWPOLYLINE
  5
6B
100
AcDbEntity
  8
USP-GEO
100
AcDbPolyline
 90
        2
 70
   128
 43
0.0
 10
6.938906401548
 20
1.482739321460726
 10
6.120002193455706
 20
1.482739321460726
  0
ARC
  5
6C
100
AcDbEntity
  8
USP-GEO
100
AcDbCircle
 10
5.995826335334451
 20
1.386259768829662
 30
0.0
 40
0.09375
100
AcDbArc
 50
137.9599484234213
 51
184.4665259126596
  0
CIRCLE
  5
6D
100
AcDbEntity
  8
USP-GEO
100
AcDbCircle
 10
8.183326335334459
 20
0.7612597688296621
 30
0.0
 40
0.082
  0
LWPOLYLINE
  5
6E
100
AcDbEntity
  8
USP-GEO
100
AcDbPolyline
 90
        2
 70
   128
 43
0.0
 10
8.054881178746114
 20
1.291080889779552
 10
7.497329377491788
 20
1.291080889779552
  0
ARC
  5
6F
100
AcDbEntity
  8
USP-GEO
100
AcDbCircle
 10
8.058326335334452
 20
1.386259768829662
 30
0.0
 40
0.09375
100
AcDbArc
 50
267.9269897477144
 51
92.04508719042506
  0
LWPOLYLINE
  5
70
100
AcDbEntity
  8
USP-GEO
100
AcDbPolyline
 90
        2
 70
   128
 43
0.0
 10
8.054881178746114
 20
1.482739321460726
 10
7.497329377491788
 20
1.482739321460726
  0
ARC
  5
71
100
AcDbEntity
  8
USP-GEO
100
AcDbCircle
 10
7.49582633533445
 20
1.386259768829662
 30
0.0
 40
0.09375
100
AcDbArc
 50
89.10746884976141
 51
270.9047260829696
  0
LWPOLYLINE
  5
72
100
AcDbEntity
  8
USP-GEO
100
AcDbPolyline
 90
        2
 70
   128
 43
0.0
 10
6.503319056818056
 20
4.447346789692723
 10
6.503319056818056
 20
4.133723901487163
  0
LWPOLYLINE
  5
73
100
AcDbEntity
  8
USP-GEO
100
AcDbPolyline
 90
        2
 70
   128
 43
0.0
 10
6.677553994710033
 20
4.133723901487163
 10
6.677553994710033
 20
4.447346789692723
  0
ARC
  5
74
100
AcDbEntity
  8
USP-GEO
100
AcDbCircle
 10
6.589576335334448
 20
4.44875976882966
 30
0.0
 40
0.09375
100
AcDbArc
 50
359.0798711642996
 51
180.9384773358816
  0
CIRCLE
  5
75
100
AcDbEntity
  8
USP-GEO
100
AcDbCircle
 10
7.433326335334457
 20
4.323759768829667
 30
0.0
 40
0.082
  0
CIRCLE
  5
76
100
AcDbEntity
  8
USP-GEO
100
AcDbCircle
 10
8.058326335334452
 20
2.573759768829667
 30
0.0
 40
0.082
  0
CIRCLE
  5
77
100
AcDbEntity
  8
USP-GEO
100
AcDbCircle
 10
7.433326335334451
 20
2.073759768829662
 30
0.0
 40
0.082
  0
LWPOLYLINE
  5
78
100
AcDbEntity
  8
USP-GEO
100
AcDbPolyline
 90
        2
 70
   128
 43
0.0
 10
4.184252033475837
 20
4.133723901487163
 10
4.184252033475837
 20
4.447346789692723
  0
ARC
  5
79
100
AcDbEntity
  8
USP-GEO
100
AcDbCircle
 10
4.088326335334451
 20
4.448759768829667
 30
0.0
 40
0.09375
100
AcDbArc
 50
359.1560980190021
 51
180.8456027533658
  0
LWPOLYLINE
  5
7A
100
AcDbEntity
  8
USP-GEO
100
AcDbPolyline
 90
        2
 70
   128
 43
0.0
 10
3.992593601794662
 20
4.447346789692723
 10
3.992593601794662
 20
4.133723901487163
  0
CIRCLE
  5
7B
100
AcDbEntity
  8
USP-GEO
100
AcDbCircle
 10
1.12082633533445
 20
4.323759768829667
 30
0.0
 40
0.082
  0
CIRCLE
  5
7C
100
AcDbEntity
  8
USP-GEO
100
AcDbCircle
 10
0.4958263353344501
 20
3.823759768829667
 30
0.0
 40
0.082
  0
CIRCLE
  5
7D
100
AcDbEntity
  8
USP-GEO
100
AcDbCircle
 10
1.120826335334443
 20
2.073759768829665
 30
0.0
 40
0.082
  0
LWPOLYLINE
  5
7E
100
AcDbEntity
  8
USP-GEO
100
AcDbPolyline
 90
        2
 70
   128
 43
0.0
 10
1.866056184823078
 20
2.337361691820875
 10
1.866056184823078
 20
1.6918212469311
  0
ARC
  5
7F
100
AcDbEntity
  8
USP-GEO
100
AcDbCircle
 10
1.964576335334451
 20
1.698759768829665
 30
0.0
 40
0.09375
100
AcDbArc
 50
184.0285432509762
 51
355.7395067042588
  0
LWPOLYLINE
  5
80
100
AcDbEntity
  8
USP-GEO
100
AcDbPolyline
 90
        2
 70
   128
 43
0.0
 10
2.057714616504253
 20
1.6918212469311
 10
2.057714616504253
 20
2.337361691820875
  0
LWPOLYLINE
  5
81
100
AcDbEntity
  8
USP-GEO
100
AcDbPolyline
 90
        2
 70
   128
 43
0.0
 10
1.063704295830522
 20
1.291080889779552
 10
0.4887290007869974
 20
1.291080889779552
  0
ARC
  5
82
100
AcDbEntity
  8
USP-GEO
100
AcDbCircle
 10
1.058326335334443
 20
1.386259768829662
 30
0.0
 40
0.09375
100
AcDbArc
 50
273.2339857829669
 51
86.80952199387906
  0
LWPOLYLINE
  5
83
100
AcDbEntity
  8
USP-GEO
100
AcDbPolyline
 90
        2
 70
   128
 43
0.0
 10
1.063704295830522
 20
1.482739321460726
 10
0.4887290007869974
 20
1.482739321460726
  0
ARC
  5
84
100
AcDbEntity
  8
USP-GEO
100
AcDbCircle
 10
0.495826335334443
 20
1.386259768829662
 30
0.0
 40
0.09375
100
AcDbArc
 50
94.20727655665602
 51
265.735439301241
  0
CIRCLE
  5
85
100
AcDbEntity
  8
USP-GEO
100
AcDbCircle
 10
0.3708263353344448
 20
0.7612597688296621
 30
0.0
 40
0.082
  0
LWPOLYLINE
  5
86
100
AcDbEntity
  8
USP-GEO
100
AcDbPolyline
 90
        2
 70
   128
 43
0.0
 10
1.586409109506454
 20
3.715560050546416
 10
1.586409109506454
 20
4.133723901487163
  0
LWPOLYLINE
  5
87
100
AcDbEntity
  8
USP-GEO
100
AcDbPolyline
 90
        2
 70
   128
 43
0.0
 10
6.956329895337197
 20
4.133723901487163
 10
1.586409109506454
 20
4.133723901487163
  0
LWPOLYLINE
  5
88
100
AcDbEntity
  8
USP-GEO
100
AcDbPolyline
 90
        2
 70
   128
 43
0.0
 10
1.586409109506454
 20
3.610147913121771
 10
1.586409109506454
 20
3.715560050546416
  0
LWPOLYLINE
  5
89
100
AcDbEntity
  8
USP-GEO
100
AcDbPolyline
 90
        2
 70
   128
 43
0.0
 10
2.423607986077406
 20
2.337361691820875
 10
1.586409109506454
 20
2.337361691820875
  0
LWPOLYLINE
  5
8A
100
AcDbEntity
  8
USP-GEO
100
AcDbPolyline
 90
        2
 70
   128
 43
0.0
 10
6.956329895337197
 20
2.337361691820875
 10
6.120002193455706
 20
2.337361691820875
  0
CIRCLE
  5
8B
100
AcDbEntity
  8
USP-GEO
100
AcDbCircle
 10
1.964326335334454
 20
2.597914912563751
 30
0.0
 40
0.09
  0
CIRCLE
  5
8C
100
AcDbEntity
  8
USP-GEO
100
AcDbCircle
 10
4.088326335334452
 20
3.882914912563755
 30
0.0
 40
0.0935
  0
CIRCLE
  5
8D
100
AcDbEntity
  8
USP-GEO
100
AcDbCircle
 10
6.58932633533445
 20
3.882914912563755
 30
0.0
 40
0.09
  0
LWPOLYLINE
  5
8E
100
AcDbEntity
  8
USP-GEO
100
AcDbPolyline
 90
        2
 70
   128
 43
0.0
 10
6.956329895337197
 20
3.715560050546416
 10
6.956329895337197
 20
3.610147913121771
  0
LWPOLYLINE
  5
8F
100
AcDbEntity
  8
USP-GEO
100
AcDbPolyline
 90
        2
 70
   128
 43
0.0
 10
6.956329895337197
 20
4.133723901487163
 10
6.956329895337197
 20
3.715560050546416
  0
LWPOLYLINE
  5
90
100
AcDbEntity
  8
USP-GEO
100
AcDbPolyline
 90
        2
 70
   128
 43
0.0
 10
6.956329895337197
 20
2.755525542761622
 10
6.956329895337197
 20
2.337361691820875
  0
LWPOLYLINE
  5
91
100
AcDbEntity
  8
USP-GEO
100
AcDbPolyline
 90
        2
 70
   128
 43
0.0
 10
6.956329895337197
 20
2.860937680186268
 10
6.956329895337197
 20
2.755525542761622
  0
LWPOLYLINE
  5
92
100
AcDbEntity
  8
USP-GEO
100
AcDbPolyline
 90
        2
 70
   128
 43
0.0
 10
1.586409109506454
 20
2.755525542761622
 10
1.586409109506454
 20
2.860937680186268
  0
LWPOLYLINE
  5
93
100
AcDbEntity
  8
USP-GEO
100
AcDbPolyline
 90
        2
 70
   128
 43
0.0
 10
1.586409109506454
 20
2.755525542761622
 10
1.586409109506454
 20
2.337361691820875
  0
LWPOLYLINE
  5
94
100
AcDbEntity
  8
USP-GEO
100
AcDbPolyline
 90
        2
 70
   128
 43
0.0
 10
6.904059413969604
 20
2.860937680186268
 10
6.904930588659065
 20
2.860937680186268
  0
LWPOLYLINE
  5
95
100
AcDbEntity
  8
USP-GEO
100
AcDbPolyline
 90
        2
 70
   128
 43
0.0
 10
6.904059413969604
 20
3.087443099445838
 10
6.904059413969604
 20
2.860937680186268
  0
LWPOLYLINE
  5
96
100
AcDbEntity
  8
USP-GEO
100
AcDbPolyline
 90
        2
 70
   128
 43
0.0
 10
6.904059413969604
 20
3.401065987651398
 10
6.904059413969604
 20
3.087443099445838
  0
LWPOLYLINE
  5
97
100
AcDbEntity
  8
USP-GEO
100
AcDbPolyline
 90
        2
 70
   128
 43
0.0
 10
6.904059413969604
 20
3.610147913121771
 10
6.904059413969604
 20
3.401065987651398
  0
LWPOLYLINE
  5
98
100
AcDbEntity
  8
USP-GEO
100
AcDbPolyline
 90
        2
 70
   128
 43
0.0
 10
6.904059413969604
 20
3.610147913121771
 10
6.904930588659065
 20
3.610147913121771
  0
LWPOLYLINE
  5
99
100
AcDbEntity
  8
USP-GEO
100
AcDbPolyline
 90
        2
 70
   128
 43
0.0
 10
6.956329895337197
 20
3.505606950386583
 10
6.956329895337197
 20
3.610147913121771
  0
LWPOLYLINE
  5
9A
100
AcDbEntity
  8
USP-GEO
100
AcDbPolyline
 90
        2
 70
   128
 43
0.0
 10
6.904059413969604
 20
3.505606950386583
 10
6.956329895337197
 20
3.505606950386583
  0
LWPOLYLINE
  5
9B
100
AcDbEntity
  8
USP-GEO
100
AcDbPolyline
 90
        2
 70
   128
 43
0.0
 10
6.956329895337197
 20
3.610147913121771
 10
6.904059413969604
 20
3.610147913121771
  0
LWPOLYLINE
  5
9C
100
AcDbEntity
  8
USP-GEO
100
AcDbPolyline
 90
        2
 70
   128
 43
0.0
 10
6.956329895337197
 20
2.965478642921453
 10
6.904059413969604
 20
2.965478642921453
  0
LWPOLYLINE
  5
9D
100
AcDbEntity
  8
USP-GEO
100
AcDbPolyline
 90
        2
 70
   128
 43
0.0
 10
6.956329895337197
 20
2.860937680186268
 10
6.956329895337197
 20
2.965478642921453
  0
LWPOLYLINE
  5
9E
100
AcDbEntity
  8
USP-GEO
100
AcDbPolyline
 90
        2
 70
   128
 43
0.0
 10
6.904059413969604
 20
2.860937680186268
 10
6.956329895337197
 20
2.860937680186268
  0
LWPOLYLINE
  5
9F
100
AcDbEntity
  8
USP-GEO
100
AcDbPolyline
 90
        2
 70
   128
 43
0.0
 10
1.586409109506454
 20
3.505606950386583
 10
1.656974259352705
 20
3.505606950386583
  0
LWPOLYLINE
  5
A0
100
AcDbEntity
  8
USP-GEO
100
AcDbPolyline
 90
        2
 70
   128
 43
0.0
 10
1.586409109506454
 20
3.610147913121771
 10
1.586409109506454
 20
3.505606950386583
  0
LWPOLYLINE
  5
A1
100
AcDbEntity
  8
USP-GEO
100
AcDbPolyline
 90
        2
 70
   128
 43
0.0
 10
1.656974259352705
 20
3.610147913121771
 10
1.586409109506454
 20
3.610147913121771
  0
LWPOLYLINE
  5
A2
100
AcDbEntity
  8
USP-GEO
100
AcDbPolyline
 90
        2
 70
   128
 43
0.0
 10
1.586409109506454
 20
2.965478642921453
 10
1.586409109506454
 20
2.860937680186268
  0
LWPOLYLINE
  5
A3
100
AcDbEntity
  8
USP-GEO
100
AcDbPolyline
 90
        2
 70
   128
 43
0.0
 10
1.656974259352705
 20
2.965478642921453
 10
1.586409109506454
 20
2.965478642921453
  0
LWPOLYLINE
  5
A4
100
AcDbEntity
  8
USP-GEO
100
AcDbPolyline
 90
        2
 70
   128
 43
0.0
 10
1.586409109506454
 20
2.860937680186268
 10
1.656974259352705
 20
2.860937680186268
  0
LWPOLYLINE
  5
A5
100
AcDbEntity
  8
USP-GEO
100
AcDbPolyline
 90
        2
 70
   128
 43
0.0
 10
1.656974259352705
 20
3.401065987651398
 10
1.656974259352705
 20
3.610147913121771
  0
LWPOLYLINE
  5
A6
100
AcDbEntity
  8
USP-GEO
100
AcDbPolyline
 90
        2
 70
   128
 43
0.0
 10
1.656974259352705
 20
3.087443099445838
 10
1.656974259352705
 20
3.401065987651398
  0
LWPOLYLINE
  5
A7
100
AcDbEntity
  8
USP-GEO
100
AcDbPolyline
 90
        2
 70
   128
 43
0.0
 10
1.656974259352705
 20
2.860937680186268
 10
1.656974259352705
 20
3.087443099445838
  0
LWPOLYLINE
  5
A8
100
AcDbEntity
  8
USP-GEO
100
AcDbPolyline
 90
        2
 70
   128
 43
0.0
 10
1.656974259352705
 20
2.860937680186268
 10
1.657845434042165
 20
2.860937680186268
  0
LWPOLYLINE
  5
A9
100
AcDbEntity
  8
USP-GEO
100
AcDbPolyline
 90
        2
 70
   128
 43
0.0
 10
1.656974259352705
 20
3.610147913121771
 10
1.657845434042165
 20
3.610147913121771
  0
TEXT
  5
AA
100
AcDbEntity
  8
USP-TXT
100
AcDbText
 10
2.030516836661155
 20
-0.7966792881063772
 30
0.0
 40
0.25
  1
TMPH4 - FRONT VIEW
 72
     1
 11
4.280516836661155
 21
-0.7966792881063772
 31
0.0
100
AcDbText
  0
ENDBLK
  5
AC
100
AcDbEntity
  8
0
100
AcDbBlockEnd
  0
BLOCK
  5
D8
100
AcDbEntity
  8
0
100
AcDbBlockBegin
  2
TMPH4PR_S
 70
     0
 10
0.0
 20
0.0
 30
0.0
  3
TMPH4PR_S
  1

  0
LWPOLYLINE
  5
AF
100
AcDbEntity
  8
USP-GEO
100
AcDbPolyline
 90
        2
 70
   128
 43
0.0
 10
4.724380340940967
 20
1.413045346303935
 10
4.637262871994977
 20
1.465315827671529
  0
LWPOLYLINE
  5
B0
100
AcDbEntity
  8
USP-GEO
100
AcDbPolyline
 90
        2
 70
   128
 43
0.0
 10
4.271369502421826
 20
0.8023518889925558
 10
4.672109859573374
 20
1.517586309039122
  0
LWPOLYLINE
  5
B1
100
AcDbEntity
  8
USP-GEO
100
AcDbPolyline
 90
        2
 70
   128
 43
0.0
 10
0.0
 20
1.256233902201156
 10
1.290209715090092
 20
3.470759962808189
  0
LWPOLYLINE
  5
B2
100
AcDbEntity
  8
USP-GEO
100
AcDbPolyline
 90
        2
 70
   128
 43
0.0
 10
1.882608503922813
 20
0.175106112581437
 10
4.271369502421826
 20
0.8023518889925558
  0
LWPOLYLINE
  5
B3
100
AcDbEntity
  8
USP-GEO
100
AcDbPolyline
 90
        2
 70
   128
 43
0.0
 10
1.882608503922813
 20
0.175106112581437
 10
0.0
 20
1.256233902201156
  0
CIRCLE
  5
B4
100
AcDbEntity
  8
USP-GEO
100
AcDbCircle
 10
1.215525719120023
 20
1.997728014099111
 30
0.0
 40
0.082
  0
CIRCLE
  5
B5
100
AcDbEntity
  8
USP-GEO
100
AcDbCircle
 10
0.9512307998769138
 20
1.139955785787728
 30
0.0
 40
0.082
  0
CIRCLE
  5
B6
100
AcDbEntity
  8
USP-GEO
100
AcDbCircle
 10
2.533762554607459
 20
1.380981189572169
 30
0.0
 40
0.082
  0
CIRCLE
  5
B7
100
AcDbEntity
  8
USP-GEO
100
AcDbCircle
 10
1.569499852715242
 20
0.7108291980511954
 30
0.0
 40
0.082
  0
LWPOLYLINE
  5
B8
100
AcDbEntity
  8
USP-GEO
100
AcDbPolyline
 90
        2
 70
   128
 43
0.0
 10
4.672109859573374
 20
1.517586309039122
 10
4.759227328519362
 20
1.465315827671529
  0
LWPOLYLINE
  5
B9
100
AcDbEntity
  8
USP-GEO
100
AcDbPolyline
 90
        2
 70
   128
 43
0.0
 10
4.672109859573374
 20
1.517586309039122
 10
1.290209715090092
 20
3.470759962808189
  0
ARC
  5
BA
100
AcDbEntity
  8
USP-GEO
100
AcDbCircle
 10
1.600749852715242
 20
0.7649557857877288
 30
0.0
 40
0.082
100
AcDbArc
 50
178.2625181939732
 51
249.4136057565228
  0
ARC
  5
BB
100
AcDbEntity
  8
USP-GEO
100
AcDbCircle
 10
1.600749852715242
 20
0.7649557857877288
 30
0.0
 40
0.082
100
AcDbArc
 50
249.4136057565228
 51
309.5016669908307
  0
ARC
  5
BC
100
AcDbEntity
  8
USP-GEO
100
AcDbCircle
 10
0.9199807998769173
 20
1.085829198051195
 30
0.0
 40
0.082
100
AcDbArc
 50
343.8005321350322
 51
126.5390511465197
  0
LWPOLYLINE
  5
BD
100
AcDbEntity
  8
USP-GEO
100
AcDbPolyline
 90
        2
 70
   128
 43
0.0
 10
4.77665082230856
 20
1.378198358725541
 10
4.724380340940967
 20
1.413045346303935
  0
LWPOLYLINE
  5
BE
100
AcDbEntity
  8
USP-GEO
100
AcDbPolyline
 90
        2
 70
   128
 43
0.0
 10
4.77665082230856
 20
1.447892333882331
 10
4.759227328519362
 20
1.465315827671529
  0
LWPOLYLINE
  5
BF
100
AcDbEntity
  8
USP-GEO
100
AcDbPolyline
 90
        2
 70
   128
 43
0.0
 10
4.846344797465349
 20
4.69214687743095
 10
4.846344797465349
 20
0.0
  0
LWPOLYLINE
  5
C0
100
AcDbEntity
  8
USP-GEO
100
AcDbPolyline
 90
        2
 70
   128
 43
0.0
 10
4.846344797465349
 20
0.0
 10
4.77665082230856
 20
0.0
  0
LWPOLYLINE
  5
C1
100
AcDbEntity
  8
USP-GEO
100
AcDbPolyline
 90
        2
 70
   128
 43
0.0
 10
4.846344797465349
 20
4.69214687743095
 10
4.77665082230856
 20
4.69214687743095
  0
LWPOLYLINE
  5
C2
100
AcDbEntity
  8
USP-GEO
100
AcDbPolyline
 90
        2
 70
   128
 43
0.0
 10
4.77665082230856
 20
4.69214687743095
 10
4.77665082230856
 20
0.0
  0
ARC
  5
C3
100
AcDbEntity
  8
USP-GEO
100
AcDbCircle
 10
4.558219787141698
 20
3.716093158060672
 30
0.0
 40
0.1084
100
AcDbArc
 50
292.6439355767538
 51
359.7318064089567
  0
LWPOLYLINE
  5
C4
100
AcDbEntity
  8
USP-GEO
100
AcDbPolyline
 90
        2
 70
   128
 43
0.0
 10
4.672109859573374
 20
4.133723901487163
 10
4.672109859573374
 20
3.715560050546416
  0
LWPOLYLINE
  5
C5
100
AcDbEntity
  8
USP-GEO
100
AcDbPolyline
 90
        2
 70
   128
 43
0.0
 10
4.77665082230856
 20
4.133723901487163
 10
4.672109859573374
 20
4.133723901487163
  0
ARC
  5
C6
100
AcDbEntity
  8
USP-GEO
100
AcDbCircle
 10
4.558219787141698
 20
3.716093158060672
 30
0.0
 40
0.2164
100
AcDbArc
 50
286.3173304072878
 51
359.8601629575102
  0
LWPOLYLINE
  5
C7
100
AcDbEntity
  8
USP-GEO
100
AcDbPolyline
 90
        2
 70
   128
 43
0.0
 10
4.602415884416583
 20
3.505606950386583
 10
4.619839378205778
 20
3.505606950386583
  0
LWPOLYLINE
  5
C8
100
AcDbEntity
  8
USP-GEO
100
AcDbPolyline
 90
        2
 70
   128
 43
0.0
 10
4.619839378205778
 20
2.965478642921453
 10
4.602415884416583
 20
2.965478642921453
  0
ARC
  5
C9
100
AcDbEntity
  8
USP-GEO
100
AcDbCircle
 10
4.558219787141698
 20
2.764736667066834
 30
0.0
 40
0.2164
100
AcDbArc
 50
357.5852971231455
 51
72.9356515036436
  0
LWPOLYLINE
  5
CA
100
AcDbEntity
  8
USP-GEO
100
AcDbPolyline
 90
        2
 70
   128
 43
0.0
 10
4.672109859573374
 20
2.337361691820875
 10
4.77665082230856
 20
2.337361691820875
  0
LWPOLYLINE
  5
CB
100
AcDbEntity
  8
USP-GEO
100
AcDbPolyline
 90
        2
 70
   128
 43
0.0
 10
4.672109859573374
 20
2.755525542761622
 10
4.672109859573374
 20
2.337361691820875
  0
ARC
  5
CC
100
AcDbEntity
  8
USP-GEO
100
AcDbCircle
 10
4.558219787141698
 20
2.764736667066834
 30
0.0
 40
0.1084
100
AcDbArc
 50
355.3761349276799
 51
65.32528502188259
  0
LWPOLYLINE
  5
CD
100
AcDbEntity
  8
USP-GEO
100
AcDbPolyline
 90
        2
 70
   128
 43
0.0
 10
3.817487489213224
 20
3.296525024916212
 10
4.602415884416583
 20
3.505606950386583
  0
ARC
  5
CE
100
AcDbEntity
  8
USP-GEO
100
AcDbCircle
 10
3.828482521267268
 20
3.24041491256375
 30
0.0
 40
0.0542
100
AcDbArc
 50
101.0868879926248
 51
257.2092107186941
  0
LWPOLYLINE
  5
CF
100
AcDbEntity
  8
USP-GEO
100
AcDbPolyline
 90
        2
 70
   128
 43
0.0
 10
4.602415884416583
 20
2.965478642921453
 10
3.817487489213224
 20
3.191984062181024
  0
ARC
  5
D0
100
AcDbEntity
  8
USP-GEO
100
AcDbCircle
 10
4.558219787141702
 20
2.764736667066834
 30
0.0
 40
0.1084
100
AcDbArc
 50
65.32528502188438
 51
74.44819150359632
  0
LWPOLYLINE
  5
D1
100
AcDbEntity
  8
USP-GEO
100
AcDbPolyline
 90
        2
 70
   128
 43
0.0
 10
3.78264050163483
 20
3.087443099445838
 10
4.584992390627384
 20
2.860937680186268
  0
ARC
  5
D2
100
AcDbEntity
  8
USP-GEO
100
AcDbCircle
 10
3.828482521267268
 20
3.24041491256375
 30
0.0
 40
0.1622
100
AcDbArc
 50
105.9261748775183
 51
253.317775069327
  0
LWPOLYLINE
  5
D3
100
AcDbEntity
  8
USP-GEO
100
AcDbPolyline
 90
        2
 70
   128
 43
0.0
 10
4.584992390627384
 20
3.610147913121771
 10
3.78264050163483
 20
3.401065987651398
  0
ARC
  5
D4
100
AcDbEntity
  8
USP-GEO
100
AcDbCircle
 10
4.558219787141698
 20
3.716093158060672
 30
0.0
 40
0.1084
100
AcDbArc
 50
284.181871450698
 51
292.6439355767538
  0
LWPOLYLINE
  5
D5
100
AcDbEntity
  8
USP-GEO
100
AcDbPolyline
 90
        2
 70
   128
 43
0.0
 10
4.602415884416583
 20
3.505606950386583
 10
4.602415884416583
 20
3.610147913121771
  0
LWPOLYLINE
  5
D6
100
AcDbEntity
  8
USP-GEO
100
AcDbPolyline
 90
        2
 70
   128
 43
0.0
 10
4.602415884416583
 20
2.860937680186268
 10
4.602415884416583
 20
2.965478642921453
  0
TEXT
  5
D7
100
AcDbEntity
  8
USP-TXT
100
AcDbText
 10
0.3398390653993402
 20
-0.7966792881063772
 30
0.0
 40
0.25
  1
TMPH4 - SIDE VIEW
 72
     1
 11
2.423172398732674
 21
-0.7966792881063772
 31
0.0
100
AcDbText
  0
ENDBLK
  5
D9
100
AcDbEntity
  8
0
100
AcDbBlockEnd
  0
ENDSEC
  0
SECTION
  2
ENTITIES
  0
INSERT
  5
3
100
AcDbEntity
  8
USP
100
AcDbBlockReference
  2
TMPH4PR_T
 10
0.0045497707704998
 20
12.64567641236351
 30
0.0
  0
INSERT
  5
3C
100
AcDbEntity
  8
USP
100
AcDbBlockReference
  2
TMPH4PR_F
 10
0.0045497707704998
 20
2.250820017728138
 30
0.0
  0
INSERT
  5
AD
100
AcDbEntity
  8
USP
100
AcDbBlockReference
  2
TMPH4PR_S
 10
12.01717756373288
 20
2.250820017728138
 30
0.0
  0
ENDSEC
  0
SECTION
  2
OBJECTS
  0
DICTIONARY
  5
F1
100
AcDbDictionary
  3
ACAD_GROUP
350
EF
  3
ACAD_MLINESTYLE
350
F0
  0
DICTIONARY
  5
9
100
AcDbDictionary
280
     1
  3
ACAD_XREC_ROUNDTRIP
360
A
  0
DICTIONARY
  5
36
100
AcDbDictionary
280
     1
  3
ACAD_XREC_ROUNDTRIP
360
37
  0
DICTIONARY
  5
F4
100
AcDbDictionary
280
     1
  3
ACAD_XREC_ROUNDTRIP
360
F5
  0
DICTIONARY
  5
DA
100
AcDbDictionary
280
     1
  3
ACAD_LAYOUTSELFREF
360
DB
  0
DICTIONARY
  5
DF
100
AcDbDictionary
280
     1
  3
ACAD_LAYOUTSELFREF
360
E0
  0
DICTIONARY
  5
EF
102
{ACAD_REACTORS
330
F1
102
}
100
AcDbDictionary
  0
DICTIONARY
  5
F0
102
{ACAD_REACTORS
330
F1
102
}
100
AcDbDictionary
  3
STANDARD
350
F2
  0
XRECORD
  5
A
102
{ACAD_REACTORS
330
9
102
}
100
AcDbXrecord
102
EXTNAMES
  1
USP-GEO
  2
USP-Geo
  0
XRECORD
  5
37
102
{ACAD_REACTORS
330
36
102
}
100
AcDbXrecord
102
EXTNAMES
  1
USP-TXT
  2
USP-Txt
  0
XRECORD
  5
F5
102
{ACAD_REACTORS
330
F4
102
}
100
AcDbXrecord
102
ACADR14ROUNDTRIP
1000
DSTYLE
1002
{
1070
   276
 70
     2
1070
   277
 70
     5
1002
}
  0
XRECORD
  5
DB
102
{ACAD_REACTORS
330
DA
102
}
100
AcDbXrecord
340
2
  0
XRECORD
  5
E0
102
{ACAD_REACTORS
330
DF
102
}
100
AcDbXrecord
340
0
  0
MLINESTYLE
  5
F2
102
{ACAD_REACTORS
330
F0
102
}
100
AcDbMlineStyle
  2
STANDARD
 70
     0
  3

 62
     0
 51
90.0
 52
90.0
 71
     2
 49
0.5
 62
   256
  6
BYLAYER
 49
-0.5
 62
   256
  6
BYLAYER
  0
ENDSEC
  0
EOF
