  0
SECTION
  2
HEADER
  9
$ACADVER
  1
AC1014
  9
$ACADMAINTVER
 70
     8
  9
$DWGCODEPAGE
  3
ANSI_1252
  9
$INSBASE
 10
0.0
 20
0.0
 30
0.0
  9
$EXTMIN
 10
-0.0073292270891159
 20
1.380493957850505
 30
0.0
  9
$EXTMAX
 10
17.09033331191779
 20
18.43000794461476
 30
0.0
  9
$LIMMIN
 10
0.0
 20
0.0
  9
$LIMMAX
 10
12.0
 20
9.0
  9
$ORTHOMODE
 70
     0
  9
$REGENMODE
 70
     1
  9
$FILLMODE
 70
     1
  9
$QTEXTMODE
 70
     0
  9
$MIRRTEXT
 70
     0
  9
$DRAGMODE
 70
     2
  9
$LTSCALE
 40
1.5
  9
$OSMODE
 70
     0
  9
$ATTMODE
 70
     1
  9
$TEXTSIZE
 40
0.25
  9
$TRACEWID
 40
0.05
  9
$TEXTSTYLE
  7
STANDARD
  9
$CLAYER
  8
USP
  9
$CELTYPE
  6
BYLAYER
  9
$CECOLOR
 62
   256
  9
$CELTSCALE
 40
1.0
  9
$DELOBJ
 70
     1
  9
$DISPSILH
 70
     1
  9
$DIMSCALE
 40
5.0
  9
$DIMASZ
 40
0.125
  9
$DIMEXO
 40
0.0625
  9
$DIMDLI
 40
0.38
  9
$DIMRND
 40
0.0
  9
$DIMDLE
 40
0.0
  9
$DIMEXE
 40
0.09375
  9
$DIMTP
 40
0.0
  9
$DIMTM
 40
0.0
  9
$DIMTXT
 40
0.109375
  9
$DIMCEN
 40
0.0
  9
$DIMTSZ
 40
0.0
  9
$DIMTOL
 70
     0
  9
$DIMLIM
 70
     0
  9
$DIMTIH
 70
     1
  9
$DIMTOH
 70
     1
  9
$DIMSE1
 70
     0
  9
$DIMSE2
 70
     0
  9
$DIMTAD
 70
     0
  9
$DIMZIN
 70
     8
  9
$DIMBLK
  1

  9
$DIMASO
 70
     1
  9
$DIMSHO
 70
     1
  9
$DIMPOST
  1

  9
$DIMAPOST
  1

  9
$DIMALT
 70
     0
  9
$DIMALTD
 70
     2
  9
$DIMALTF
 40
25.4
  9
$DIMLFAC
 40
1.0
  9
$DIMTOFL
 70
     0
  9
$DIMTVP
 40
0.0
  9
$DIMTIX
 70
     0
  9
$DIMSOXD
 70
     0
  9
$DIMSAH
 70
     0
  9
$DIMBLK1
  1

  9
$DIMBLK2
  1

  9
$DIMSTYLE
  2
STANDARD
  9
$DIMCLRD
 70
   256
  9
$DIMCLRE
 70
   256
  9
$DIMCLRT
 70
   256
  9
$DIMTFAC
 40
1.0
  9
$DIMGAP
 40
0.09
  9
$DIMJUST
 70
     0
  9
$DIMSD1
 70
     0
  9
$DIMSD2
 70
     0
  9
$DIMTOLJ
 70
     1
  9
$DIMTZIN
 70
     0
  9
$DIMALTZ
 70
     0
  9
$DIMALTTZ
 70
     0
  9
$DIMFIT
 70
     3
  9
$DIMUPT
 70
     1
  9
$DIMUNIT
 70
     7
  9
$DIMDEC
 70
     4
  9
$DIMTDEC
 70
     4
  9
$DIMALTU
 70
     2
  9
$DIMALTTD
 70
     2
  9
$DIMTXSTY
  7
STANDARD
  9
$DIMAUNIT
 70
     0
  9
$LUNITS
 70
     5
  9
$LUPREC
 70
     6
  9
$SKETCHINC
 40
0.1
  9
$FILLETRAD
 40
0.0
  9
$AUNITS
 70
     0
  9
$AUPREC
 70
     1
  9
$MENU
  1
CUSTOM
  9
$ELEVATION
 40
0.0
  9
$PELEVATION
 40
0.0
  9
$THICKNESS
 40
0.0
  9
$LIMCHECK
 70
     0
  9
$BLIPMODE
 70
     0
  9
$CHAMFERA
 40
0.0
  9
$CHAMFERB
 40
0.0
  9
$CHAMFERC
 40
0.0
  9
$CHAMFERD
 40
0.0
  9
$SKPOLY
 70
     0
  9
$TDCREATE
 40
2451263.621564698
  9
$TDUPDATE
 40
2453026.042944872
  9
$TDINDWG
 40
1.0777215509
  9
$TDUSRTIMER
 40
1.0777215509
  9
$USRTIMER
 70
     1
  9
$ANGBASE
 50
0.0
  9
$ANGDIR
 70
     0
  9
$PDMODE
 70
     0
  9
$PDSIZE
 40
0.0
  9
$PLINEWID
 40
0.0
  9
$COORDS
 70
     2
  9
$SPLFRAME
 70
     0
  9
$SPLINETYPE
 70
     6
  9
$SPLINESEGS
 70
     8
  9
$ATTDIA
 70
     0
  9
$ATTREQ
 70
     0
  9
$HANDLING
 70
     1
  9
$HANDSEED
  5
F6
  9
$SURFTAB1
 70
     6
  9
$SURFTAB2
 70
     6
  9
$SURFTYPE
 70
     6
  9
$SURFU
 70
     6
  9
$SURFV
 70
     6
  9
$UCSNAME
  2

  9
$UCSORG
 10
0.0
 20
0.0
 30
0.0
  9
$UCSXDIR
 10
1.0
 20
0.0
 30
0.0
  9
$UCSYDIR
 10
0.0
 20
1.0
 30
0.0
  9
$PUCSNAME
  2

  9
$PUCSORG
 10
0.0
 20
0.0
 30
0.0
  9
$PUCSXDIR
 10
1.0
 20
0.0
 30
0.0
  9
$PUCSYDIR
 10
0.0
 20
1.0
 30
0.0
  9
$USERI1
 70
     0
  9
$USERI2
 70
     0
  9
$USERI3
 70
     0
  9
$USERI4
 70
     0
  9
$USERI5
 70
     0
  9
$USERR1
 40
0.0
  9
$USERR2
 40
0.0
  9
$USERR3
 40
0.0
  9
$USERR4
 40
0.0
  9
$USERR5
 40
0.0
  9
$WORLDVIEW
 70
     1
  9
$SHADEDGE
 70
     3
  9
$SHADEDIF
 70
    70
  9
$TILEMODE
 70
     1
  9
$MAXACTVP
 70
    16
  9
$PINSBASE
 10
0.0
 20
0.0
 30
0.0
  9
$PLIMCHECK
 70
     0
  9
$PEXTMIN
 10
1.000000000000000E+20
 20
1.000000000000000E+20
 30
1.000000000000000E+20
  9
$PEXTMAX
 10
-1.000000000000000E+20
 20
-1.000000000000000E+20
 30
-1.000000000000000E+20
  9
$PLIMMIN
 10
0.0
 20
0.0
  9
$PLIMMAX
 10
12.0
 20
9.0
  9
$UNITMODE
 70
     0
  9
$VISRETAIN
 70
     0
  9
$PLINEGEN
 70
     0
  9
$PSLTSCALE
 70
     0
  9
$TREEDEPTH
 70
  3020
  9
$PICKSTYLE
 70
     1
  9
$CMLSTYLE
  2
STANDARD
  9
$CMLJUST
 70
     0
  9
$CMLSCALE
 40
1.0
  9
$PROXYGRAPHICS
 70
     1
  9
$MEASUREMENT
 70
     0
  0
ENDSEC
  0
SECTION
  2
CLASSES
  0
CLASS
  1
ACDBDICTIONARYWDFLT
  2
AcDbDictionaryWithDefault
  3
AutoCAD 2000
 90
        0
280
     0
281
     0
  0
CLASS
  1
ACDBPLACEHOLDER
  2
AcDbPlaceHolder
  3
AutoCAD 2000
 90
        0
280
     0
281
     0
  0
CLASS
  1
LAYOUT
  2
AcDbLayout
  3
AutoCAD 2000
 90
        0
280
     0
281
     0
  0
CLASS
  1
DICTIONARYVAR
  2
AcDbDictionaryVar
  3
"AutoCAD"
 90
        0
280
     0
281
     0
  0
CLASS
  1
SORTENTSTABLE
  2
AcDbSortentsTable
  3
"AutoCAD"
 90
        0
280
     0
281
     0
  0
CLASS
  1
LONG_TRANSACTION
  2
AcDbLongTransaction
  3
AutoCAD 2000
 90
        0
280
     0
281
     0
  0
CLASS
  1
LWPOLYLINE
  2
AcDbPolyline
  3
"AutoCAD"
 90
        0
280
     0
281
     1
  0
CLASS
  1
HATCH
  2
AcDbHatch
  3
"ACAD_SEDONA"
 90
        0
280
     0
281
     1
  0
CLASS
  1
XRECORD
  2
AcDbXrecord
  3
"<Built In>"
 90
        0
280
     0
281
     0
  0
CLASS
  1
LONG_TRANSACTION
  2
AcDbLongTransaction
  3
AutoCAD 2000
 90
        0
280
     0
281
     0
  0
CLASS
  1
LWPOLYLINE
  2
AcDbPolyline
  3
"AutoCAD"
 90
        0
280
     0
281
     1
  0
CLASS
  1
HATCH
  2
AcDbHatch
  3
"ACAD_SEDONA"
 90
        0
280
     0
281
     1
  0
CLASS
  1
XRECORD
  2
AcDbXrecord
  3
"<Built In>"
 90
        0
280
     0
281
     0
  0
CLASS
  1
LONG_TRANSACTION
  2
AcDbLongTransaction
  3
AutoCAD 2000
 90
        0
280
     0
281
     0
  0
CLASS
  1
LWPOLYLINE
  2
AcDbPolyline
  3
"AutoCAD"
 90
        0
280
     0
281
     1
  0
CLASS
  1
HATCH
  2
AcDbHatch
  3
"ACAD_SEDONA"
 90
        0
280
     0
281
     1
  0
CLASS
  1
XRECORD
  2
AcDbXrecord
  3
"<Built In>"
 90
        0
280
     0
281
     0
  0
CLASS
  1
LONG_TRANSACTION
  2
AcDbLongTransaction
  3
AutoCAD 2000
 90
        0
280
     0
281
     0
  0
CLASS
  1
LWPOLYLINE
  2
AcDbPolyline
  3
"AutoCAD"
 90
        0
280
     0
281
     1
  0
CLASS
  1
HATCH
  2
AcDbHatch
  3
"ACAD_SEDONA"
 90
        0
280
     0
281
     1
  0
CLASS
  1
XRECORD
  2
AcDbXrecord
  3
"<Built In>"
 90
        0
280
     0
281
     0
  0
CLASS
  1
LONG_TRANSACTION
  2
AcDbLongTransaction
  3
AutoCAD 2000
 90
        0
280
     0
281
     0
  0
CLASS
  1
LWPOLYLINE
  2
AcDbPolyline
  3
"AutoCAD"
 90
        0
280
     0
281
     1
  0
CLASS
  1
HATCH
  2
AcDbHatch
  3
"ACAD_SEDONA"
 90
        0
280
     0
281
     1
  0
CLASS
  1
XRECORD
  2
AcDbXrecord
  3
"<Built In>"
 90
        0
280
     0
281
     0
  0
ENDSEC
  0
SECTION
  2
TABLES
  0
TABLE
  2
VPORT
  5
E7
100
AcDbSymbolTable
 70
     1
  0
VPORT
  5
E8
100
AcDbSymbolTableRecord
100
AcDbViewportTableRecord
  2
*ACTIVE
 70
     0
 10
0.0
 20
0.0
 11
1.0
 21
1.0
 12
1.617569837887421
 22
13.00727373949821
 13
0.0
 23
0.0
 14
1.0
 24
1.0
 15
0.0
 25
0.0
 16
0.0
 26
0.0
 36
1.0
 17
8.859443799743516
 27
-0.7891493214644925
 37
-2.995242132578399
 40
21.78172272968405
 41
1.379227053140096
 42
50.0
 43
0.0
 44
0.0
 50
0.0
 51
0.0
 71
     0
 72
   100
 73
     1
 74
     1
 75
     0
 76
     0
 77
     0
 78
     0
  0
ENDTAB
  0
TABLE
  2
LTYPE
  5
E2
100
AcDbSymbolTable
 70
     1
  0
LTYPE
  5
E3
100
AcDbSymbolTableRecord
100
AcDbLinetypeTableRecord
  2
BYBLOCK
 70
     0
  3

 72
    65
 73
     0
 40
0.0
  0
LTYPE
  5
E4
100
AcDbSymbolTableRecord
100
AcDbLinetypeTableRecord
  2
BYLAYER
 70
     0
  3

 72
    65
 73
     0
 40
0.0
  0
LTYPE
  5
5
100
AcDbSymbolTableRecord
100
AcDbLinetypeTableRecord
  2
CONTINUOUS
 70
     0
  3
Solid line
 72
    65
 73
     0
 40
0.0
  0
ENDTAB
  0
TABLE
  2
LAYER
  5
E0
100
AcDbSymbolTable
 70
     4
  0
LAYER
  5
3A
100
AcDbSymbolTableRecord
100
AcDbLayerTableRecord
  2
0
 70
     0
 62
     7
  6
CONTINUOUS
  0
LAYER
  5
8
102
{ACAD_XDICTIONARY
360
9
102
}
100
AcDbSymbolTableRecord
100
AcDbLayerTableRecord
  2
USP-GEO
 70
     0
 62
     7
  6
CONTINUOUS
  0
LAYER
  5
35
102
{ACAD_XDICTIONARY
360
36
102
}
100
AcDbSymbolTableRecord
100
AcDbLayerTableRecord
  2
USP-TXT
 70
     0
 62
     7
  6
CONTINUOUS
  0
LAYER
  5
4
100
AcDbSymbolTableRecord
100
AcDbLayerTableRecord
  2
USP
 70
     0
 62
     7
  6
CONTINUOUS
  0
ENDTAB
  0
TABLE
  2
STYLE
  5
E1
100
AcDbSymbolTable
 70
     1
  0
STYLE
  5
38
100
AcDbSymbolTableRecord
100
AcDbTextStyleTableRecord
  2
STANDARD
 70
     0
 40
0.0
 41
1.0
 50
0.0
 71
     0
 42
0.25
  3
txt
  4

  0
ENDTAB
  0
TABLE
  2
VIEW
  5
E5
100
AcDbSymbolTable
 70
     0
  0
ENDTAB
  0
TABLE
  2
UCS
  5
E6
100
AcDbSymbolTable
 70
     0
  0
ENDTAB
  0
TABLE
  2
APPID
  5
E9
100
AcDbSymbolTable
 70
     1
  0
APPID
  5
52
100
AcDbSymbolTableRecord
100
AcDbRegAppTableRecord
  2
ACAD
 70
     0
  0
ENDTAB
  0
TABLE
  2
DIMSTYLE
  5
EA
100
AcDbSymbolTable
 70
     1
  0
DIMSTYLE
105
F0
102
{ACAD_XDICTIONARY
360
F1
102
}
100
AcDbSymbolTableRecord
100
AcDbDimStyleTableRecord
  2
STANDARD
 70
     0
  3

  4

  5

  6

  7

 40
1.0
 41
0.125
 42
0.0625
 43
0.38
 44
0.09375
 45
0.0
 46
0.0
 47
0.0
 48
0.0
140
0.109375
141
0.0
142
0.0
143
25.4
144
1.0
145
0.0
146
1.0
147
0.09
 71
     0
 72
     0
 73
     1
 74
     1
 75
     0
 76
     0
 77
     0
 78
     8
170
     0
171
     2
172
     0
173
     0
174
     0
175
     0
176
     0
177
     0
178
     0
270
     7
271
     4
272
     4
273
     2
274
     2
340
38
275
     0
280
     0
281
     0
282
     0
283
     1
284
     0
285
     0
286
     0
287
     3
288
     0
  0
ENDTAB
  0
TABLE
  2
BLOCK_RECORD
  5
1
100
AcDbSymbolTable
 70
     3
  0
BLOCK_RECORD
  5
2
102
{ACAD_XDICTIONARY
360
D7
102
}
100
AcDbSymbolTableRecord
100
AcDbBlockTableRecord
  2
*MODEL_SPACE
  0
BLOCK_RECORD
  5
DB
102
{ACAD_XDICTIONARY
360
DC
102
}
100
AcDbSymbolTableRecord
100
AcDbBlockTableRecord
  2
*PAPER_SPACE
  0
BLOCK_RECORD
  5
6
100
AcDbSymbolTableRecord
100
AcDbBlockTableRecord
  2
TMPH31PR_T
  0
BLOCK_RECORD
  5
3D
100
AcDbSymbolTableRecord
100
AcDbBlockTableRecord
  2
TMPH31PR_F
  0
BLOCK_RECORD
  5
AA
100
AcDbSymbolTableRecord
100
AcDbBlockTableRecord
  2
TMPH31PR_S
  0
ENDTAB
  0
ENDSEC
  0
SECTION
  2
BLOCKS
  0
BLOCK
  5
D9
100
AcDbEntity
  8
0
100
AcDbBlockBegin
  2
*MODEL_SPACE
 70
     0
 10
0.0
 20
0.0
 30
0.0
  3
*MODEL_SPACE
  1

  0
ENDBLK
  5
DA
100
AcDbEntity
  8
0
100
AcDbBlockEnd
  0
BLOCK
  5
DE
100
AcDbEntity
 67
     1
  8
0
100
AcDbBlockBegin
  2
*PAPER_SPACE
 70
     0
 10
0.0
 20
0.0
 30
0.0
  3
*PAPER_SPACE
  1

  0
ENDBLK
  5
DF
100
AcDbEntity
 67
     1
  8
0
100
AcDbBlockEnd
  0
BLOCK
  5
39
100
AcDbEntity
  8
0
100
AcDbBlockBegin
  2
TMPH31PR_T
 70
     0
 10
0.0
 20
0.0
 30
0.0
  3
TMPH31PR_T
  1

  0
LWPOLYLINE
  5
7
100
AcDbEntity
  8
USP-GEO
100
AcDbPolyline
 90
        2
 70
   128
 43
0.0
 10
1.599432082124068
 20
4.873628486885802
 10
1.599432082124068
 20
4.763386183695171
  0
LWPOLYLINE
  5
B
100
AcDbEntity
  8
USP-GEO
100
AcDbPolyline
 90
        2
 70
   128
 43
0.0
 10
6.967313561647864
 20
4.763386183695171
 10
1.599432082124068
 20
4.763386183695171
  0
LWPOLYLINE
  5
C
100
AcDbEntity
  8
USP-GEO
100
AcDbPolyline
 90
        2
 70
   128
 43
0.0
 10
1.599432082124068
 20
4.708265032099856
 10
1.599432082124068
 20
4.763386183695171
  0
LWPOLYLINE
  5
D
100
AcDbEntity
  8
USP-GEO
100
AcDbPolyline
 90
        2
 70
   128
 43
0.0
 10
6.967313561647864
 20
4.763386183695171
 10
6.967313561647864
 20
4.708265032099856
  0
LWPOLYLINE
  5
E
100
AcDbEntity
  8
USP-GEO
100
AcDbPolyline
 90
        2
 70
   128
 43
0.0
 10
6.967313561647864
 20
4.873628486885802
 10
6.967313561647864
 20
4.763386183695171
  0
LWPOLYLINE
  5
F
100
AcDbEntity
  8
USP-GEO
100
AcDbPolyline
 90
        2
 70
   128
 43
0.0
 10
6.912192410052551
 20
3.880529072310203
 10
6.912192410052551
 20
3.770286769119572
  0
LWPOLYLINE
  5
10
100
AcDbEntity
  8
USP-GEO
100
AcDbPolyline
 90
        2
 70
   128
 43
0.0
 10
6.912192410052551
 20
4.689891314901419
 10
6.912192410052551
 20
3.880529072310203
  0
LWPOLYLINE
  5
11
100
AcDbEntity
  8
USP-GEO
100
AcDbPolyline
 90
        2
 70
   128
 43
0.0
 10
6.912192410052551
 20
4.708265032099856
 10
6.912192410052551
 20
4.689891314901419
  0
LWPOLYLINE
  5
12
100
AcDbEntity
  8
USP-GEO
100
AcDbPolyline
 90
        2
 70
   128
 43
0.0
 10
6.967313561647864
 20
4.708265032099856
 10
6.912192410052551
 20
4.708265032099856
  0
LWPOLYLINE
  5
13
100
AcDbEntity
  8
USP-GEO
100
AcDbPolyline
 90
        2
 70
   128
 43
0.0
 10
1.654553233719384
 20
4.708265032099856
 10
1.599432082124068
 20
4.708265032099856
  0
LWPOLYLINE
  5
14
100
AcDbEntity
  8
USP-GEO
100
AcDbPolyline
 90
        2
 70
   128
 43
0.0
 10
1.654553233719384
 20
3.880529072310203
 10
1.654553233719384
 20
4.689891314901419
  0
LWPOLYLINE
  5
15
100
AcDbEntity
  8
USP-GEO
100
AcDbPolyline
 90
        2
 70
   128
 43
0.0
 10
1.654553233719384
 20
3.770286769119572
 10
1.654553233719384
 20
3.880529072310203
  0
LWPOLYLINE
  5
16
100
AcDbEntity
  8
USP-GEO
100
AcDbPolyline
 90
        2
 70
   128
 43
0.0
 10
1.654553233719384
 20
4.689891314901419
 10
1.654553233719384
 20
4.708265032099856
  0
LWPOLYLINE
  5
17
100
AcDbEntity
  8
USP-GEO
100
AcDbPolyline
 90
        2
 70
   128
 43
0.0
 10
2.720228831228814
 20
0.0
 10
2.665107679633498
 20
0.0
  0
LWPOLYLINE
  5
18
100
AcDbEntity
  8
USP-GEO
100
AcDbPolyline
 90
        2
 70
   128
 43
0.0
 10
2.665107679633498
 20
1.378947475742807
 10
2.665107679633498
 20
0.0
  0
LWPOLYLINE
  5
19
100
AcDbEntity
  8
USP-GEO
100
AcDbPolyline
 90
        2
 70
   128
 43
0.0
 10
2.720228831228814
 20
1.360573758544369
 10
2.720228831228814
 20
0.0
  0
LWPOLYLINE
  5
1A
100
AcDbEntity
  8
USP-GEO
100
AcDbPolyline
 90
        2
 70
   128
 43
0.0
 10
5.84651681254312
 20
0.0
 10
5.920011681336873
 20
0.0
  0
LWPOLYLINE
  5
1B
100
AcDbEntity
  8
USP-GEO
100
AcDbPolyline
 90
        2
 70
   128
 43
0.0
 10
5.84651681254312
 20
0.0
 10
5.84651681254312
 20
1.360573758544369
  0
LWPOLYLINE
  5
1C
100
AcDbEntity
  8
USP-GEO
100
AcDbPolyline
 90
        2
 70
   128
 43
0.0
 10
5.920011681336873
 20
0.0
 10
5.920011681336873
 20
1.378947475742807
  0
LWPOLYLINE
  5
1D
100
AcDbEntity
  8
USP-GEO
100
AcDbPolyline
 90
        2
 70
   128
 43
0.0
 10
3.915439134987236
 20
1.360573758544369
 10
2.720228831228814
 20
1.360573758544369
  0
LWPOLYLINE
  5
1E
100
AcDbEntity
  8
USP-GEO
100
AcDbPolyline
 90
        2
 70
   128
 43
0.0
 10
5.84651681254312
 20
1.360573758544369
 10
4.669680225983135
 20
1.360573758544369
  0
LWPOLYLINE
  5
1F
100
AcDbEntity
  8
USP-GEO
100
AcDbPolyline
 90
        2
 70
   128
 43
0.0
 10
4.669680225983135
 20
1.360573758544369
 10
4.669680225983135
 20
1.378947475742807
  0
LWPOLYLINE
  5
20
100
AcDbEntity
  8
USP-GEO
100
AcDbPolyline
 90
        2
 70
   128
 43
0.0
 10
4.669680225983135
 20
1.397321192941245
 10
3.915439134987236
 20
1.397321192941245
  0
LWPOLYLINE
  5
21
100
AcDbEntity
  8
USP-GEO
100
AcDbPolyline
 90
        2
 70
   128
 43
0.0
 10
3.915439134987236
 20
1.360573758544369
 10
3.915439134987236
 20
1.378947475742807
  0
LWPOLYLINE
  5
22
100
AcDbEntity
  8
USP-GEO
100
AcDbPolyline
 90
        2
 70
   128
 43
0.0
 10
5.920011681336873
 20
1.378947475742807
 10
5.920011681336873
 20
3.770286769119572
  0
LWPOLYLINE
  5
23
100
AcDbEntity
  8
USP-GEO
100
AcDbPolyline
 90
        2
 70
   128
 43
0.0
 10
4.669680225983135
 20
1.378947475742807
 10
5.920011681336873
 20
1.378947475742807
  0
LWPOLYLINE
  5
24
100
AcDbEntity
  8
USP-GEO
100
AcDbPolyline
 90
        2
 70
   128
 43
0.0
 10
4.669680225983135
 20
1.434068627338122
 10
4.669680225983135
 20
1.378947475742807
  0
LWPOLYLINE
  5
25
100
AcDbEntity
  8
USP-GEO
100
AcDbPolyline
 90
        2
 70
   128
 43
0.0
 10
4.669680225983135
 20
1.434068627338122
 10
3.915439134987236
 20
1.434068627338122
  0
LWPOLYLINE
  5
26
100
AcDbEntity
  8
USP-GEO
100
AcDbPolyline
 90
        2
 70
   128
 43
0.0
 10
3.915439134987236
 20
1.434068627338122
 10
3.915439134987236
 20
1.378947475742807
  0
LWPOLYLINE
  5
27
100
AcDbEntity
  8
USP-GEO
100
AcDbPolyline
 90
        2
 70
   128
 43
0.0
 10
3.915439134987236
 20
1.378947475742807
 10
2.665107679633498
 20
1.378947475742807
  0
LWPOLYLINE
  5
28
100
AcDbEntity
  8
USP-GEO
100
AcDbPolyline
 90
        2
 70
   128
 43
0.0
 10
2.665107679633498
 20
3.770286769119572
 10
2.665107679633498
 20
1.378947475742807
  0
LWPOLYLINE
  5
29
100
AcDbEntity
  8
USP-GEO
100
AcDbPolyline
 90
        2
 70
   128
 43
0.0
 10
0.0
 20
4.873628486885802
 10
3.915439134987236
 20
4.873628486885802
  0
LWPOLYLINE
  5
2A
100
AcDbEntity
  8
USP-GEO
100
AcDbPolyline
 90
        2
 70
   128
 43
0.0
 10
0.0
 20
4.928749638481118
 10
3.915439134987236
 20
4.928749638481118
  0
LWPOLYLINE
  5
2B
100
AcDbEntity
  8
USP-GEO
100
AcDbPolyline
 90
        2
 70
   128
 43
0.0
 10
3.915439134987236
 20
4.928749638481118
 10
3.915439134987236
 20
4.873628486885802
  0
LWPOLYLINE
  5
2C
100
AcDbEntity
  8
USP-GEO
100
AcDbPolyline
 90
        2
 70
   128
 43
0.0
 10
3.915439134987236
 20
4.873628486885802
 10
4.669680225983135
 20
4.873628486885802
  0
LWPOLYLINE
  5
2D
100
AcDbEntity
  8
USP-GEO
100
AcDbPolyline
 90
        2
 70
   128
 43
0.0
 10
3.915439134987236
 20
4.928749638481118
 10
4.669680225983135
 20
4.928749638481118
  0
LWPOLYLINE
  5
2E
100
AcDbEntity
  8
USP-GEO
100
AcDbPolyline
 90
        2
 70
   128
 43
0.0
 10
4.669680225983135
 20
4.873628486885802
 10
8.566745643771934
 20
4.873628486885802
  0
LWPOLYLINE
  5
2F
100
AcDbEntity
  8
USP-GEO
100
AcDbPolyline
 90
        2
 70
   128
 43
0.0
 10
4.669680225983135
 20
4.928749638481118
 10
4.669680225983135
 20
4.873628486885802
  0
LWPOLYLINE
  5
30
100
AcDbEntity
  8
USP-GEO
100
AcDbPolyline
 90
        2
 70
   128
 43
0.0
 10
4.669680225983135
 20
4.928749638481118
 10
8.566745643771934
 20
4.928749638481118
  0
LWPOLYLINE
  5
31
100
AcDbEntity
  8
USP-GEO
100
AcDbPolyline
 90
        2
 70
   128
 43
0.0
 10
8.566745643771934
 20
4.928749638481118
 10
8.566745643771934
 20
4.873628486885802
  0
LWPOLYLINE
  5
32
100
AcDbEntity
  8
USP-GEO
100
AcDbPolyline
 90
        2
 70
   128
 43
0.0
 10
0.0
 20
4.928749638481118
 10
0.0
 20
4.873628486885802
  0
LWPOLYLINE
  5
33
100
AcDbEntity
  8
USP-GEO
100
AcDbPolyline
 90
        2
 70
   128
 43
0.0
 10
6.912192410052551
 20
3.770286769119572
 10
1.654553233719384
 20
3.770286769119572
  0
TEXT
  5
34
100
AcDbEntity
  8
USP-TXT
100
AcDbText
 10
2.200039488552633
 20
-1.082183478954741
 30
0.0
 40
0.25
  1
TMPH31 - TOP VIEW
 72
     1
 11
4.283372821885967
 21
-1.082183478954741
 31
0.0
100
AcDbText
  0
ENDBLK
  5
3B
100
AcDbEntity
  8
0
100
AcDbBlockEnd
  0
BLOCK
  5
A7
100
AcDbEntity
  8
0
100
AcDbBlockBegin
  2
TMPH31PR_F
 70
     0
 10
0.0
 20
0.0
 30
0.0
  3
TMPH31PR_F
  1

  0
LWPOLYLINE
  5
3E
100
AcDbEntity
  8
USP-GEO
100
AcDbPolyline
 90
        2
 70
   128
 43
0.0
 10
2.665107679633498
 20
0.9930994145755978
 10
2.665107679633498
 20
-0.0927872718521137
  0
LWPOLYLINE
  5
3F
100
AcDbEntity
  8
USP-GEO
100
AcDbPolyline
 90
        2
 70
   128
 43
0.0
 10
2.720228831228814
 20
-0.0927872718521137
 10
2.665107679633498
 20
-0.0927872718521137
  0
LWPOLYLINE
  5
40
100
AcDbEntity
  8
USP-GEO
100
AcDbPolyline
 90
        2
 70
   128
 43
0.0
 10
2.720228831228814
 20
0.9930994145755978
 10
2.665107679633498
 20
0.9930994145755978
  0
LWPOLYLINE
  5
41
100
AcDbEntity
  8
USP-GEO
100
AcDbPolyline
 90
        2
 70
   128
 43
0.0
 10
2.665107679633498
 20
3.40189373929088
 10
2.665107679633498
 20
0.9930994145755978
  0
LWPOLYLINE
  5
42
100
AcDbEntity
  8
USP-GEO
100
AcDbPolyline
 90
        2
 70
   128
 43
0.0
 10
2.720228831228814
 20
0.9930994145755978
 10
2.720228831228814
 20
-0.0927872718521137
  0
LWPOLYLINE
  5
43
100
AcDbEntity
  8
USP-GEO
100
AcDbPolyline
 90
        2
 70
   128
 43
0.0
 10
2.720228831228814
 20
3.346772587695564
 10
2.720228831228814
 20
0.9930994145755978
  0
LWPOLYLINE
  5
44
100
AcDbEntity
  8
USP-GEO
100
AcDbPolyline
 90
        2
 70
   128
 43
0.0
 10
5.84651681254312
 20
-0.0927872718521137
 10
5.920011681336873
 20
-0.0927872718521137
  0
LWPOLYLINE
  5
45
100
AcDbEntity
  8
USP-GEO
100
AcDbPolyline
 90
        2
 70
   128
 43
0.0
 10
5.84651681254312
 20
-0.0927872718521137
 10
5.84651681254312
 20
0.9930994145755978
  0
LWPOLYLINE
  5
46
100
AcDbEntity
  8
USP-GEO
100
AcDbPolyline
 90
        2
 70
   128
 43
0.0
 10
5.84651681254312
 20
0.9930994145755978
 10
5.920011681336873
 20
0.9930994145755978
  0
LWPOLYLINE
  5
47
100
AcDbEntity
  8
USP-GEO
100
AcDbPolyline
 90
        2
 70
   128
 43
0.0
 10
5.84651681254312
 20
0.9930994145755978
 10
5.84651681254312
 20
3.346772587695564
  0
LWPOLYLINE
  5
48
100
AcDbEntity
  8
USP-GEO
100
AcDbPolyline
 90
        2
 70
   128
 43
0.0
 10
5.920011681336873
 20
-0.0927872718521137
 10
5.920011681336873
 20
0.9930994145755978
  0
LWPOLYLINE
  5
49
100
AcDbEntity
  8
USP-GEO
100
AcDbPolyline
 90
        2
 70
   128
 43
0.0
 10
5.920011681336873
 20
0.9930994145755978
 10
5.920011681336873
 20
3.40189373929088
  0
LWPOLYLINE
  5
4A
100
AcDbEntity
  8
USP-GEO
100
AcDbPolyline
 90
        2
 70
   128
 43
0.0
 10
3.915439134987236
 20
3.346772587695564
 10
2.720228831228814
 20
3.346772587695564
  0
LWPOLYLINE
  5
4B
100
AcDbEntity
  8
USP-GEO
100
AcDbPolyline
 90
        2
 70
   128
 43
0.0
 10
5.84651681254312
 20
3.346772587695564
 10
4.669680225983135
 20
3.346772587695564
  0
LWPOLYLINE
  5
4C
100
AcDbEntity
  8
USP-GEO
100
AcDbPolyline
 90
        2
 70
   128
 43
0.0
 10
4.669680225983135
 20
3.346772587695564
 10
4.669680225983135
 20
3.40189373929088
  0
LWPOLYLINE
  5
4D
100
AcDbEntity
  8
USP-GEO
100
AcDbPolyline
 90
        2
 70
   128
 43
0.0
 10
4.669680225983135
 20
3.346772587695564
 10
4.669680225983135
 20
3.310025153298688
  0
LWPOLYLINE
  5
4E
100
AcDbEntity
  8
USP-GEO
100
AcDbPolyline
 90
        2
 70
   128
 43
0.0
 10
4.669680225983135
 20
3.310025153298688
 10
3.915439134987236
 20
3.310025153298688
  0
LWPOLYLINE
  5
4F
100
AcDbEntity
  8
USP-GEO
100
AcDbPolyline
 90
        2
 70
   128
 43
0.0
 10
3.915439134987236
 20
3.346772587695564
 10
3.915439134987236
 20
3.40189373929088
  0
LWPOLYLINE
  5
50
100
AcDbEntity
  8
USP-GEO
100
AcDbPolyline
 90
        2
 70
   128
 43
0.0
 10
3.915439134987236
 20
3.310025153298688
 10
3.915439134987236
 20
3.346772587695564
  0
ELLIPSE
  5
51
100
AcDbEntity
  8
USP-GEO
  6
CONTINUOUS
100
AcDbEllipse
 10
2.725603035405764
 20
1.346827352779767
 30
0.0
 11
-0.0937499999999965
 21
0.0
 31
0.0
210
0.0
220
0.0
230
1.0
 40
0.4999999999999998
 41
3.037202316937605
 42
4.765555262985721
1001
ACAD
1000
RTLwPs
1070
   128
  0
ELLIPSE
  5
53
100
AcDbEntity
  8
USP-GEO
  6
CONTINUOUS
100
AcDbEllipse
 10
5.850603035405756
 20
1.346827352779767
 30
0.0
 11
-0.09375
 21
0.0
 31
0.0
210
0.0
220
0.0
230
1.0
 40
0.4999999999999998
 41
4.752829507595664
 42
6.37842933395706
1001
ACAD
1000
RTLwPs
1070
   128
  0
LWPOLYLINE
  5
54
100
AcDbEntity
  8
USP-GEO
100
AcDbPolyline
 90
        2
 70
   128
 43
0.0
 10
2.813016103080929
 20
1.342200041345929
 10
2.813016103080929
 20
1.305452606949051
  0
LWPOLYLINE
  5
55
100
AcDbEntity
  8
USP-GEO
100
AcDbPolyline
 90
        2
 70
   128
 43
0.0
 10
5.753729540691004
 20
1.305452606949051
 10
5.753729540691004
 20
1.342200041345929
  0
LWPOLYLINE
  5
56
100
AcDbEntity
  8
USP-GEO
100
AcDbPolyline
 90
        2
 70
   128
 43
0.0
 10
4.669680225983135
 20
3.40189373929088
 10
5.920011681336873
 20
3.40189373929088
  0
LWPOLYLINE
  5
57
100
AcDbEntity
  8
USP-GEO
100
AcDbPolyline
 90
        2
 70
   128
 43
0.0
 10
4.669680225983135
 20
3.365146304894002
 10
3.915439134987236
 20
3.365146304894002
  0
LWPOLYLINE
  5
58
100
AcDbEntity
  8
USP-GEO
100
AcDbPolyline
 90
        2
 70
   128
 43
0.0
 10
3.915439134987236
 20
3.40189373929088
 10
2.665107679633498
 20
3.40189373929088
  0
LWPOLYLINE
  5
59
100
AcDbEntity
  8
USP-GEO
100
AcDbPolyline
 90
        2
 70
   128
 43
0.0
 10
0.0
 20
4.688972629041494
 10
3.915439134987236
 20
4.688972629041494
  0
LWPOLYLINE
  5
5A
100
AcDbEntity
  8
USP-GEO
100
AcDbPolyline
 90
        2
 70
   128
 43
0.0
 10
3.915439134987236
 20
4.688972629041494
 10
3.915439134987236
 20
4.633851477446178
  0
LWPOLYLINE
  5
5B
100
AcDbEntity
  8
USP-GEO
100
AcDbPolyline
 90
        2
 70
   128
 43
0.0
 10
3.915439134987236
 20
4.633851477446178
 10
4.669680225983135
 20
4.633851477446178
  0
LWPOLYLINE
  5
5C
100
AcDbEntity
  8
USP-GEO
100
AcDbPolyline
 90
        2
 70
   128
 43
0.0
 10
4.669680225983135
 20
4.688972629041494
 10
4.669680225983135
 20
4.633851477446178
  0
LWPOLYLINE
  5
5D
100
AcDbEntity
  8
USP-GEO
100
AcDbPolyline
 90
        2
 70
   128
 43
0.0
 10
4.669680225983135
 20
4.688972629041494
 10
8.566745643771934
 20
4.688972629041494
  0
LWPOLYLINE
  5
5E
100
AcDbEntity
  8
USP-GEO
100
AcDbPolyline
 90
        2
 70
   128
 43
0.0
 10
8.566745643771934
 20
4.688972629041494
 10
8.566745643771934
 20
0.0
  0
LWPOLYLINE
  5
5F
100
AcDbEntity
  8
USP-GEO
100
AcDbPolyline
 90
        2
 70
   128
 43
0.0
 10
8.566745643771934
 20
0.0
 10
8.364634754589111
 20
0.0
  0
LWPOLYLINE
  5
60
100
AcDbEntity
  8
USP-GEO
100
AcDbPolyline
 90
        2
 70
   128
 43
0.0
 10
8.364634754589111
 20
0.0
 10
7.02243471324318
 20
1.342200041345929
  0
ARC
  5
61
100
AcDbEntity
  8
USP-GEO
100
AcDbCircle
 10
6.945103035405761
 20
1.378327352779761
 30
0.0
 40
0.09375
100
AcDbArc
 50
334.9592644128667
 51
87.62449933730893
  0
LWPOLYLINE
  5
62
100
AcDbEntity
  8
USP-GEO
100
AcDbPolyline
 90
        2
 70
   128
 43
0.0
 10
6.948939844449427
 20
1.470816061734998
 10
5.920011681336873
 20
1.470816061734998
  0
LWPOLYLINE
  5
63
100
AcDbEntity
  8
USP-GEO
100
AcDbPolyline
 90
        2
 70
   128
 43
0.0
 10
2.813016103080929
 20
1.305452606949051
 10
5.753729540691004
 20
1.305452606949051
  0
LWPOLYLINE
  5
64
100
AcDbEntity
  8
USP-GEO
100
AcDbPolyline
 90
        2
 70
   128
 43
0.0
 10
2.665107679633498
 20
1.470816061734998
 10
1.636179516520945
 20
1.470816061734998
  0
ARC
  5
65
100
AcDbEntity
  8
USP-GEO
100
AcDbCircle
 10
1.632603035405757
 20
1.378327352779761
 30
0.0
 40
0.09375
100
AcDbArc
 50
87.7855110291043
 51
202.2533673262935
  0
LWPOLYLINE
  5
66
100
AcDbEntity
  8
USP-GEO
100
AcDbPolyline
 90
        2
 70
   128
 43
0.0
 10
0.2021108891828236
 20
0.0
 10
1.544310930528753
 20
1.342200041345929
  0
LWPOLYLINE
  5
67
100
AcDbEntity
  8
USP-GEO
100
AcDbPolyline
 90
        2
 70
   128
 43
0.0
 10
0.0
 20
0.0
 10
0.2021108891828236
 20
0.0
  0
LWPOLYLINE
  5
68
100
AcDbEntity
  8
USP-GEO
100
AcDbPolyline
 90
        2
 70
   128
 43
0.0
 10
0.0
 20
0.0
 10
0.0
 20
4.688972629041494
  0
CIRCLE
  5
69
100
AcDbEntity
  8
USP-GEO
100
AcDbCircle
 10
0.3826030354057579
 20
0.7533273527797615
 30
0.0
 40
0.082
  0
CIRCLE
  5
6A
100
AcDbEntity
  8
USP-GEO
100
AcDbCircle
 10
1.132603035405745
 20
2.065827352779761
 30
0.0
 40
0.082
  0
LWPOLYLINE
  5
6B
100
AcDbEntity
  8
USP-GEO
100
AcDbPolyline
 90
        2
 70
   128
 43
0.0
 10
2.05877501208503
 20
1.691300668116259
 10
2.05877501208503
 20
2.372046890318404
  0
ARC
  5
6C
100
AcDbEntity
  8
USP-GEO
100
AcDbCircle
 10
1.976353035405757
 20
1.690827352779761
 30
0.0
 40
0.09375
100
AcDbArc
 50
179.7323326102114
 51
0.3290223573267732
  0
LWPOLYLINE
  5
6D
100
AcDbEntity
  8
USP-GEO
100
AcDbPolyline
 90
        2
 70
   128
 43
0.0
 10
1.875037840100645
 20
2.372046890318404
 10
1.875037840100645
 20
1.691300668116259
  0
LWPOLYLINE
  5
6E
100
AcDbEntity
  8
USP-GEO
100
AcDbPolyline
 90
        2
 70
   128
 43
0.0
 10
0.4960903643578387
 20
1.287078889750613
 10
1.06567559750943
 20
1.287078889750613
  0
ARC
  5
6F
100
AcDbEntity
  8
USP-GEO
100
AcDbCircle
 10
0.5076030354057597
 20
1.378327352779761
 30
0.0
 40
0.09375
100
AcDbArc
 50
97.09548172266593
 51
262.8090796310891
  0
LWPOLYLINE
  5
70
100
AcDbEntity
  8
USP-GEO
100
AcDbPolyline
 90
        2
 70
   128
 43
0.0
 10
1.06567559750943
 20
1.470816061734998
 10
0.4960903643578387
 20
1.470816061734998
  0
ARC
  5
71
100
AcDbEntity
  8
USP-GEO
100
AcDbCircle
 10
1.070103035405759
 20
1.378327352779761
 30
0.0
 40
0.09375
100
AcDbArc
 50
267.2221481111429
 51
92.74065890488571
  0
CIRCLE
  5
72
100
AcDbEntity
  8
USP-GEO
100
AcDbCircle
 10
0.5076030354057579
 20
3.815827352779763
 30
0.0
 40
0.082
  0
CIRCLE
  5
73
100
AcDbEntity
  8
USP-GEO
100
AcDbCircle
 10
1.132603035405757
 20
4.315827352779763
 30
0.0
 40
0.082
  0
CIRCLE
  5
74
100
AcDbEntity
  8
USP-GEO
100
AcDbCircle
 10
8.195103035405761
 20
0.7533273527797615
 30
0.0
 40
0.082
  0
LWPOLYLINE
  5
75
100
AcDbEntity
  8
USP-GEO
100
AcDbPolyline
 90
        2
 70
   128
 43
0.0
 10
7.501070046262503
 20
1.287078889750613
 10
8.070655279414095
 20
1.287078889750613
  0
ARC
  5
76
100
AcDbEntity
  8
USP-GEO
100
AcDbCircle
 10
7.507603035405761
 20
1.378327352779761
 30
0.0
 40
0.09375
100
AcDbArc
 50
94.04040706700618
 51
265.9048614527191
  0
LWPOLYLINE
  5
77
100
AcDbEntity
  8
USP-GEO
100
AcDbPolyline
 90
        2
 70
   128
 43
0.0
 10
8.070655279414095
 20
1.470816061734998
 10
7.501070046262503
 20
1.470816061734998
  0
ARC
  5
78
100
AcDbEntity
  8
USP-GEO
100
AcDbCircle
 10
8.070103035405757
 20
1.378327352779761
 30
0.0
 40
0.09375
100
AcDbArc
 50
270.3467550420108
 51
89.65789472813078
  0
CIRCLE
  5
79
100
AcDbEntity
  8
USP-GEO
100
AcDbCircle
 10
7.445103035405757
 20
2.065827352779761
 30
0.0
 40
0.082
  0
CIRCLE
  5
7A
100
AcDbEntity
  8
USP-GEO
100
AcDbCircle
 10
8.070103035405757
 20
2.565827352779763
 30
0.0
 40
0.082
  0
CIRCLE
  5
7B
100
AcDbEntity
  8
USP-GEO
100
AcDbCircle
 10
7.445103035405759
 20
4.315827352779763
 30
0.0
 40
0.082
  0
LWPOLYLINE
  5
7C
100
AcDbEntity
  8
USP-GEO
100
AcDbPolyline
 90
        2
 70
   128
 43
0.0
 10
4.007307720979429
 20
4.431740588263355
 10
4.007307720979429
 20
4.156134830286779
  0
ARC
  5
7D
100
AcDbEntity
  8
USP-GEO
100
AcDbCircle
 10
4.100103035405757
 20
4.440827352779763
 30
0.0
 40
0.09375
100
AcDbArc
 50
354.2940361844736
 51
185.5927249910266
  0
LWPOLYLINE
  5
7E
100
AcDbEntity
  8
USP-GEO
100
AcDbPolyline
 90
        2
 70
   128
 43
0.0
 10
4.191044892963814
 20
4.156134830286779
 10
4.191044892963814
 20
4.431740588263355
  0
LWPOLYLINE
  5
7F
100
AcDbEntity
  8
USP-GEO
100
AcDbPolyline
 90
        2
 70
   128
 43
0.0
 10
6.507970631686903
 20
4.431740588263355
 10
6.507970631686903
 20
4.156134830286779
  0
ARC
  5
80
100
AcDbEntity
  8
USP-GEO
100
AcDbCircle
 10
6.601353035405759
 20
4.440827352779763
 30
0.0
 40
0.09375
100
AcDbArc
 50
354.2572081232417
 51
185.5577847172335
  0
LWPOLYLINE
  5
81
100
AcDbEntity
  8
USP-GEO
100
AcDbPolyline
 90
        2
 70
   128
 43
0.0
 10
6.691707803671288
 20
4.156134830286779
 10
6.691707803671288
 20
4.431740588263355
  0
LWPOLYLINE
  5
82
100
AcDbEntity
  8
USP-GEO
100
AcDbPolyline
 90
        2
 70
   128
 43
0.0
 10
1.599432082124068
 20
3.750994366061211
 10
1.599432082124068
 20
4.156134830286779
  0
LWPOLYLINE
  5
83
100
AcDbEntity
  8
USP-GEO
100
AcDbPolyline
 90
        2
 70
   128
 43
0.0
 10
6.967313561647864
 20
4.156134830286779
 10
1.599432082124068
 20
4.156134830286779
  0
LWPOLYLINE
  5
84
100
AcDbEntity
  8
USP-GEO
100
AcDbPolyline
 90
        2
 70
   128
 43
0.0
 10
1.599432082124068
 20
3.64075206287058
 10
1.599432082124068
 20
3.750994366061211
  0
LWPOLYLINE
  5
85
100
AcDbEntity
  8
USP-GEO
100
AcDbPolyline
 90
        2
 70
   128
 43
0.0
 10
2.665107679633498
 20
2.372046890318404
 10
1.599432082124068
 20
2.372046890318404
  0
LWPOLYLINE
  5
86
100
AcDbEntity
  8
USP-GEO
100
AcDbPolyline
 90
        2
 70
   128
 43
0.0
 10
6.967313561647864
 20
2.372046890318404
 10
5.920011681336873
 20
2.372046890318404
  0
CIRCLE
  5
87
100
AcDbEntity
  8
USP-GEO
100
AcDbCircle
 10
1.976103035405761
 20
2.629091665713488
 30
0.0
 40
0.09
  0
CIRCLE
  5
88
100
AcDbEntity
  8
USP-GEO
100
AcDbCircle
 10
4.100103035405762
 20
3.914091665713492
 30
0.0
 40
0.0935
  0
CIRCLE
  5
89
100
AcDbEntity
  8
USP-GEO
100
AcDbCircle
 10
6.60110303540576
 20
3.914091665713492
 30
0.0
 40
0.09
  0
LWPOLYLINE
  5
8A
100
AcDbEntity
  8
USP-GEO
100
AcDbPolyline
 90
        2
 70
   128
 43
0.0
 10
6.967313561647864
 20
3.750994366061211
 10
6.967313561647864
 20
3.64075206287058
  0
LWPOLYLINE
  5
8B
100
AcDbEntity
  8
USP-GEO
100
AcDbPolyline
 90
        2
 70
   128
 43
0.0
 10
6.967313561647864
 20
4.156134830286779
 10
6.967313561647864
 20
3.750994366061211
  0
LWPOLYLINE
  5
8C
100
AcDbEntity
  8
USP-GEO
100
AcDbPolyline
 90
        2
 70
   128
 43
0.0
 10
6.967313561647864
 20
2.79464238588249
 10
6.967313561647864
 20
2.372046890318404
  0
LWPOLYLINE
  5
8D
100
AcDbEntity
  8
USP-GEO
100
AcDbPolyline
 90
        2
 70
   128
 43
0.0
 10
6.967313561647864
 20
2.886510971874681
 10
6.967313561647864
 20
2.79464238588249
  0
LWPOLYLINE
  5
8E
100
AcDbEntity
  8
USP-GEO
100
AcDbPolyline
 90
        2
 70
   128
 43
0.0
 10
1.599432082124068
 20
2.79464238588249
 10
1.599432082124068
 20
2.886510971874681
  0
LWPOLYLINE
  5
8F
100
AcDbEntity
  8
USP-GEO
100
AcDbPolyline
 90
        2
 70
   128
 43
0.0
 10
1.599432082124068
 20
2.79464238588249
 10
1.599432082124068
 20
2.372046890318404
  0
LWPOLYLINE
  5
90
100
AcDbEntity
  8
USP-GEO
100
AcDbPolyline
 90
        2
 70
   128
 43
0.0
 10
6.912192410052551
 20
2.904884689073119
 10
6.912192410052551
 20
2.886510971874681
  0
LWPOLYLINE
  5
91
100
AcDbEntity
  8
USP-GEO
100
AcDbPolyline
 90
        2
 70
   128
 43
0.0
 10
6.912192410052551
 20
3.107914264115864
 10
6.912192410052551
 20
2.904884689073119
  0
LWPOLYLINE
  5
92
100
AcDbEntity
  8
USP-GEO
100
AcDbPolyline
 90
        2
 70
   128
 43
0.0
 10
6.912192410052551
 20
3.420267456489318
 10
6.912192410052551
 20
3.107914264115864
  0
LWPOLYLINE
  5
93
100
AcDbEntity
  8
USP-GEO
100
AcDbPolyline
 90
        2
 70
   128
 43
0.0
 10
6.912192410052551
 20
3.64075206287058
 10
6.912192410052551
 20
3.420267456489318
  0
LWPOLYLINE
  5
94
100
AcDbEntity
  8
USP-GEO
100
AcDbPolyline
 90
        2
 70
   128
 43
0.0
 10
6.912192410052551
 20
3.64075206287058
 10
6.913111095912471
 20
3.64075206287058
  0
LWPOLYLINE
  5
95
100
AcDbEntity
  8
USP-GEO
100
AcDbPolyline
 90
        2
 70
   128
 43
0.0
 10
6.967313561647864
 20
3.530509759679949
 10
6.967313561647864
 20
3.64075206287058
  0
LWPOLYLINE
  5
96
100
AcDbEntity
  8
USP-GEO
100
AcDbPolyline
 90
        2
 70
   128
 43
0.0
 10
6.912192410052551
 20
3.530509759679949
 10
6.967313561647864
 20
3.530509759679949
  0
LWPOLYLINE
  5
97
100
AcDbEntity
  8
USP-GEO
100
AcDbPolyline
 90
        2
 70
   128
 43
0.0
 10
6.967313561647864
 20
3.64075206287058
 10
6.912192410052551
 20
3.64075206287058
  0
LWPOLYLINE
  5
98
100
AcDbEntity
  8
USP-GEO
100
AcDbPolyline
 90
        2
 70
   128
 43
0.0
 10
6.967313561647864
 20
2.997671960925234
 10
6.912192410052551
 20
2.997671960925234
  0
LWPOLYLINE
  5
99
100
AcDbEntity
  8
USP-GEO
100
AcDbPolyline
 90
        2
 70
   128
 43
0.0
 10
6.967313561647864
 20
2.886510971874681
 10
6.967313561647864
 20
2.997671960925234
  0
LWPOLYLINE
  5
9A
100
AcDbEntity
  8
USP-GEO
100
AcDbPolyline
 90
        2
 70
   128
 43
0.0
 10
6.912192410052551
 20
2.886510971874681
 10
6.967313561647864
 20
2.886510971874681
  0
LWPOLYLINE
  5
9B
100
AcDbEntity
  8
USP-GEO
100
AcDbPolyline
 90
        2
 70
   128
 43
0.0
 10
1.599432082124068
 20
3.530509759679949
 10
1.654553233719384
 20
3.530509759679949
  0
LWPOLYLINE
  5
9C
100
AcDbEntity
  8
USP-GEO
100
AcDbPolyline
 90
        2
 70
   128
 43
0.0
 10
1.599432082124068
 20
3.64075206287058
 10
1.599432082124068
 20
3.530509759679949
  0
LWPOLYLINE
  5
9D
100
AcDbEntity
  8
USP-GEO
100
AcDbPolyline
 90
        2
 70
   128
 43
0.0
 10
1.654553233719384
 20
3.64075206287058
 10
1.599432082124068
 20
3.64075206287058
  0
LWPOLYLINE
  5
9E
100
AcDbEntity
  8
USP-GEO
100
AcDbPolyline
 90
        2
 70
   128
 43
0.0
 10
1.599432082124068
 20
2.997671960925234
 10
1.599432082124068
 20
2.886510971874681
  0
LWPOLYLINE
  5
9F
100
AcDbEntity
  8
USP-GEO
100
AcDbPolyline
 90
        2
 70
   128
 43
0.0
 10
1.654553233719384
 20
2.997671960925234
 10
1.599432082124068
 20
2.997671960925234
  0
LWPOLYLINE
  5
A0
100
AcDbEntity
  8
USP-GEO
100
AcDbPolyline
 90
        2
 70
   128
 43
0.0
 10
1.599432082124068
 20
2.886510971874681
 10
1.654553233719384
 20
2.886510971874681
  0
LWPOLYLINE
  5
A1
100
AcDbEntity
  8
USP-GEO
100
AcDbPolyline
 90
        2
 70
   128
 43
0.0
 10
1.654553233719384
 20
3.420267456489318
 10
1.654553233719384
 20
3.64075206287058
  0
LWPOLYLINE
  5
A2
100
AcDbEntity
  8
USP-GEO
100
AcDbPolyline
 90
        2
 70
   128
 43
0.0
 10
1.654553233719384
 20
3.107914264115864
 10
1.654553233719384
 20
3.420267456489318
  0
LWPOLYLINE
  5
A3
100
AcDbEntity
  8
USP-GEO
100
AcDbPolyline
 90
        2
 70
   128
 43
0.0
 10
1.654553233719384
 20
2.904884689073119
 10
1.654553233719384
 20
3.107914264115864
  0
LWPOLYLINE
  5
A4
100
AcDbEntity
  8
USP-GEO
100
AcDbPolyline
 90
        2
 70
   128
 43
0.0
 10
1.654553233719384
 20
2.886510971874681
 10
1.654553233719384
 20
2.904884689073119
  0
LWPOLYLINE
  5
A5
100
AcDbEntity
  8
USP-GEO
100
AcDbPolyline
 90
        2
 70
   128
 43
0.0
 10
1.654553233719384
 20
3.64075206287058
 10
1.655471919579305
 20
3.64075206287058
  0
TEXT
  5
A6
100
AcDbEntity
  8
USP-TXT
100
AcDbText
 10
1.950039488552634
 20
-1.012933615967169
 30
0.0
 40
0.25
  1
TMPH31 - FRONT VIEW
 72
     1
 11
4.283372821885967
 21
-1.012933615967169
 31
0.0
100
AcDbText
  0
ENDBLK
  5
A8
100
AcDbEntity
  8
0
100
AcDbBlockEnd
  0
BLOCK
  5
D5
100
AcDbEntity
  8
0
100
AcDbBlockBegin
  2
TMPH31PR_S
 70
     0
 10
0.0
 20
0.0
 30
0.0
  3
TMPH31PR_S
  1

  0
LWPOLYLINE
  5
AB
100
AcDbEntity
  8
USP-GEO
100
AcDbPolyline
 90
        2
 70
   128
 43
0.0
 10
4.743175094776887
 20
1.397321192941243
 10
1.360573758544365
 20
3.346772587695564
  0
ARC
  5
AC
100
AcDbEntity
  8
USP-GEO
100
AcDbCircle
 10
1.601916394501184
 20
0.505229831712823
 30
0.0
 40
0.082
100
AcDbArc
 50
173.0704526412246
 51
244.6033501034041
  0
ARC
  5
AD
100
AcDbEntity
  8
USP-GEO
100
AcDbCircle
 10
1.601916394501184
 20
0.505229831712823
 30
0.0
 40
0.082
100
AcDbArc
 50
244.6033501034041
 51
309.3214209494006
  0
ARC
  5
AE
100
AcDbEntity
  8
USP-GEO
100
AcDbCircle
 10
0.9211473416628486
 20
0.8261032439762967
 30
0.0
 40
0.082
100
AcDbArc
 50
348.8267633151762
 51
135.88269811227
  0
CIRCLE
  5
AF
100
AcDbEntity
  8
USP-GEO
100
AcDbCircle
 10
1.569916394501174
 20
0.4498042058706187
 30
0.0
 40
0.082
  0
CIRCLE
  5
B0
100
AcDbEntity
  8
USP-GEO
100
AcDbCircle
 10
2.534179096393398
 20
1.119956197391585
 30
0.0
 40
0.082
  0
CIRCLE
  5
B1
100
AcDbEntity
  8
USP-GEO
100
AcDbCircle
 10
0.951647341662845
 20
0.8789307936071519
 30
0.0
 40
0.082
  0
CIRCLE
  5
B2
100
AcDbEntity
  8
USP-GEO
100
AcDbCircle
 10
1.215942260905958
 20
1.736703021918531
 30
0.0
 40
0.082
  0
LWPOLYLINE
  5
B3
100
AcDbEntity
  8
USP-GEO
100
AcDbPolyline
 90
        2
 70
   128
 43
0.0
 10
1.875037840100645
 20
-0.0927872718521137
 10
4.264539761757564
 20
0.5512115159531526
  0
LWPOLYLINE
  5
B4
100
AcDbEntity
  8
USP-GEO
100
AcDbPolyline
 90
        2
 70
   128
 43
0.0
 10
1.875037840100645
 20
-0.0927872718521137
 10
0.0
 20
0.9930994145755978
  0
LWPOLYLINE
  5
B5
100
AcDbEntity
  8
USP-GEO
100
AcDbPolyline
 90
        2
 70
   128
 43
0.0
 10
0.0
 20
0.9930994145755978
 10
1.397321192941245
 20
3.40189373929088
  0
LWPOLYLINE
  5
B6
100
AcDbEntity
  8
USP-GEO
100
AcDbPolyline
 90
        2
 70
   128
 43
0.0
 10
4.264539761757564
 20
0.5512115159531526
 10
4.779922529173763
 20
1.452442344536558
  0
LWPOLYLINE
  5
B7
100
AcDbEntity
  8
USP-GEO
100
AcDbPolyline
 90
        2
 70
   128
 43
0.0
 10
4.835043680769079
 20
1.342200041345929
 10
4.743175094776887
 20
1.397321192941243
  0
LWPOLYLINE
  5
B8
100
AcDbEntity
  8
USP-GEO
100
AcDbPolyline
 90
        2
 70
   128
 43
0.0
 10
4.890164832364394
 20
1.305452606949051
 10
4.835043680769079
 20
1.342200041345929
  0
LWPOLYLINE
  5
B9
100
AcDbEntity
  8
USP-GEO
100
AcDbPolyline
 90
        2
 70
   128
 43
0.0
 10
4.890164832364394
 20
1.378947475742805
 10
4.871791115165958
 20
1.397321192941243
  0
LWPOLYLINE
  5
BA
100
AcDbEntity
  8
USP-GEO
100
AcDbPolyline
 90
        2
 70
   128
 43
0.0
 10
4.779922529173763
 20
1.452442344536558
 10
4.871791115165958
 20
1.397321192941243
  0
LWPOLYLINE
  5
BB
100
AcDbEntity
  8
USP-GEO
100
AcDbPolyline
 90
        2
 70
   128
 43
0.0
 10
1.397321192941245
 20
3.40189373929088
 10
4.779922529173763
 20
1.452442344536558
  0
LWPOLYLINE
  5
BC
100
AcDbEntity
  8
USP-GEO
100
AcDbPolyline
 90
        2
 70
   128
 43
0.0
 10
4.890164832364394
 20
4.688972629041494
 10
4.890164832364394
 20
0.0
  0
LWPOLYLINE
  5
BD
100
AcDbEntity
  8
USP-GEO
100
AcDbPolyline
 90
        2
 70
   128
 43
0.0
 10
4.94528598395971
 20
4.688972629041494
 10
4.890164832364394
 20
4.688972629041494
  0
LWPOLYLINE
  5
BE
100
AcDbEntity
  8
USP-GEO
100
AcDbPolyline
 90
        2
 70
   128
 43
0.0
 10
4.94528598395971
 20
4.688972629041494
 10
4.94528598395971
 20
0.0
  0
LWPOLYLINE
  5
BF
100
AcDbEntity
  8
USP-GEO
100
AcDbPolyline
 90
        2
 70
   128
 43
0.0
 10
4.94528598395971
 20
0.0
 10
4.890164832364394
 20
0.0
  0
ARC
  5
C0
100
AcDbEntity
  8
USP-GEO
100
AcDbCircle
 10
4.668386328927642
 20
3.747269911210409
 30
0.0
 40
0.1084
100
AcDbArc
 50
297.9070370237355
 51
1.912529573651311
  0
LWPOLYLINE
  5
C1
100
AcDbEntity
  8
USP-GEO
100
AcDbPolyline
 90
        2
 70
   128
 43
0.0
 10
4.779922529173763
 20
4.156134830286779
 10
4.779922529173763
 20
3.750994366061211
  0
LWPOLYLINE
  5
C2
100
AcDbEntity
  8
USP-GEO
100
AcDbPolyline
 90
        2
 70
   128
 43
0.0
 10
4.890164832364394
 20
4.156134830286779
 10
4.779922529173763
 20
4.156134830286779
  0
ARC
  5
C3
100
AcDbEntity
  8
USP-GEO
100
AcDbCircle
 10
4.668386328927642
 20
3.747269911210409
 30
0.0
 40
0.2164
100
AcDbArc
 50
284.5884292877075
 51
0.9621107686980892
  0
LWPOLYLINE
  5
C4
100
AcDbEntity
  8
USP-GEO
100
AcDbPolyline
 90
        2
 70
   128
 43
0.0
 10
4.724801377578451
 20
3.530509759679949
 10
4.72572006343837
 20
3.530509759679949
  0
LWPOLYLINE
  5
C5
100
AcDbEntity
  8
USP-GEO
100
AcDbPolyline
 90
        2
 70
   128
 43
0.0
 10
4.724801377578451
 20
2.997671960925234
 10
4.72572006343837
 20
2.997671960925234
  0
ARC
  5
C6
100
AcDbEntity
  8
USP-GEO
100
AcDbCircle
 10
4.668386328927635
 20
2.795913420216571
 30
0.0
 40
0.2164
100
AcDbArc
 50
359.671635868566
 51
74.37812272681994
  0
LWPOLYLINE
  5
C7
100
AcDbEntity
  8
USP-GEO
100
AcDbPolyline
 90
        2
 70
   128
 43
0.0
 10
4.779922529173763
 20
2.372046890318404
 10
4.890164832364394
 20
2.372046890318404
  0
LWPOLYLINE
  5
C8
100
AcDbEntity
  8
USP-GEO
100
AcDbPolyline
 90
        2
 70
   128
 43
0.0
 10
4.779922529173763
 20
2.79464238588249
 10
4.779922529173763
 20
2.372046890318404
  0
ARC
  5
C9
100
AcDbEntity
  8
USP-GEO
100
AcDbCircle
 10
4.668386328927635
 20
2.795913420216571
 30
0.0
 40
0.1084
100
AcDbArc
 50
359.3471021010001
 51
58.08949943319375
  0
LWPOLYLINE
  5
CA
100
AcDbEntity
  8
USP-GEO
100
AcDbPolyline
 90
        2
 70
   128
 43
0.0
 10
3.933812852185674
 20
3.328398870497126
 10
4.724801377578451
 20
3.530509759679949
  0
ARC
  5
CB
100
AcDbEntity
  8
USP-GEO
100
AcDbCircle
 10
3.938649063053201
 20
3.271591665713494
 30
0.0
 40
0.0542
100
AcDbArc
 50
94.86607167131152
 51
264.8284632936336
  0
LWPOLYLINE
  5
CC
100
AcDbEntity
  8
USP-GEO
100
AcDbPolyline
 90
        2
 70
   128
 43
0.0
 10
4.724801377578451
 20
2.997671960925234
 10
3.933812852185674
 20
3.218156567306495
  0
ARC
  5
CD
100
AcDbEntity
  8
USP-GEO
100
AcDbCircle
 10
4.668386328927642
 20
2.795913420216571
 30
0.0
 40
0.1084
100
AcDbArc
 50
58.08949943319698
 51
70.75615775779528
  0
LWPOLYLINE
  5
CE
100
AcDbEntity
  8
USP-GEO
100
AcDbPolyline
 90
        2
 70
   128
 43
0.0
 10
3.897065417788798
 20
3.107914264115864
 10
4.706427660380011
 20
2.904884689073119
  0
ARC
  5
CF
100
AcDbEntity
  8
USP-GEO
100
AcDbCircle
 10
3.938649063053201
 20
3.271591665713494
 30
0.0
 40
0.1622
100
AcDbArc
 50
105.6259581963726
 51
255.7451066614183
  0
LWPOLYLINE
  5
D0
100
AcDbEntity
  8
USP-GEO
100
AcDbPolyline
 90
        2
 70
   128
 43
0.0
 10
4.706427660380011
 20
3.64075206287058
 10
3.897065417788798
 20
3.420267456489318
  0
ARC
  5
D1
100
AcDbEntity
  8
USP-GEO
100
AcDbCircle
 10
4.668386328927635
 20
3.747269911210409
 30
0.0
 40
0.1084
100
AcDbArc
 50
289.6534628155772
 51
297.9070370237383
  0
LWPOLYLINE
  5
D2
100
AcDbEntity
  8
USP-GEO
100
AcDbPolyline
 90
        2
 70
   128
 43
0.0
 10
4.724801377578451
 20
3.530509759679949
 10
4.724801377578451
 20
3.64075206287058
  0
LWPOLYLINE
  5
D3
100
AcDbEntity
  8
USP-GEO
100
AcDbPolyline
 90
        2
 70
   128
 43
0.0
 10
4.724801377578451
 20
2.886510971874681
 10
4.724801377578451
 20
2.997671960925234
  0
TEXT
  5
D4
100
AcDbEntity
  8
USP-TXT
100
AcDbText
 10
0.3059763253131877
 20
-1.012933615967169
 30
0.0
 40
0.25
  1
TMPH31 - SIDE VIEW
 72
     1
 11
2.472642991979855
 21
-1.012933615967169
 31
0.0
100
AcDbText
  0
ENDBLK
  5
D6
100
AcDbEntity
  8
0
100
AcDbBlockEnd
  0
ENDSEC
  0
SECTION
  2
ENTITIES
  0
INSERT
  5
3
100
AcDbEntity
  8
USP
100
AcDbBlockReference
  2
TMPH31PR_T
 10
-0.0073292270891159
 20
13.50125830613364
 30
0.0
  0
INSERT
  5
3C
100
AcDbEntity
  8
USP
100
AcDbBlockReference
  2
TMPH31PR_F
 10
-0.0073292270891159
 20
2.393427573817675
 30
0.0
  0
INSERT
  5
A9
100
AcDbEntity
  8
USP
100
AcDbBlockReference
  2
TMPH31PR_S
 10
12.14504732795808
 20
2.393427573817675
 30
0.0
  0
ENDSEC
  0
SECTION
  2
OBJECTS
  0
DICTIONARY
  5
EE
100
AcDbDictionary
  3
ACAD_GROUP
350
EC
  3
ACAD_MLINESTYLE
350
ED
  0
DICTIONARY
  5
9
100
AcDbDictionary
280
     1
  3
ACAD_XREC_ROUNDTRIP
360
A
  0
DICTIONARY
  5
36
100
AcDbDictionary
280
     1
  3
ACAD_XREC_ROUNDTRIP
360
37
  0
DICTIONARY
  5
F1
100
AcDbDictionary
280
     1
  3
ACAD_XREC_ROUNDTRIP
360
F2
  0
DICTIONARY
  5
D7
100
AcDbDictionary
280
     1
  3
ACAD_LAYOUTSELFREF
360
D8
  0
DICTIONARY
  5
DC
100
AcDbDictionary
280
     1
  3
ACAD_LAYOUTSELFREF
360
DD
  0
DICTIONARY
  5
EC
102
{ACAD_REACTORS
330
EE
102
}
100
AcDbDictionary
  0
DICTIONARY
  5
ED
102
{ACAD_REACTORS
330
EE
102
}
100
AcDbDictionary
  3
STANDARD
350
EF
  0
XRECORD
  5
A
102
{ACAD_REACTORS
330
9
102
}
100
AcDbXrecord
102
EXTNAMES
  1
USP-GEO
  2
USP-Geo
  0
XRECORD
  5
37
102
{ACAD_REACTORS
330
36
102
}
100
AcDbXrecord
102
EXTNAMES
  1
USP-TXT
  2
USP-Txt
  0
XRECORD
  5
F2
102
{ACAD_REACTORS
330
F1
102
}
100
AcDbXrecord
102
ACADR14ROUNDTRIP
1000
DSTYLE
1002
{
1070
   276
 70
     2
1070
   277
 70
     5
1002
}
  0
XRECORD
  5
D8
102
{ACAD_REACTORS
330
D7
102
}
100
AcDbXrecord
340
2
  0
XRECORD
  5
DD
102
{ACAD_REACTORS
330
DC
102
}
100
AcDbXrecord
340
0
  0
MLINESTYLE
  5
EF
102
{ACAD_REACTORS
330
ED
102
}
100
AcDbMlineStyle
  2
STANDARD
 70
     0
  3

 62
     0
 51
90.0
 52
90.0
 71
     2
 49
0.5
 62
   256
  6
BYLAYER
 49
-0.5
 62
   256
  6
BYLAYER
  0
ENDSEC
  0
EOF
