  0
SECTION
  2
HEADER
  9
$ACADVER
  1
AC1014
  9
$ACADMAINTVER
 70
     8
  9
$DWGCODEPAGE
  3
ANSI_1252
  9
$INSBASE
 10
0.0
 20
0.0
 30
0.0
  9
$EXTMIN
 10
0.0067640373007407
 20
0.6275443852510545
 30
0.0
  9
$EXTMAX
 10
17.09221272636073
 20
18.12329868436206
 30
0.0
  9
$LIMMIN
 10
0.0
 20
0.0
  9
$LIMMAX
 10
12.0
 20
9.0
  9
$ORTHOMODE
 70
     0
  9
$REGENMODE
 70
     1
  9
$FILLMODE
 70
     1
  9
$QTEXTMODE
 70
     0
  9
$MIRRTEXT
 70
     0
  9
$DRAGMODE
 70
     2
  9
$LTSCALE
 40
1.5
  9
$OSMODE
 70
     0
  9
$ATTMODE
 70
     1
  9
$TEXTSIZE
 40
0.25
  9
$TRACEWID
 40
0.05
  9
$TEXTSTYLE
  7
STANDARD
  9
$CLAYER
  8
USP
  9
$CELTYPE
  6
BYLAYER
  9
$CECOLOR
 62
   256
  9
$CELTSCALE
 40
1.0
  9
$DELOBJ
 70
     1
  9
$DISPSILH
 70
     1
  9
$DIMSCALE
 40
5.0
  9
$DIMASZ
 40
0.125
  9
$DIMEXO
 40
0.0625
  9
$DIMDLI
 40
0.38
  9
$DIMRND
 40
0.0
  9
$DIMDLE
 40
0.0
  9
$DIMEXE
 40
0.09375
  9
$DIMTP
 40
0.0
  9
$DIMTM
 40
0.0
  9
$DIMTXT
 40
0.109375
  9
$DIMCEN
 40
0.0
  9
$DIMTSZ
 40
0.0
  9
$DIMTOL
 70
     0
  9
$DIMLIM
 70
     0
  9
$DIMTIH
 70
     1
  9
$DIMTOH
 70
     1
  9
$DIMSE1
 70
     0
  9
$DIMSE2
 70
     0
  9
$DIMTAD
 70
     0
  9
$DIMZIN
 70
     8
  9
$DIMBLK
  1

  9
$DIMASO
 70
     1
  9
$DIMSHO
 70
     1
  9
$DIMPOST
  1

  9
$DIMAPOST
  1

  9
$DIMALT
 70
     0
  9
$DIMALTD
 70
     2
  9
$DIMALTF
 40
25.4
  9
$DIMLFAC
 40
1.0
  9
$DIMTOFL
 70
     0
  9
$DIMTVP
 40
0.0
  9
$DIMTIX
 70
     0
  9
$DIMSOXD
 70
     0
  9
$DIMSAH
 70
     0
  9
$DIMBLK1
  1

  9
$DIMBLK2
  1

  9
$DIMSTYLE
  2
STANDARD
  9
$DIMCLRD
 70
   256
  9
$DIMCLRE
 70
   256
  9
$DIMCLRT
 70
   256
  9
$DIMTFAC
 40
1.0
  9
$DIMGAP
 40
0.09
  9
$DIMJUST
 70
     0
  9
$DIMSD1
 70
     0
  9
$DIMSD2
 70
     0
  9
$DIMTOLJ
 70
     1
  9
$DIMTZIN
 70
     0
  9
$DIMALTZ
 70
     0
  9
$DIMALTTZ
 70
     0
  9
$DIMFIT
 70
     3
  9
$DIMUPT
 70
     1
  9
$DIMUNIT
 70
     7
  9
$DIMDEC
 70
     4
  9
$DIMTDEC
 70
     4
  9
$DIMALTU
 70
     2
  9
$DIMALTTD
 70
     2
  9
$DIMTXSTY
  7
STANDARD
  9
$DIMAUNIT
 70
     0
  9
$LUNITS
 70
     5
  9
$LUPREC
 70
     6
  9
$SKETCHINC
 40
0.1
  9
$FILLETRAD
 40
0.0
  9
$AUNITS
 70
     0
  9
$AUPREC
 70
     1
  9
$MENU
  1
CUSTOM
  9
$ELEVATION
 40
0.0
  9
$PELEVATION
 40
0.0
  9
$THICKNESS
 40
0.0
  9
$LIMCHECK
 70
     0
  9
$BLIPMODE
 70
     0
  9
$CHAMFERA
 40
0.0
  9
$CHAMFERB
 40
0.0
  9
$CHAMFERC
 40
0.0
  9
$CHAMFERD
 40
0.0
  9
$SKPOLY
 70
     0
  9
$TDCREATE
 40
2451263.621564698
  9
$TDUPDATE
 40
2453026.043491203
  9
$TDINDWG
 40
1.0766263542
  9
$TDUSRTIMER
 40
1.0766263542
  9
$USRTIMER
 70
     1
  9
$ANGBASE
 50
0.0
  9
$ANGDIR
 70
     0
  9
$PDMODE
 70
     0
  9
$PDSIZE
 40
0.0
  9
$PLINEWID
 40
0.0
  9
$COORDS
 70
     2
  9
$SPLFRAME
 70
     0
  9
$SPLINETYPE
 70
     6
  9
$SPLINESEGS
 70
     8
  9
$ATTDIA
 70
     0
  9
$ATTREQ
 70
     0
  9
$HANDLING
 70
     1
  9
$HANDSEED
  5
F8
  9
$SURFTAB1
 70
     6
  9
$SURFTAB2
 70
     6
  9
$SURFTYPE
 70
     6
  9
$SURFU
 70
     6
  9
$SURFV
 70
     6
  9
$UCSNAME
  2

  9
$UCSORG
 10
0.0
 20
0.0
 30
0.0
  9
$UCSXDIR
 10
1.0
 20
0.0
 30
0.0
  9
$UCSYDIR
 10
0.0
 20
1.0
 30
0.0
  9
$PUCSNAME
  2

  9
$PUCSORG
 10
0.0
 20
0.0
 30
0.0
  9
$PUCSXDIR
 10
1.0
 20
0.0
 30
0.0
  9
$PUCSYDIR
 10
0.0
 20
1.0
 30
0.0
  9
$USERI1
 70
     0
  9
$USERI2
 70
     0
  9
$USERI3
 70
     0
  9
$USERI4
 70
     0
  9
$USERI5
 70
     0
  9
$USERR1
 40
0.0
  9
$USERR2
 40
0.0
  9
$USERR3
 40
0.0
  9
$USERR4
 40
0.0
  9
$USERR5
 40
0.0
  9
$WORLDVIEW
 70
     1
  9
$SHADEDGE
 70
     3
  9
$SHADEDIF
 70
    70
  9
$TILEMODE
 70
     1
  9
$MAXACTVP
 70
    16
  9
$PINSBASE
 10
0.0
 20
0.0
 30
0.0
  9
$PLIMCHECK
 70
     0
  9
$PEXTMIN
 10
1.000000000000000E+20
 20
1.000000000000000E+20
 30
1.000000000000000E+20
  9
$PEXTMAX
 10
-1.000000000000000E+20
 20
-1.000000000000000E+20
 30
-1.000000000000000E+20
  9
$PLIMMIN
 10
0.0
 20
0.0
  9
$PLIMMAX
 10
12.0
 20
9.0
  9
$UNITMODE
 70
     0
  9
$VISRETAIN
 70
     0
  9
$PLINEGEN
 70
     0
  9
$PSLTSCALE
 70
     0
  9
$TREEDEPTH
 70
  3020
  9
$PICKSTYLE
 70
     1
  9
$CMLSTYLE
  2
STANDARD
  9
$CMLJUST
 70
     0
  9
$CMLSCALE
 40
1.0
  9
$PROXYGRAPHICS
 70
     1
  9
$MEASUREMENT
 70
     0
  0
ENDSEC
  0
SECTION
  2
CLASSES
  0
CLASS
  1
ACDBDICTIONARYWDFLT
  2
AcDbDictionaryWithDefault
  3
AutoCAD 2000
 90
        0
280
     0
281
     0
  0
CLASS
  1
ACDBPLACEHOLDER
  2
AcDbPlaceHolder
  3
AutoCAD 2000
 90
        0
280
     0
281
     0
  0
CLASS
  1
LAYOUT
  2
AcDbLayout
  3
AutoCAD 2000
 90
        0
280
     0
281
     0
  0
CLASS
  1
DICTIONARYVAR
  2
AcDbDictionaryVar
  3
"AutoCAD"
 90
        0
280
     0
281
     0
  0
CLASS
  1
SORTENTSTABLE
  2
AcDbSortentsTable
  3
"AutoCAD"
 90
        0
280
     0
281
     0
  0
CLASS
  1
LONG_TRANSACTION
  2
AcDbLongTransaction
  3
AutoCAD 2000
 90
        0
280
     0
281
     0
  0
CLASS
  1
LWPOLYLINE
  2
AcDbPolyline
  3
"AutoCAD"
 90
        0
280
     0
281
     1
  0
CLASS
  1
HATCH
  2
AcDbHatch
  3
"ACAD_SEDONA"
 90
        0
280
     0
281
     1
  0
CLASS
  1
XRECORD
  2
AcDbXrecord
  3
"<Built In>"
 90
        0
280
     0
281
     0
  0
CLASS
  1
LONG_TRANSACTION
  2
AcDbLongTransaction
  3
AutoCAD 2000
 90
        0
280
     0
281
     0
  0
CLASS
  1
LWPOLYLINE
  2
AcDbPolyline
  3
"AutoCAD"
 90
        0
280
     0
281
     1
  0
CLASS
  1
HATCH
  2
AcDbHatch
  3
"ACAD_SEDONA"
 90
        0
280
     0
281
     1
  0
CLASS
  1
XRECORD
  2
AcDbXrecord
  3
"<Built In>"
 90
        0
280
     0
281
     0
  0
CLASS
  1
LONG_TRANSACTION
  2
AcDbLongTransaction
  3
AutoCAD 2000
 90
        0
280
     0
281
     0
  0
CLASS
  1
LWPOLYLINE
  2
AcDbPolyline
  3
"AutoCAD"
 90
        0
280
     0
281
     1
  0
CLASS
  1
HATCH
  2
AcDbHatch
  3
"ACAD_SEDONA"
 90
        0
280
     0
281
     1
  0
CLASS
  1
XRECORD
  2
AcDbXrecord
  3
"<Built In>"
 90
        0
280
     0
281
     0
  0
CLASS
  1
LONG_TRANSACTION
  2
AcDbLongTransaction
  3
AutoCAD 2000
 90
        0
280
     0
281
     0
  0
CLASS
  1
LWPOLYLINE
  2
AcDbPolyline
  3
"AutoCAD"
 90
        0
280
     0
281
     1
  0
CLASS
  1
HATCH
  2
AcDbHatch
  3
"ACAD_SEDONA"
 90
        0
280
     0
281
     1
  0
CLASS
  1
XRECORD
  2
AcDbXrecord
  3
"<Built In>"
 90
        0
280
     0
281
     0
  0
CLASS
  1
LONG_TRANSACTION
  2
AcDbLongTransaction
  3
AutoCAD 2000
 90
        0
280
     0
281
     0
  0
CLASS
  1
LWPOLYLINE
  2
AcDbPolyline
  3
"AutoCAD"
 90
        0
280
     0
281
     1
  0
CLASS
  1
HATCH
  2
AcDbHatch
  3
"ACAD_SEDONA"
 90
        0
280
     0
281
     1
  0
CLASS
  1
XRECORD
  2
AcDbXrecord
  3
"<Built In>"
 90
        0
280
     0
281
     0
  0
ENDSEC
  0
SECTION
  2
TABLES
  0
TABLE
  2
VPORT
  5
E9
100
AcDbSymbolTable
 70
     1
  0
VPORT
  5
EA
100
AcDbSymbolTableRecord
100
AcDbViewportTableRecord
  2
*ACTIVE
 70
     0
 10
0.0
 20
0.0
 11
1.0
 21
1.0
 12
1.784363952701943
 22
9.594295324608079
 13
0.0
 23
0.0
 14
1.0
 24
1.0
 15
0.0
 25
0.0
 16
0.0
 26
0.0
 36
1.0
 17
8.751372563875079
 27
2.154461366812479
 37
-7.832826328860375
 40
22.35120872078057
 41
1.379227053140096
 42
50.0
 43
0.0
 44
0.0
 50
0.0
 51
0.0
 71
     0
 72
   100
 73
     1
 74
     1
 75
     0
 76
     0
 77
     0
 78
     0
  0
ENDTAB
  0
TABLE
  2
LTYPE
  5
E4
100
AcDbSymbolTable
 70
     1
  0
LTYPE
  5
E5
100
AcDbSymbolTableRecord
100
AcDbLinetypeTableRecord
  2
BYBLOCK
 70
     0
  3

 72
    65
 73
     0
 40
0.0
  0
LTYPE
  5
E6
100
AcDbSymbolTableRecord
100
AcDbLinetypeTableRecord
  2
BYLAYER
 70
     0
  3

 72
    65
 73
     0
 40
0.0
  0
LTYPE
  5
5
100
AcDbSymbolTableRecord
100
AcDbLinetypeTableRecord
  2
CONTINUOUS
 70
     0
  3
Solid line
 72
    65
 73
     0
 40
0.0
  0
ENDTAB
  0
TABLE
  2
LAYER
  5
E2
100
AcDbSymbolTable
 70
     4
  0
LAYER
  5
3A
100
AcDbSymbolTableRecord
100
AcDbLayerTableRecord
  2
0
 70
     0
 62
     7
  6
CONTINUOUS
  0
LAYER
  5
8
102
{ACAD_XDICTIONARY
360
9
102
}
100
AcDbSymbolTableRecord
100
AcDbLayerTableRecord
  2
USP-GEO
 70
     0
 62
     7
  6
CONTINUOUS
  0
LAYER
  5
35
102
{ACAD_XDICTIONARY
360
36
102
}
100
AcDbSymbolTableRecord
100
AcDbLayerTableRecord
  2
USP-TXT
 70
     0
 62
     7
  6
CONTINUOUS
  0
LAYER
  5
4
100
AcDbSymbolTableRecord
100
AcDbLayerTableRecord
  2
USP
 70
     0
 62
     7
  6
CONTINUOUS
  0
ENDTAB
  0
TABLE
  2
STYLE
  5
E3
100
AcDbSymbolTable
 70
     1
  0
STYLE
  5
38
100
AcDbSymbolTableRecord
100
AcDbTextStyleTableRecord
  2
STANDARD
 70
     0
 40
0.0
 41
1.0
 50
0.0
 71
     0
 42
0.25
  3
txt
  4

  0
ENDTAB
  0
TABLE
  2
VIEW
  5
E7
100
AcDbSymbolTable
 70
     0
  0
ENDTAB
  0
TABLE
  2
UCS
  5
E8
100
AcDbSymbolTable
 70
     0
  0
ENDTAB
  0
TABLE
  2
APPID
  5
EB
100
AcDbSymbolTable
 70
     1
  0
APPID
  5
54
100
AcDbSymbolTableRecord
100
AcDbRegAppTableRecord
  2
ACAD
 70
     0
  0
ENDTAB
  0
TABLE
  2
DIMSTYLE
  5
EC
100
AcDbSymbolTable
 70
     1
  0
DIMSTYLE
105
F2
102
{ACAD_XDICTIONARY
360
F3
102
}
100
AcDbSymbolTableRecord
100
AcDbDimStyleTableRecord
  2
STANDARD
 70
     0
  3

  4

  5

  6

  7

 40
1.0
 41
0.125
 42
0.0625
 43
0.38
 44
0.09375
 45
0.0
 46
0.0
 47
0.0
 48
0.0
140
0.109375
141
0.0
142
0.0
143
25.4
144
1.0
145
0.0
146
1.0
147
0.09
 71
     0
 72
     0
 73
     1
 74
     1
 75
     0
 76
     0
 77
     0
 78
     8
170
     0
171
     2
172
     0
173
     0
174
     0
175
     0
176
     0
177
     0
178
     0
270
     7
271
     4
272
     4
273
     2
274
     2
340
38
275
     0
280
     0
281
     0
282
     0
283
     1
284
     0
285
     0
286
     0
287
     3
288
     0
  0
ENDTAB
  0
TABLE
  2
BLOCK_RECORD
  5
1
100
AcDbSymbolTable
 70
     3
  0
BLOCK_RECORD
  5
2
102
{ACAD_XDICTIONARY
360
D9
102
}
100
AcDbSymbolTableRecord
100
AcDbBlockTableRecord
  2
*MODEL_SPACE
  0
BLOCK_RECORD
  5
DD
102
{ACAD_XDICTIONARY
360
DE
102
}
100
AcDbSymbolTableRecord
100
AcDbBlockTableRecord
  2
*PAPER_SPACE
  0
BLOCK_RECORD
  5
6
100
AcDbSymbolTableRecord
100
AcDbBlockTableRecord
  2
TMPH25PR_T
  0
BLOCK_RECORD
  5
3D
100
AcDbSymbolTableRecord
100
AcDbBlockTableRecord
  2
TMPH25PR_F
  0
BLOCK_RECORD
  5
AC
100
AcDbSymbolTableRecord
100
AcDbBlockTableRecord
  2
TMPH25PR_S
  0
ENDTAB
  0
ENDSEC
  0
SECTION
  2
BLOCKS
  0
BLOCK
  5
DB
100
AcDbEntity
  8
0
100
AcDbBlockBegin
  2
*MODEL_SPACE
 70
     0
 10
0.0
 20
0.0
 30
0.0
  3
*MODEL_SPACE
  1

  0
ENDBLK
  5
DC
100
AcDbEntity
  8
0
100
AcDbBlockEnd
  0
BLOCK
  5
E0
100
AcDbEntity
 67
     1
  8
0
100
AcDbBlockBegin
  2
*PAPER_SPACE
 70
     0
 10
0.0
 20
0.0
 30
0.0
  3
*PAPER_SPACE
  1

  0
ENDBLK
  5
E1
100
AcDbEntity
 67
     1
  8
0
100
AcDbBlockEnd
  0
BLOCK
  5
39
100
AcDbEntity
  8
0
100
AcDbBlockBegin
  2
TMPH25PR_T
 70
     0
 10
0.0
 20
0.0
 30
0.0
  3
TMPH25PR_T
  1

  0
LWPOLYLINE
  5
7
100
AcDbEntity
  8
USP-GEO
100
AcDbPolyline
 90
        2
 70
   128
 43
0.0
 10
2.331846177698897
 20
0.0
 10
2.277638207663278
 20
0.0
  0
LWPOLYLINE
  5
B
100
AcDbEntity
  8
USP-GEO
100
AcDbPolyline
 90
        2
 70
   128
 43
0.0
 10
2.277638207663278
 20
1.211548130296094
 10
2.277638207663278
 20
0.0
  0
LWPOLYLINE
  5
C
100
AcDbEntity
  8
USP-GEO
100
AcDbPolyline
 90
        2
 70
   128
 43
0.0
 10
2.331846177698897
 20
1.17540948360568
 10
2.331846177698897
 20
0.0
  0
LWPOLYLINE
  5
D
100
AcDbEntity
  8
USP-GEO
100
AcDbPolyline
 90
        2
 70
   128
 43
0.0
 10
5.025982288469183
 20
0.0
 10
5.080190258504803
 20
0.0
  0
LWPOLYLINE
  5
E
100
AcDbEntity
  8
USP-GEO
100
AcDbPolyline
 90
        2
 70
   128
 43
0.0
 10
5.025982288469183
 20
0.0
 10
5.025982288469183
 20
1.17540948360568
  0
LWPOLYLINE
  5
F
100
AcDbEntity
  8
USP-GEO
100
AcDbPolyline
 90
        2
 70
   128
 43
0.0
 10
5.080190258504803
 20
0.0
 10
5.080190258504803
 20
1.211548130296094
  0
LWPOLYLINE
  5
10
100
AcDbEntity
  8
USP-GEO
100
AcDbPolyline
 90
        2
 70
   128
 43
0.0
 10
3.308493104507308
 20
1.17540948360568
 10
2.331846177698897
 20
1.17540948360568
  0
LWPOLYLINE
  5
11
100
AcDbEntity
  8
USP-GEO
100
AcDbPolyline
 90
        2
 70
   128
 43
0.0
 10
5.025982288469183
 20
1.17540948360568
 10
4.049335361660773
 20
1.17540948360568
  0
LWPOLYLINE
  5
12
100
AcDbEntity
  8
USP-GEO
100
AcDbPolyline
 90
        2
 70
   128
 43
0.0
 10
4.049335361660773
 20
1.17540948360568
 10
4.049335361660773
 20
1.211548130296094
  0
LWPOLYLINE
  5
13
100
AcDbEntity
  8
USP-GEO
100
AcDbPolyline
 90
        2
 70
   128
 43
0.0
 10
4.049335361660773
 20
1.229617453641299
 10
3.308493104507308
 20
1.229617453641299
  0
LWPOLYLINE
  5
14
100
AcDbEntity
  8
USP-GEO
100
AcDbPolyline
 90
        2
 70
   128
 43
0.0
 10
3.308493104507308
 20
1.17540948360568
 10
3.308493104507308
 20
1.211548130296094
  0
LWPOLYLINE
  5
15
100
AcDbEntity
  8
USP-GEO
100
AcDbPolyline
 90
        2
 70
   128
 43
0.0
 10
5.080190258504803
 20
3.599409210365131
 10
5.080190258504803
 20
1.211548130296094
  0
LWPOLYLINE
  5
16
100
AcDbEntity
  8
USP-GEO
100
AcDbPolyline
 90
        2
 70
   128
 43
0.0
 10
4.049335361660773
 20
1.211548130296094
 10
5.080190258504803
 20
1.211548130296094
  0
LWPOLYLINE
  5
17
100
AcDbEntity
  8
USP-GEO
100
AcDbPolyline
 90
        2
 70
   128
 43
0.0
 10
4.049335361660773
 20
1.265756100331714
 10
4.049335361660773
 20
1.211548130296094
  0
LWPOLYLINE
  5
18
100
AcDbEntity
  8
USP-GEO
100
AcDbPolyline
 90
        2
 70
   128
 43
0.0
 10
4.049335361660773
 20
1.265756100331714
 10
3.308493104507308
 20
1.265756100331714
  0
LWPOLYLINE
  5
19
100
AcDbEntity
  8
USP-GEO
100
AcDbPolyline
 90
        2
 70
   128
 43
0.0
 10
3.308493104507308
 20
1.265756100331714
 10
3.308493104507308
 20
1.211548130296094
  0
LWPOLYLINE
  5
1A
100
AcDbEntity
  8
USP-GEO
100
AcDbPolyline
 90
        2
 70
   128
 43
0.0
 10
3.308493104507308
 20
1.211548130296094
 10
2.277638207663278
 20
1.211548130296094
  0
LWPOLYLINE
  5
1B
100
AcDbEntity
  8
USP-GEO
100
AcDbPolyline
 90
        2
 70
   128
 43
0.0
 10
2.277638207663278
 20
1.211548130296094
 10
2.277638207663278
 20
3.599409210365131
  0
LWPOLYLINE
  5
1C
100
AcDbEntity
  8
USP-GEO
100
AcDbPolyline
 90
        2
 70
   128
 43
0.0
 10
0.0
 20
4.702541400589986
 10
3.308493104507308
 20
4.702541400589986
  0
LWPOLYLINE
  5
1D
100
AcDbEntity
  8
USP-GEO
100
AcDbPolyline
 90
        2
 70
   128
 43
0.0
 10
0.0
 20
4.756749370625605
 10
0.0
 20
4.702541400589986
  0
LWPOLYLINE
  5
1E
100
AcDbEntity
  8
USP-GEO
100
AcDbPolyline
 90
        2
 70
   128
 43
0.0
 10
0.0
 20
4.756749370625605
 10
3.308493104507308
 20
4.756749370625605
  0
LWPOLYLINE
  5
1F
100
AcDbEntity
  8
USP-GEO
100
AcDbPolyline
 90
        2
 70
   128
 43
0.0
 10
3.308493104507308
 20
4.756749370625605
 10
3.308493104507308
 20
4.702541400589986
  0
LWPOLYLINE
  5
20
100
AcDbEntity
  8
USP-GEO
100
AcDbPolyline
 90
        2
 70
   128
 43
0.0
 10
3.308493104507308
 20
4.702541400589986
 10
4.049335361660773
 20
4.702541400589986
  0
LWPOLYLINE
  5
21
100
AcDbEntity
  8
USP-GEO
100
AcDbPolyline
 90
        2
 70
   128
 43
0.0
 10
3.308493104507308
 20
4.756749370625605
 10
4.049335361660773
 20
4.756749370625605
  0
LWPOLYLINE
  5
22
100
AcDbEntity
  8
USP-GEO
100
AcDbPolyline
 90
        2
 70
   128
 43
0.0
 10
4.049335361660773
 20
4.702541400589986
 10
7.376801255680547
 20
4.702541400589986
  0
LWPOLYLINE
  5
23
100
AcDbEntity
  8
USP-GEO
100
AcDbPolyline
 90
        2
 70
   128
 43
0.0
 10
4.049335361660773
 20
4.756749370625605
 10
4.049335361660773
 20
4.702541400589986
  0
LWPOLYLINE
  5
24
100
AcDbEntity
  8
USP-GEO
100
AcDbPolyline
 90
        2
 70
   128
 43
0.0
 10
4.049335361660773
 20
4.756749370625605
 10
7.376801255680547
 20
4.756749370625605
  0
LWPOLYLINE
  5
25
100
AcDbEntity
  8
USP-GEO
100
AcDbPolyline
 90
        2
 70
   128
 43
0.0
 10
7.376801255680547
 20
4.756749370625605
 10
7.376801255680547
 20
4.702541400589986
  0
LWPOLYLINE
  5
26
100
AcDbEntity
  8
USP-GEO
100
AcDbPolyline
 90
        2
 70
   128
 43
0.0
 10
5.767728011789909
 20
4.594125460518746
 10
1.591003920545431
 20
4.594125460518746
  0
LWPOLYLINE
  5
27
100
AcDbEntity
  8
USP-GEO
100
AcDbPolyline
 90
        2
 70
   128
 43
0.0
 10
5.767728011789909
 20
4.594125460518746
 10
5.767728011789909
 20
4.539917490483126
  0
LWPOLYLINE
  5
28
100
AcDbEntity
  8
USP-GEO
100
AcDbPolyline
 90
        2
 70
   128
 43
0.0
 10
5.767728011789909
 20
4.702541400589986
 10
5.767728011789909
 20
4.594125460518746
  0
LWPOLYLINE
  5
29
100
AcDbEntity
  8
USP-GEO
100
AcDbPolyline
 90
        2
 70
   128
 43
0.0
 10
5.712616575587031
 20
4.539917490483126
 10
5.712616575587031
 20
4.521848167137921
  0
LWPOLYLINE
  5
2A
100
AcDbEntity
  8
USP-GEO
100
AcDbPolyline
 90
        2
 70
   128
 43
0.0
 10
5.767728011789909
 20
4.539917490483126
 10
5.712616575587031
 20
4.539917490483126
  0
LWPOLYLINE
  5
2B
100
AcDbEntity
  8
USP-GEO
100
AcDbPolyline
 90
        2
 70
   128
 43
0.0
 10
5.712616575587031
 20
3.70782515043637
 10
5.712616575587031
 20
3.599409210365131
  0
LWPOLYLINE
  5
2C
100
AcDbEntity
  8
USP-GEO
100
AcDbPolyline
 90
        2
 70
   128
 43
0.0
 10
5.712616575587031
 20
4.521848167137921
 10
5.712616575587031
 20
3.70782515043637
  0
LWPOLYLINE
  5
2D
100
AcDbEntity
  8
USP-GEO
100
AcDbPolyline
 90
        2
 70
   128
 43
0.0
 10
1.591003920545431
 20
4.702541400589986
 10
1.591003920545431
 20
4.594125460518746
  0
LWPOLYLINE
  5
2E
100
AcDbEntity
  8
USP-GEO
100
AcDbPolyline
 90
        2
 70
   128
 43
0.0
 10
1.591003920545431
 20
4.594125460518746
 10
1.591003920545431
 20
4.539917490483126
  0
LWPOLYLINE
  5
2F
100
AcDbEntity
  8
USP-GEO
100
AcDbPolyline
 90
        2
 70
   128
 43
0.0
 10
1.591003920545431
 20
4.539917490483126
 10
1.64521189058105
 20
4.539917490483126
  0
LWPOLYLINE
  5
30
100
AcDbEntity
  8
USP-GEO
100
AcDbPolyline
 90
        2
 70
   128
 43
0.0
 10
1.64521189058105
 20
4.521848167137921
 10
1.64521189058105
 20
3.70782515043637
  0
LWPOLYLINE
  5
31
100
AcDbEntity
  8
USP-GEO
100
AcDbPolyline
 90
        2
 70
   128
 43
0.0
 10
1.64521189058105
 20
3.70782515043637
 10
1.64521189058105
 20
3.599409210365131
  0
LWPOLYLINE
  5
32
100
AcDbEntity
  8
USP-GEO
100
AcDbPolyline
 90
        2
 70
   128
 43
0.0
 10
1.64521189058105
 20
4.539917490483126
 10
1.64521189058105
 20
4.521848167137921
  0
LWPOLYLINE
  5
33
100
AcDbEntity
  8
USP-GEO
100
AcDbPolyline
 90
        2
 70
   128
 43
0.0
 10
5.712616575587031
 20
3.599409210365131
 10
1.64521189058105
 20
3.599409210365131
  0
TEXT
  5
34
100
AcDbEntity
  8
USP-TXT
100
AcDbText
 10
1.55391423308404
 20
-0.8369648944053782
 30
0.0
 40
0.25
  1
TMPH25 - TOP VIEW
 72
     1
 11
3.67891423308404
 21
-0.8369648944053782
 31
0.0
100
AcDbText
  0
ENDBLK
  5
3B
100
AcDbEntity
  8
0
100
AcDbBlockEnd
  0
BLOCK
  5
A9
100
AcDbEntity
  8
0
100
AcDbBlockBegin
  2
TMPH25PR_F
 70
     0
 10
0.0
 20
0.0
 30
0.0
  3
TMPH25PR_F
  1

  0
LWPOLYLINE
  5
3E
100
AcDbEntity
  8
USP-GEO
100
AcDbPolyline
 90
        2
 70
   128
 43
0.0
 10
2.277638207663278
 20
1.319964070367333
 10
2.277638207663278
 20
0.2349012034876843
  0
LWPOLYLINE
  5
3F
100
AcDbEntity
  8
USP-GEO
100
AcDbPolyline
 90
        2
 70
   128
 43
0.0
 10
2.331846177698897
 20
0.2349012034876843
 10
2.277638207663278
 20
0.2349012034876843
  0
LWPOLYLINE
  5
40
100
AcDbEntity
  8
USP-GEO
100
AcDbPolyline
 90
        2
 70
   128
 43
0.0
 10
2.331846177698897
 20
1.319964070367333
 10
2.277638207663278
 20
1.319964070367333
  0
LWPOLYLINE
  5
41
100
AcDbEntity
  8
USP-GEO
100
AcDbPolyline
 90
        2
 70
   128
 43
0.0
 10
2.277638207663278
 20
3.3997431874006
 10
2.277638207663278
 20
1.319964070367333
  0
LWPOLYLINE
  5
42
100
AcDbEntity
  8
USP-GEO
100
AcDbPolyline
 90
        2
 70
   128
 43
0.0
 10
2.331846177698897
 20
1.319964070367333
 10
2.331846177698897
 20
0.2349012034876843
  0
LWPOLYLINE
  5
43
100
AcDbEntity
  8
USP-GEO
100
AcDbPolyline
 90
        2
 70
   128
 43
0.0
 10
2.331846177698897
 20
3.345535217364981
 10
2.331846177698897
 20
1.319964070367333
  0
LWPOLYLINE
  5
44
100
AcDbEntity
  8
USP-GEO
100
AcDbPolyline
 90
        2
 70
   128
 43
0.0
 10
5.025982288469183
 20
0.2349012034876843
 10
5.080190258504803
 20
0.2349012034876843
  0
LWPOLYLINE
  5
45
100
AcDbEntity
  8
USP-GEO
100
AcDbPolyline
 90
        2
 70
   128
 43
0.0
 10
5.025982288469183
 20
0.2349012034876843
 10
5.025982288469183
 20
1.319964070367333
  0
LWPOLYLINE
  5
46
100
AcDbEntity
  8
USP-GEO
100
AcDbPolyline
 90
        2
 70
   128
 43
0.0
 10
5.025982288469183
 20
1.319964070367333
 10
5.080190258504803
 20
1.319964070367333
  0
LWPOLYLINE
  5
47
100
AcDbEntity
  8
USP-GEO
100
AcDbPolyline
 90
        2
 70
   128
 43
0.0
 10
5.025982288469183
 20
1.319964070367333
 10
5.025982288469183
 20
3.345535217364981
  0
LWPOLYLINE
  5
48
100
AcDbEntity
  8
USP-GEO
100
AcDbPolyline
 90
        2
 70
   128
 43
0.0
 10
5.080190258504803
 20
0.2349012034876843
 10
5.080190258504803
 20
1.319964070367333
  0
LWPOLYLINE
  5
49
100
AcDbEntity
  8
USP-GEO
100
AcDbPolyline
 90
        2
 70
   128
 43
0.0
 10
5.080190258504803
 20
1.319964070367333
 10
5.080190258504803
 20
3.3997431874006
  0
LWPOLYLINE
  5
4A
100
AcDbEntity
  8
USP-GEO
100
AcDbPolyline
 90
        2
 70
   128
 43
0.0
 10
3.308493104507308
 20
3.345535217364981
 10
2.331846177698897
 20
3.345535217364981
  0
LWPOLYLINE
  5
4B
100
AcDbEntity
  8
USP-GEO
100
AcDbPolyline
 90
        2
 70
   128
 43
0.0
 10
5.025982288469183
 20
3.345535217364981
 10
4.049335361660773
 20
3.345535217364981
  0
LWPOLYLINE
  5
4C
100
AcDbEntity
  8
USP-GEO
100
AcDbPolyline
 90
        2
 70
   128
 43
0.0
 10
4.809150408326706
 20
1.39224136374816
 10
5.025982288469183
 20
1.39224136374816
  0
LWPOLYLINE
  5
4D
100
AcDbEntity
  8
USP-GEO
100
AcDbPolyline
 90
        2
 70
   128
 43
0.0
 10
2.331846177698897
 20
1.39224136374816
 10
2.548678057841375
 20
1.39224136374816
  0
LWPOLYLINE
  5
4E
100
AcDbEntity
  8
USP-GEO
100
AcDbPolyline
 90
        2
 70
   128
 43
0.0
 10
4.049335361660773
 20
3.345535217364981
 10
4.049335361660773
 20
3.3997431874006
  0
LWPOLYLINE
  5
4F
100
AcDbEntity
  8
USP-GEO
100
AcDbPolyline
 90
        2
 70
   128
 43
0.0
 10
4.049335361660773
 20
3.345535217364981
 10
4.049335361660773
 20
3.327465894019773
  0
LWPOLYLINE
  5
50
100
AcDbEntity
  8
USP-GEO
100
AcDbPolyline
 90
        2
 70
   128
 43
0.0
 10
4.049335361660773
 20
3.327465894019773
 10
3.308493104507308
 20
3.327465894019773
  0
LWPOLYLINE
  5
51
100
AcDbEntity
  8
USP-GEO
100
AcDbPolyline
 90
        2
 70
   128
 43
0.0
 10
3.308493104507308
 20
3.345535217364981
 10
3.308493104507308
 20
3.3997431874006
  0
LWPOLYLINE
  5
52
100
AcDbEntity
  8
USP-GEO
100
AcDbPolyline
 90
        2
 70
   128
 43
0.0
 10
3.308493104507308
 20
3.327465894019773
 10
3.308493104507308
 20
3.345535217364981
  0
ELLIPSE
  5
53
100
AcDbEntity
  8
USP-GEO
  6
CONTINUOUS
100
AcDbEllipse
 10
2.556596480682003
 20
1.354594032764094
 30
0.0
 11
-0.0937499999999965
 21
0.0
 31
0.0
210
0.0
220
0.0
230
1.0
 40
0.5000000000000006
 41
3.177785991494923
 42
4.817169620336786
1001
ACAD
1000
RTLwPs
1070
   128
  0
ELLIPSE
  5
55
100
AcDbEntity
  8
USP-GEO
  6
CONTINUOUS
100
AcDbEllipse
 10
4.806596480682003
 20
1.35459403276409
 30
0.0
 11
-0.09375
 21
0.0
 31
0.0
210
0.0
220
0.0
230
1.0
 40
0.5000000000000006
 41
4.678482873134091
 42
6.248829583756093
1001
ACAD
1000
RTLwPs
1070
   128
  0
LWPOLYLINE
  5
56
100
AcDbEntity
  8
USP-GEO
100
AcDbPolyline
 90
        2
 70
   128
 43
0.0
 10
2.639024674567407
 20
1.356102717057746
 10
2.639024674567407
 20
1.319964070367333
  0
LWPOLYLINE
  5
57
100
AcDbEntity
  8
USP-GEO
100
AcDbPolyline
 90
        2
 70
   128
 43
0.0
 10
4.718803791600674
 20
1.319964070367333
 10
4.718803791600674
 20
1.356102717057746
  0
LWPOLYLINE
  5
58
100
AcDbEntity
  8
USP-GEO
100
AcDbPolyline
 90
        2
 70
   128
 43
0.0
 10
4.049335361660773
 20
3.3997431874006
 10
5.080190258504803
 20
3.3997431874006
  0
LWPOLYLINE
  5
59
100
AcDbEntity
  8
USP-GEO
100
AcDbPolyline
 90
        2
 70
   128
 43
0.0
 10
4.049335361660773
 20
3.381673864055393
 10
3.308493104507308
 20
3.381673864055393
  0
LWPOLYLINE
  5
5A
100
AcDbEntity
  8
USP-GEO
100
AcDbPolyline
 90
        2
 70
   128
 43
0.0
 10
3.308493104507308
 20
3.3997431874006
 10
2.277638207663278
 20
3.3997431874006
  0
LWPOLYLINE
  5
5B
100
AcDbEntity
  8
USP-GEO
100
AcDbPolyline
 90
        2
 70
   128
 43
0.0
 10
1.536795950509811
 20
1.338033393712541
 10
0.1987625567972717
 20
0.0
  0
LWPOLYLINE
  5
5C
100
AcDbEntity
  8
USP-GEO
100
AcDbPolyline
 90
        2
 70
   128
 43
0.0
 10
0.1987625567972717
 20
0.0
 10
0.0
 20
0.0
  0
LWPOLYLINE
  5
5D
100
AcDbEntity
  8
USP-GEO
100
AcDbPolyline
 90
        2
 70
   128
 43
0.0
 10
0.0
 20
0.0
 10
0.0
 20
4.702541400589987
  0
LWPOLYLINE
  5
5E
100
AcDbEntity
  8
USP-GEO
100
AcDbPolyline
 90
        2
 70
   128
 43
0.0
 10
0.0
 20
4.702541400589987
 10
3.308493104507308
 20
4.702541400589987
  0
LWPOLYLINE
  5
5F
100
AcDbEntity
  8
USP-GEO
100
AcDbPolyline
 90
        2
 70
   128
 43
0.0
 10
3.308493104507308
 20
4.702541400589987
 10
3.308493104507308
 20
4.630264107209162
  0
LWPOLYLINE
  5
60
100
AcDbEntity
  8
USP-GEO
100
AcDbPolyline
 90
        2
 70
   128
 43
0.0
 10
3.308493104507308
 20
4.630264107209162
 10
4.049335361660773
 20
4.630264107209162
  0
LWPOLYLINE
  5
61
100
AcDbEntity
  8
USP-GEO
100
AcDbPolyline
 90
        2
 70
   128
 43
0.0
 10
4.049335361660773
 20
4.702541400589987
 10
4.049335361660773
 20
4.630264107209162
  0
LWPOLYLINE
  5
62
100
AcDbEntity
  8
USP-GEO
100
AcDbPolyline
 90
        2
 70
   128
 43
0.0
 10
4.049335361660773
 20
4.702541400589987
 10
7.376801255680547
 20
4.702541400589987
  0
LWPOLYLINE
  5
63
100
AcDbEntity
  8
USP-GEO
100
AcDbPolyline
 90
        2
 70
   128
 43
0.0
 10
7.376801255680547
 20
4.702541400589987
 10
7.376801255680547
 20
0.0
  0
LWPOLYLINE
  5
64
100
AcDbEntity
  8
USP-GEO
100
AcDbPolyline
 90
        2
 70
   128
 43
0.0
 10
7.376801255680547
 20
0.0
 10
7.159065909370809
 20
0.0
  0
LWPOLYLINE
  5
65
100
AcDbEntity
  8
USP-GEO
100
AcDbPolyline
 90
        2
 70
   128
 43
0.0
 10
5.821935981825529
 20
1.338033393712541
 10
7.159065909370809
 20
0.0
  0
ARC
  5
66
100
AcDbEntity
  8
USP-GEO
100
AcDbCircle
 10
5.744096480682001
 20
1.386094032764093
 30
0.0
 40
0.09375
100
AcDbArc
 50
328.3074691167158
 51
86.70094586179017
  0
LWPOLYLINE
  5
67
100
AcDbEntity
  8
USP-GEO
100
AcDbPolyline
 90
        2
 70
   128
 43
0.0
 10
5.749658688444704
 20
1.482587980474193
 10
5.080190258504803
 20
1.482587980474193
  0
LWPOLYLINE
  5
68
100
AcDbEntity
  8
USP-GEO
100
AcDbPolyline
 90
        2
 70
   128
 43
0.0
 10
2.639024674567407
 20
1.319964070367333
 10
4.718803791600674
 20
1.319964070367333
  0
LWPOLYLINE
  5
69
100
AcDbEntity
  8
USP-GEO
100
AcDbPolyline
 90
        2
 70
   128
 43
0.0
 10
2.277638207663278
 20
1.482587980474193
 10
1.609073243890637
 20
1.482587980474193
  0
ARC
  5
6A
100
AcDbEntity
  8
USP-GEO
100
AcDbCircle
 10
1.619096480682002
 20
1.386094032764093
 30
0.0
 40
0.09375
100
AcDbArc
 50
95.93028835959129
 51
210.283438138714
  0
CIRCLE
  5
6B
100
AcDbEntity
  8
USP-GEO
100
AcDbCircle
 10
1.119096480682003
 20
4.323594032764095
 30
0.0
 40
0.082
  0
CIRCLE
  5
6C
100
AcDbEntity
  8
USP-GEO
100
AcDbCircle
 10
0.4940964806820034
 20
3.823594032764091
 30
0.0
 40
0.082
  0
ARC
  5
6D
100
AcDbEntity
  8
USP-GEO
100
AcDbCircle
 10
1.056596480682003
 20
1.386094032764093
 30
0.0
 40
0.09375
100
AcDbArc
 50
265.206680631253
 51
95.07871643817942
  0
LWPOLYLINE
  5
6E
100
AcDbEntity
  8
USP-GEO
100
AcDbPolyline
 90
        2
 70
   128
 43
0.0
 10
0.4878717303205758
 20
1.283825423676921
 10
1.048020754021976
 20
1.283825423676921
  0
ARC
  5
6F
100
AcDbEntity
  8
USP-GEO
100
AcDbCircle
 10
0.4940964806820043
 20
1.386094032764091
 30
0.0
 40
0.09375
100
AcDbArc
 50
93.6909923955033
 51
266.5168934224339
  0
LWPOLYLINE
  5
70
100
AcDbEntity
  8
USP-GEO
100
AcDbPolyline
 90
        2
 70
   128
 43
0.0
 10
1.048020754021976
 20
1.482587980474193
 10
0.4878717303205758
 20
1.482587980474193
  0
CIRCLE
  5
71
100
AcDbEntity
  8
USP-GEO
100
AcDbCircle
 10
1.119096480681996
 20
2.073594032764091
 30
0.0
 40
0.082
  0
CIRCLE
  5
72
100
AcDbEntity
  8
USP-GEO
100
AcDbCircle
 10
0.3690964806820052
 20
0.7610940327640919
 30
0.0
 40
0.082
  0
LWPOLYLINE
  5
73
100
AcDbEntity
  8
USP-GEO
100
AcDbPolyline
 90
        2
 70
   128
 43
0.0
 10
5.297022138647282
 20
4.449570873757096
 10
5.297022138647282
 20
4.286043497482978
  0
ARC
  5
74
100
AcDbEntity
  8
USP-GEO
100
AcDbCircle
 10
5.400346480682003
 20
4.448594032764091
 30
0.0
 40
0.09375
100
AcDbArc
 50
0.5864203552989177
 51
179.4583348160303
  0
LWPOLYLINE
  5
75
100
AcDbEntity
  8
USP-GEO
100
AcDbPolyline
 90
        2
 70
   128
 43
0.0
 10
5.495784695444552
 20
4.286043497482978
 10
5.495784695444552
 20
4.449570873757096
  0
CIRCLE
  5
76
100
AcDbEntity
  8
USP-GEO
100
AcDbCircle
 10
6.24409648068201
 20
4.323594032764095
 30
0.0
 40
0.082
  0
LWPOLYLINE
  5
77
100
AcDbEntity
  8
USP-GEO
100
AcDbPolyline
 90
        2
 70
   128
 43
0.0
 10
3.579532954685404
 20
4.286043497482978
 10
3.579532954685404
 20
4.449570873757096
  0
LWPOLYLINE
  5
78
100
AcDbEntity
  8
USP-GEO
100
AcDbPolyline
 90
        2
 70
   128
 43
0.0
 10
3.39883972123334
 20
4.449570873757096
 10
3.39883972123334
 20
4.286043497482978
  0
ARC
  5
79
100
AcDbEntity
  8
USP-GEO
100
AcDbCircle
 10
3.493096480682002
 20
4.448594032764091
 30
0.0
 40
0.09375
100
AcDbArc
 50
0.6474868882605394
 51
179.406229719328
  0
CIRCLE
  5
7A
100
AcDbEntity
  8
USP-GEO
100
AcDbCircle
 10
6.99409648068201
 20
0.7610940327640919
 30
0.0
 40
0.082
  0
ARC
  5
7B
100
AcDbEntity
  8
USP-GEO
100
AcDbCircle
 10
6.306596480682003
 20
1.386094032764095
 30
0.0
 40
0.09375
100
AcDbArc
 50
88.09395162576203
 51
271.7984949487306
  0
LWPOLYLINE
  5
7C
100
AcDbEntity
  8
USP-GEO
100
AcDbPolyline
 90
        2
 70
   128
 43
0.0
 10
6.869956735847505
 20
1.482587980474193
 10
6.309807712146104
 20
1.482587980474193
  0
ARC
  5
7D
100
AcDbEntity
  8
USP-GEO
100
AcDbCircle
 10
6.869096480682003
 20
1.386094032764093
 30
0.0
 40
0.09375
100
AcDbArc
 50
270.4819448339226
 51
89.48921475698538
  0
LWPOLYLINE
  5
7E
100
AcDbEntity
  8
USP-GEO
100
AcDbPolyline
 90
        2
 70
   128
 43
0.0
 10
6.309807712146104
 20
1.283825423676921
 10
6.869956735847505
 20
1.283825423676921
  0
CIRCLE
  5
7F
100
AcDbEntity
  8
USP-GEO
100
AcDbCircle
 10
6.244096480682005
 20
2.073594032764091
 30
0.0
 40
0.082
  0
CIRCLE
  5
80
100
AcDbEntity
  8
USP-GEO
100
AcDbCircle
 10
6.869096480682003
 20
2.573594032764091
 30
0.0
 40
0.082
  0
LWPOLYLINE
  5
81
100
AcDbEntity
  8
USP-GEO
100
AcDbPolyline
 90
        2
 70
   128
 43
0.0
 10
1.862043770723528
 20
2.495373553973015
 10
1.862043770723528
 20
1.70032332678393
  0
LWPOLYLINE
  5
82
100
AcDbEntity
  8
USP-GEO
100
AcDbPolyline
 90
        2
 70
   128
 43
0.0
 10
2.0608063275208
 20
1.70032332678393
 10
2.0608063275208
 20
2.495373553973015
  0
ARC
  5
83
100
AcDbEntity
  8
USP-GEO
100
AcDbCircle
 10
1.962846480682001
 20
1.698594032764095
 30
0.0
 40
0.09375
100
AcDbArc
 50
179.017173936168
 51
1.011342521576505
  0
LWPOLYLINE
  5
84
100
AcDbEntity
  8
USP-GEO
100
AcDbPolyline
 90
        2
 70
   128
 43
0.0
 10
5.767728011789909
 20
4.286043497482978
 10
1.591003920545431
 20
4.286043497482978
  0
LWPOLYLINE
  5
85
100
AcDbEntity
  8
USP-GEO
100
AcDbPolyline
 90
        2
 70
   128
 43
0.0
 10
5.767728011789909
 20
3.870449060543229
 10
5.767728011789909
 20
3.780102443817197
  0
LWPOLYLINE
  5
86
100
AcDbEntity
  8
USP-GEO
100
AcDbPolyline
 90
        2
 70
   128
 43
0.0
 10
5.767728011789909
 20
4.286043497482978
 10
5.767728011789909
 20
3.870449060543229
  0
LWPOLYLINE
  5
87
100
AcDbEntity
  8
USP-GEO
100
AcDbPolyline
 90
        2
 70
   128
 43
0.0
 10
5.712616575587031
 20
3.780102443817197
 10
5.712616575587031
 20
3.76203312047199
  0
LWPOLYLINE
  5
88
100
AcDbEntity
  8
USP-GEO
100
AcDbPolyline
 90
        2
 70
   128
 43
0.0
 10
5.767728011789909
 20
3.65361718040075
 10
5.767728011789909
 20
3.780102443817197
  0
LWPOLYLINE
  5
89
100
AcDbEntity
  8
USP-GEO
100
AcDbPolyline
 90
        2
 70
   128
 43
0.0
 10
5.712616575587031
 20
3.65361718040075
 10
5.767728011789909
 20
3.65361718040075
  0
LWPOLYLINE
  5
8A
100
AcDbEntity
  8
USP-GEO
100
AcDbPolyline
 90
        2
 70
   128
 43
0.0
 10
5.767728011789909
 20
3.780102443817197
 10
5.712616575587031
 20
3.780102443817197
  0
LWPOLYLINE
  5
8B
100
AcDbEntity
  8
USP-GEO
100
AcDbPolyline
 90
        2
 70
   128
 43
0.0
 10
5.767728011789909
 20
3.020287397151264
 10
5.767728011789909
 20
3.128703337222503
  0
LWPOLYLINE
  5
8C
100
AcDbEntity
  8
USP-GEO
100
AcDbPolyline
 90
        2
 70
   128
 43
0.0
 10
5.767728011789909
 20
3.128703337222503
 10
5.712616575587031
 20
3.128703337222503
  0
LWPOLYLINE
  5
8D
100
AcDbEntity
  8
USP-GEO
100
AcDbPolyline
 90
        2
 70
   128
 43
0.0
 10
5.767728011789909
 20
2.911871457080025
 10
5.767728011789909
 20
2.495373553973015
  0
LWPOLYLINE
  5
8E
100
AcDbEntity
  8
USP-GEO
100
AcDbPolyline
 90
        2
 70
   128
 43
0.0
 10
2.277638207663278
 20
2.495373553973015
 10
1.591003920545431
 20
2.495373553973015
  0
LWPOLYLINE
  5
8F
100
AcDbEntity
  8
USP-GEO
100
AcDbPolyline
 90
        2
 70
   128
 43
0.0
 10
5.767728011789909
 20
2.495373553973015
 10
5.080190258504803
 20
2.495373553973015
  0
LWPOLYLINE
  5
90
100
AcDbEntity
  8
USP-GEO
100
AcDbPolyline
 90
        2
 70
   128
 43
0.0
 10
5.712616575587031
 20
3.020287397151264
 10
5.713520041754291
 20
3.020287397151264
  0
LWPOLYLINE
  5
91
100
AcDbEntity
  8
USP-GEO
100
AcDbPolyline
 90
        2
 70
   128
 43
0.0
 10
5.712616575587031
 20
3.020287397151264
 10
5.767728011789909
 20
3.020287397151264
  0
LWPOLYLINE
  5
92
100
AcDbEntity
  8
USP-GEO
100
AcDbPolyline
 90
        2
 70
   128
 43
0.0
 10
5.767728011789909
 20
3.020287397151264
 10
5.767728011789909
 20
2.911871457080025
  0
LWPOLYLINE
  5
93
100
AcDbEntity
  8
USP-GEO
100
AcDbPolyline
 90
        2
 70
   128
 43
0.0
 10
5.712616575587031
 20
3.237119277293741
 10
5.712616575587031
 20
3.020287397151264
  0
LWPOLYLINE
  5
94
100
AcDbEntity
  8
USP-GEO
100
AcDbPolyline
 90
        2
 70
   128
 43
0.0
 10
5.712616575587031
 20
3.545201240329513
 10
5.712616575587031
 20
3.237119277293741
  0
LWPOLYLINE
  5
95
100
AcDbEntity
  8
USP-GEO
100
AcDbPolyline
 90
        2
 70
   128
 43
0.0
 10
5.712616575587031
 20
3.76203312047199
 10
5.712616575587031
 20
3.545201240329513
  0
LWPOLYLINE
  5
96
100
AcDbEntity
  8
USP-GEO
100
AcDbPolyline
 90
        2
 70
   128
 43
0.0
 10
1.591003920545431
 20
4.286043497482978
 10
1.591003920545431
 20
3.870449060543229
  0
LWPOLYLINE
  5
97
100
AcDbEntity
  8
USP-GEO
100
AcDbPolyline
 90
        2
 70
   128
 43
0.0
 10
1.591003920545431
 20
3.870449060543229
 10
1.591003920545431
 20
3.780102443817197
  0
LWPOLYLINE
  5
98
100
AcDbEntity
  8
USP-GEO
100
AcDbPolyline
 90
        2
 70
   128
 43
0.0
 10
1.591003920545431
 20
3.020287397151264
 10
1.591003920545431
 20
2.911871457080025
  0
LWPOLYLINE
  5
99
100
AcDbEntity
  8
USP-GEO
100
AcDbPolyline
 90
        2
 70
   128
 43
0.0
 10
1.591003920545431
 20
2.911871457080025
 10
1.591003920545431
 20
2.495373553973015
  0
LWPOLYLINE
  5
9A
100
AcDbEntity
  8
USP-GEO
100
AcDbPolyline
 90
        2
 70
   128
 43
0.0
 10
1.64521189058105
 20
3.65361718040075
 10
1.591003920545431
 20
3.65361718040075
  0
LWPOLYLINE
  5
9B
100
AcDbEntity
  8
USP-GEO
100
AcDbPolyline
 90
        2
 70
   128
 43
0.0
 10
1.591003920545431
 20
3.780102443817197
 10
1.591003920545431
 20
3.65361718040075
  0
LWPOLYLINE
  5
9C
100
AcDbEntity
  8
USP-GEO
100
AcDbPolyline
 90
        2
 70
   128
 43
0.0
 10
1.591003920545431
 20
3.780102443817197
 10
1.64521189058105
 20
3.780102443817197
  0
LWPOLYLINE
  5
9D
100
AcDbEntity
  8
USP-GEO
100
AcDbPolyline
 90
        2
 70
   128
 43
0.0
 10
1.591003920545431
 20
3.128703337222503
 10
1.591003920545431
 20
3.020287397151264
  0
LWPOLYLINE
  5
9E
100
AcDbEntity
  8
USP-GEO
100
AcDbPolyline
 90
        2
 70
   128
 43
0.0
 10
1.591003920545431
 20
3.128703337222503
 10
1.64521189058105
 20
3.128703337222503
  0
LWPOLYLINE
  5
9F
100
AcDbEntity
  8
USP-GEO
100
AcDbPolyline
 90
        2
 70
   128
 43
0.0
 10
1.64521189058105
 20
3.020287397151264
 10
1.591003920545431
 20
3.020287397151264
  0
LWPOLYLINE
  5
A0
100
AcDbEntity
  8
USP-GEO
100
AcDbPolyline
 90
        2
 70
   128
 43
0.0
 10
1.64521189058105
 20
3.76203312047199
 10
1.64521189058105
 20
3.545201240329513
  0
LWPOLYLINE
  5
A1
100
AcDbEntity
  8
USP-GEO
100
AcDbPolyline
 90
        2
 70
   128
 43
0.0
 10
1.64521189058105
 20
3.545201240329513
 10
1.64521189058105
 20
3.237119277293741
  0
LWPOLYLINE
  5
A2
100
AcDbEntity
  8
USP-GEO
100
AcDbPolyline
 90
        2
 70
   128
 43
0.0
 10
1.64521189058105
 20
3.237119277293741
 10
1.64521189058105
 20
3.020287397151264
  0
LWPOLYLINE
  5
A3
100
AcDbEntity
  8
USP-GEO
100
AcDbPolyline
 90
        2
 70
   128
 43
0.0
 10
1.64521189058105
 20
3.020287397151264
 10
1.64611535674831
 20
3.020287397151264
  0
LWPOLYLINE
  5
A4
100
AcDbEntity
  8
USP-GEO
100
AcDbPolyline
 90
        2
 70
   128
 43
0.0
 10
1.64521189058105
 20
3.780102443817197
 10
1.64521189058105
 20
3.76203312047199
  0
CIRCLE
  5
A5
100
AcDbEntity
  8
USP-GEO
100
AcDbCircle
 10
1.961596480682
 20
2.754946423108162
 30
0.0
 40
0.09
  0
CIRCLE
  5
A6
100
AcDbEntity
  8
USP-GEO
100
AcDbCircle
 10
3.493096480682002
 20
4.039946423108158
 30
0.0
 40
0.0935
  0
CIRCLE
  5
A7
100
AcDbEntity
  8
USP-GEO
100
AcDbCircle
 10
5.399096480682
 20
4.039946423108158
 30
0.0
 40
0.09
  0
TEXT
  5
A8
100
AcDbEntity
  8
USP-TXT
100
AcDbText
 10
1.303914233084041
 20
-1.109588423510507
 30
0.0
 40
0.25
  1
TMPH25 - FRONT VIEW
 72
     1
 11
3.67891423308404
 21
-1.109588423510507
 31
0.0
100
AcDbText
  0
ENDBLK
  5
AA
100
AcDbEntity
  8
0
100
AcDbBlockEnd
  0
BLOCK
  5
D7
100
AcDbEntity
  8
0
100
AcDbBlockBegin
  2
TMPH25PR_S
 70
     0
 10
0.0
 20
0.0
 30
0.0
  3
TMPH25PR_S
  1

  0
LWPOLYLINE
  5
AD
100
AcDbEntity
  8
USP-GEO
100
AcDbPolyline
 90
        2
 70
   128
 43
0.0
 10
4.556179881493815
 20
1.39224136374816
 10
1.17540948360568
 20
3.345535217364981
  0
ARC
  5
AE
100
AcDbEntity
  8
USP-GEO
100
AcDbCircle
 10
0.9181718271910668
 20
1.157546918625062
 30
0.0
 40
0.082
100
AcDbArc
 50
346.5712255140362
 51
133.2753416048973
  0
ARC
  5
AF
100
AcDbEntity
  8
USP-GEO
100
AcDbCircle
 10
1.598940880029392
 20
0.8366735063615884
 30
0.0
 40
0.082
100
AcDbArc
 50
170.4549153993735
 51
240.1672550897287
  0
ARC
  5
B0
100
AcDbEntity
  8
USP-GEO
100
AcDbCircle
 10
1.598940880029392
 20
0.8366735063615884
 30
0.0
 40
0.082
100
AcDbArc
 50
240.1672550897287
 51
301.0491542046088
  0
CIRCLE
  5
B1
100
AcDbEntity
  8
USP-GEO
100
AcDbCircle
 10
1.213716746434172
 20
2.069445734672974
 30
0.0
 40
0.082
  0
CIRCLE
  5
B2
100
AcDbEntity
  8
USP-GEO
100
AcDbCircle
 10
0.9494218271910597
 20
1.211673506361591
 30
0.0
 40
0.082
  0
CIRCLE
  5
B3
100
AcDbEntity
  8
USP-GEO
100
AcDbCircle
 10
1.567690880029392
 20
0.7825469186250622
 30
0.0
 40
0.082
  0
CIRCLE
  5
B4
100
AcDbEntity
  8
USP-GEO
100
AcDbCircle
 10
2.531953581921609
 20
1.452698910146029
 30
0.0
 40
0.082
  0
LWPOLYLINE
  5
B5
100
AcDbEntity
  8
USP-GEO
100
AcDbPolyline
 90
        2
 70
   128
 43
0.0
 10
4.267070707970511
 20
0.8863003100823778
 10
1.880113094068732
 20
0.2349012034876843
  0
LWPOLYLINE
  5
B6
100
AcDbEntity
  8
USP-GEO
100
AcDbPolyline
 90
        2
 70
   128
 43
0.0
 10
1.880113094068732
 20
0.2349012034876843
 10
0.0
 20
1.319964070367333
  0
LWPOLYLINE
  5
B7
100
AcDbEntity
  8
USP-GEO
100
AcDbPolyline
 90
        2
 70
   128
 43
0.0
 10
0.0
 20
1.319964070367333
 10
1.211548130296094
 20
3.3997431874006
  0
LWPOLYLINE
  5
B8
100
AcDbEntity
  8
USP-GEO
100
AcDbPolyline
 90
        2
 70
   128
 43
0.0
 10
4.267070707970511
 20
0.8863003100823778
 10
4.592318528184229
 20
1.446449333783778
  0
LWPOLYLINE
  5
B9
100
AcDbEntity
  8
USP-GEO
100
AcDbPolyline
 90
        2
 70
   128
 43
0.0
 10
4.646526498219845
 20
1.356102717057746
 10
4.556179881493815
 20
1.39224136374816
  0
LWPOLYLINE
  5
BA
100
AcDbEntity
  8
USP-GEO
100
AcDbPolyline
 90
        2
 70
   128
 43
0.0
 10
4.700734468255465
 20
1.319964070367333
 10
4.646526498219845
 20
1.356102717057746
  0
LWPOLYLINE
  5
BB
100
AcDbEntity
  8
USP-GEO
100
AcDbPolyline
 90
        2
 70
   128
 43
0.0
 10
4.664595821565054
 20
1.410310687093366
 10
4.700734468255465
 20
1.39224136374816
  0
LWPOLYLINE
  5
BC
100
AcDbEntity
  8
USP-GEO
100
AcDbPolyline
 90
        2
 70
   128
 43
0.0
 10
4.592318528184229
 20
1.446449333783778
 10
4.664595821565054
 20
1.410310687093366
  0
LWPOLYLINE
  5
BD
100
AcDbEntity
  8
USP-GEO
100
AcDbPolyline
 90
        2
 70
   128
 43
0.0
 10
4.592318528184229
 20
1.446449333783778
 10
1.211548130296094
 20
3.3997431874006
  0
LWPOLYLINE
  5
BE
100
AcDbEntity
  8
USP-GEO
100
AcDbPolyline
 90
        2
 70
   128
 43
0.0
 10
4.700734468255465
 20
4.702541400589987
 10
4.700734468255465
 20
0.0
  0
LWPOLYLINE
  5
BF
100
AcDbEntity
  8
USP-GEO
100
AcDbPolyline
 90
        2
 70
   128
 43
0.0
 10
4.754942438291084
 20
4.702541400589987
 10
4.700734468255465
 20
4.702541400589987
  0
LWPOLYLINE
  5
C0
100
AcDbEntity
  8
USP-GEO
100
AcDbPolyline
 90
        2
 70
   128
 43
0.0
 10
4.754942438291084
 20
4.702541400589987
 10
4.754942438291084
 20
0.0
  0
LWPOLYLINE
  5
C1
100
AcDbEntity
  8
USP-GEO
100
AcDbPolyline
 90
        2
 70
   128
 43
0.0
 10
4.754942438291084
 20
0.0
 10
4.700734468255465
 20
0.0
  0
ARC
  5
C2
100
AcDbEntity
  8
USP-GEO
100
AcDbCircle
 10
4.478535814455852
 20
3.873124668605079
 30
0.0
 40
0.1084
100
AcDbArc
 50
294.0458654914646
 51
358.6529341974807
  0
LWPOLYLINE
  5
C3
100
AcDbEntity
  8
USP-GEO
100
AcDbPolyline
 90
        2
 70
   128
 43
0.0
 10
4.592318528184229
 20
4.286043497482978
 10
4.592318528184229
 20
3.870449060543229
  0
LWPOLYLINE
  5
C4
100
AcDbEntity
  8
USP-GEO
100
AcDbPolyline
 90
        2
 70
   128
 43
0.0
 10
4.700734468255465
 20
4.286043497482978
 10
4.592318528184229
 20
4.286043497482978
  0
ARC
  5
C5
100
AcDbEntity
  8
USP-GEO
100
AcDbCircle
 10
4.478535814455852
 20
3.873124668605079
 30
0.0
 40
0.2164
100
AcDbArc
 50
285.1844125733435
 51
359.3101054477711
  0
LWPOLYLINE
  5
C6
100
AcDbEntity
  8
USP-GEO
100
AcDbPolyline
 90
        2
 70
   128
 43
0.0
 10
4.5200412348034
 20
3.65361718040075
 10
4.538110558148609
 20
3.65361718040075
  0
LWPOLYLINE
  5
C7
100
AcDbEntity
  8
USP-GEO
100
AcDbPolyline
 90
        2
 70
   128
 43
0.0
 10
3.742156864792264
 20
3.45395115743622
 10
4.5200412348034
 20
3.65361718040075
  0
ARC
  5
C8
100
AcDbEntity
  8
USP-GEO
100
AcDbCircle
 10
3.748798548581415
 20
3.39744642310816
 30
0.0
 40
0.0542
100
AcDbArc
 50
96.70390379222943
 51
262.7090078145425
  0
ARC
  5
C9
100
AcDbEntity
  8
USP-GEO
100
AcDbCircle
 10
4.478535814455852
 20
3.873124668605083
 30
0.0
 40
0.1084
100
AcDbArc
 50
281.9125602746341
 51
294.0458654914637
  0
LWPOLYLINE
  5
CA
100
AcDbEntity
  8
USP-GEO
100
AcDbPolyline
 90
        2
 70
   128
 43
0.0
 10
4.5200412348034
 20
3.65361718040075
 10
4.5200412348034
 20
3.780102443817197
  0
LWPOLYLINE
  5
CB
100
AcDbEntity
  8
USP-GEO
100
AcDbPolyline
 90
        2
 70
   128
 43
0.0
 10
4.5200412348034
 20
3.020287397151264
 10
4.5200412348034
 20
3.128703337222503
  0
LWPOLYLINE
  5
CC
100
AcDbEntity
  8
USP-GEO
100
AcDbPolyline
 90
        2
 70
   128
 43
0.0
 10
4.538110558148609
 20
3.128703337222503
 10
4.5200412348034
 20
3.128703337222503
  0
LWPOLYLINE
  5
CD
100
AcDbEntity
  8
USP-GEO
100
AcDbPolyline
 90
        2
 70
   128
 43
0.0
 10
4.5200412348034
 20
3.128703337222503
 10
3.742156864792264
 20
3.345535217364981
  0
ARC
  5
CE
100
AcDbEntity
  8
USP-GEO
100
AcDbCircle
 10
4.478535814455849
 20
2.921768177611244
 30
0.0
 40
0.2164
100
AcDbArc
 50
357.4497334391061
 51
73.93937327690479
  0
LWPOLYLINE
  5
CF
100
AcDbEntity
  8
USP-GEO
100
AcDbPolyline
 90
        2
 70
   128
 43
0.0
 10
4.592318528184229
 20
2.495373553973015
 10
4.700734468255465
 20
2.495373553973015
  0
LWPOLYLINE
  5
D0
100
AcDbEntity
  8
USP-GEO
100
AcDbPolyline
 90
        2
 70
   128
 43
0.0
 10
4.592318528184229
 20
2.911871457080025
 10
4.592318528184229
 20
2.495373553973015
  0
ARC
  5
D1
100
AcDbEntity
  8
USP-GEO
100
AcDbCircle
 10
4.478535814455849
 20
2.921768177611244
 30
0.0
 40
0.1084
100
AcDbArc
 50
67.15466702574878
 51
76.61898351825532
  0
ARC
  5
D2
100
AcDbEntity
  8
USP-GEO
100
AcDbCircle
 10
4.478535814455849
 20
2.921768177611244
 30
0.0
 40
0.1084
100
AcDbArc
 50
355.0289740964775
 51
67.15466702574878
  0
LWPOLYLINE
  5
D3
100
AcDbEntity
  8
USP-GEO
100
AcDbPolyline
 90
        2
 70
   128
 43
0.0
 10
3.706018218101849
 20
3.237119277293741
 10
4.501971911458195
 20
3.020287397151264
  0
ARC
  5
D4
100
AcDbEntity
  8
USP-GEO
100
AcDbCircle
 10
3.748798548581415
 20
3.39744642310816
 30
0.0
 40
0.1622
100
AcDbArc
 50
106.1476301423941
 51
255.0597667107939
  0
LWPOLYLINE
  5
D5
100
AcDbEntity
  8
USP-GEO
100
AcDbPolyline
 90
        2
 70
   128
 43
0.0
 10
4.501971911458195
 20
3.76203312047199
 10
3.706018218101849
 20
3.545201240329513
  0
TEXT
  5
D6
100
AcDbEntity
  8
USP-TXT
100
AcDbText
 10
0.1691378858122086
 20
-1.109588423510507
 30
0.0
 40
0.25
  1
TMPH25 - SIDE VIEW
 72
     1
 11
2.377471219145542
 21
-1.109588423510507
 31
0.0
100
AcDbText
  0
ENDBLK
  5
D8
100
AcDbEntity
  8
0
100
AcDbBlockEnd
  0
ENDSEC
  0
SECTION
  2
ENTITIES
  0
INSERT
  5
3
100
AcDbEntity
  8
USP
100
AcDbBlockReference
  2
TMPH25PR_T
 10
0.0067640373007407
 20
13.36654931373645
 30
0.0
  0
INSERT
  5
3C
100
AcDbEntity
  8
USP
100
AcDbBlockReference
  2
TMPH25PR_F
 10
0.0067640373007407
 20
1.737132808761561
 30
0.0
  0
INSERT
  5
AB
100
AcDbEntity
  8
USP
100
AcDbBlockReference
  2
TMPH25PR_S
 10
12.33727028806964
 20
1.737132808761561
 30
0.0
  0
ENDSEC
  0
SECTION
  2
OBJECTS
  0
DICTIONARY
  5
F0
100
AcDbDictionary
  3
ACAD_GROUP
350
EE
  3
ACAD_MLINESTYLE
350
EF
  0
DICTIONARY
  5
9
100
AcDbDictionary
280
     1
  3
ACAD_XREC_ROUNDTRIP
360
A
  0
DICTIONARY
  5
36
100
AcDbDictionary
280
     1
  3
ACAD_XREC_ROUNDTRIP
360
37
  0
DICTIONARY
  5
F3
100
AcDbDictionary
280
     1
  3
ACAD_XREC_ROUNDTRIP
360
F4
  0
DICTIONARY
  5
D9
100
AcDbDictionary
280
     1
  3
ACAD_LAYOUTSELFREF
360
DA
  0
DICTIONARY
  5
DE
100
AcDbDictionary
280
     1
  3
ACAD_LAYOUTSELFREF
360
DF
  0
DICTIONARY
  5
EE
102
{ACAD_REACTORS
330
F0
102
}
100
AcDbDictionary
  0
DICTIONARY
  5
EF
102
{ACAD_REACTORS
330
F0
102
}
100
AcDbDictionary
  3
STANDARD
350
F1
  0
XRECORD
  5
A
102
{ACAD_REACTORS
330
9
102
}
100
AcDbXrecord
102
EXTNAMES
  1
USP-GEO
  2
USP-Geo
  0
XRECORD
  5
37
102
{ACAD_REACTORS
330
36
102
}
100
AcDbXrecord
102
EXTNAMES
  1
USP-TXT
  2
USP-Txt
  0
XRECORD
  5
F4
102
{ACAD_REACTORS
330
F3
102
}
100
AcDbXrecord
102
ACADR14ROUNDTRIP
1000
DSTYLE
1002
{
1070
   276
 70
     2
1070
   277
 70
     5
1002
}
  0
XRECORD
  5
DA
102
{ACAD_REACTORS
330
D9
102
}
100
AcDbXrecord
340
2
  0
XRECORD
  5
DF
102
{ACAD_REACTORS
330
DE
102
}
100
AcDbXrecord
340
0
  0
MLINESTYLE
  5
F1
102
{ACAD_REACTORS
330
EF
102
}
100
AcDbMlineStyle
  2
STANDARD
 70
     0
  3

 62
     0
 51
90.0
 52
90.0
 71
     2
 49
0.5
 62
   256
  6
BYLAYER
 49
-0.5
 62
   256
  6
BYLAYER
  0
ENDSEC
  0
EOF
