  0
SECTION
  2
HEADER
  9
$ACADVER
  1
AC1014
  9
$ACADMAINTVER
 70
     8
  9
$DWGCODEPAGE
  3
ANSI_1252
  9
$INSBASE
 10
0.0
 20
0.0
 30
0.0
  9
$EXTMIN
 10
-0.0073243146353255
 20
1.377188404243534
 30
0.0
  9
$EXTMAX
 10
16.9112128225904
 20
18.39290820587986
 30
0.0
  9
$LIMMIN
 10
0.0
 20
0.0
  9
$LIMMAX
 10
12.0
 20
9.0
  9
$ORTHOMODE
 70
     0
  9
$REGENMODE
 70
     1
  9
$FILLMODE
 70
     1
  9
$QTEXTMODE
 70
     0
  9
$MIRRTEXT
 70
     0
  9
$DRAGMODE
 70
     2
  9
$LTSCALE
 40
1.5
  9
$OSMODE
 70
     0
  9
$ATTMODE
 70
     1
  9
$TEXTSIZE
 40
0.25
  9
$TRACEWID
 40
0.05
  9
$TEXTSTYLE
  7
STANDARD
  9
$CLAYER
  8
USP
  9
$CELTYPE
  6
BYLAYER
  9
$CECOLOR
 62
   256
  9
$CELTSCALE
 40
1.0
  9
$DELOBJ
 70
     1
  9
$DISPSILH
 70
     1
  9
$DIMSCALE
 40
5.0
  9
$DIMASZ
 40
0.125
  9
$DIMEXO
 40
0.0625
  9
$DIMDLI
 40
0.38
  9
$DIMRND
 40
0.0
  9
$DIMDLE
 40
0.0
  9
$DIMEXE
 40
0.09375
  9
$DIMTP
 40
0.0
  9
$DIMTM
 40
0.0
  9
$DIMTXT
 40
0.109375
  9
$DIMCEN
 40
0.0
  9
$DIMTSZ
 40
0.0
  9
$DIMTOL
 70
     0
  9
$DIMLIM
 70
     0
  9
$DIMTIH
 70
     1
  9
$DIMTOH
 70
     1
  9
$DIMSE1
 70
     0
  9
$DIMSE2
 70
     0
  9
$DIMTAD
 70
     0
  9
$DIMZIN
 70
     8
  9
$DIMBLK
  1

  9
$DIMASO
 70
     1
  9
$DIMSHO
 70
     1
  9
$DIMPOST
  1

  9
$DIMAPOST
  1

  9
$DIMALT
 70
     0
  9
$DIMALTD
 70
     2
  9
$DIMALTF
 40
25.4
  9
$DIMLFAC
 40
1.0
  9
$DIMTOFL
 70
     0
  9
$DIMTVP
 40
0.0
  9
$DIMTIX
 70
     0
  9
$DIMSOXD
 70
     0
  9
$DIMSAH
 70
     0
  9
$DIMBLK1
  1

  9
$DIMBLK2
  1

  9
$DIMSTYLE
  2
STANDARD
  9
$DIMCLRD
 70
   256
  9
$DIMCLRE
 70
   256
  9
$DIMCLRT
 70
   256
  9
$DIMTFAC
 40
1.0
  9
$DIMGAP
 40
0.09
  9
$DIMJUST
 70
     0
  9
$DIMSD1
 70
     0
  9
$DIMSD2
 70
     0
  9
$DIMTOLJ
 70
     1
  9
$DIMTZIN
 70
     0
  9
$DIMALTZ
 70
     0
  9
$DIMALTTZ
 70
     0
  9
$DIMFIT
 70
     3
  9
$DIMUPT
 70
     1
  9
$DIMUNIT
 70
     7
  9
$DIMDEC
 70
     4
  9
$DIMTDEC
 70
     4
  9
$DIMALTU
 70
     2
  9
$DIMALTTD
 70
     2
  9
$DIMTXSTY
  7
STANDARD
  9
$DIMAUNIT
 70
     0
  9
$LUNITS
 70
     5
  9
$LUPREC
 70
     6
  9
$SKETCHINC
 40
0.1
  9
$FILLETRAD
 40
0.0
  9
$AUNITS
 70
     0
  9
$AUPREC
 70
     1
  9
$MENU
  1
CUSTOM
  9
$ELEVATION
 40
0.0
  9
$PELEVATION
 40
0.0
  9
$THICKNESS
 40
0.0
  9
$LIMCHECK
 70
     0
  9
$BLIPMODE
 70
     0
  9
$CHAMFERA
 40
0.0
  9
$CHAMFERB
 40
0.0
  9
$CHAMFERC
 40
0.0
  9
$CHAMFERD
 40
0.0
  9
$SKPOLY
 70
     0
  9
$TDCREATE
 40
2451263.621564698
  9
$TDUPDATE
 40
2453026.039352210
  9
$TDINDWG
 40
1.0669261921
  9
$TDUSRTIMER
 40
1.0669261921
  9
$USRTIMER
 70
     1
  9
$ANGBASE
 50
0.0
  9
$ANGDIR
 70
     0
  9
$PDMODE
 70
     0
  9
$PDSIZE
 40
0.0
  9
$PLINEWID
 40
0.0
  9
$COORDS
 70
     2
  9
$SPLFRAME
 70
     0
  9
$SPLINETYPE
 70
     6
  9
$SPLINESEGS
 70
     8
  9
$ATTDIA
 70
     0
  9
$ATTREQ
 70
     0
  9
$HANDLING
 70
     1
  9
$HANDSEED
  5
104
  9
$SURFTAB1
 70
     6
  9
$SURFTAB2
 70
     6
  9
$SURFTYPE
 70
     6
  9
$SURFU
 70
     6
  9
$SURFV
 70
     6
  9
$UCSNAME
  2

  9
$UCSORG
 10
0.0
 20
0.0
 30
0.0
  9
$UCSXDIR
 10
1.0
 20
0.0
 30
0.0
  9
$UCSYDIR
 10
0.0
 20
1.0
 30
0.0
  9
$PUCSNAME
  2

  9
$PUCSORG
 10
0.0
 20
0.0
 30
0.0
  9
$PUCSXDIR
 10
1.0
 20
0.0
 30
0.0
  9
$PUCSYDIR
 10
0.0
 20
1.0
 30
0.0
  9
$USERI1
 70
     0
  9
$USERI2
 70
     0
  9
$USERI3
 70
     0
  9
$USERI4
 70
     0
  9
$USERI5
 70
     0
  9
$USERR1
 40
0.0
  9
$USERR2
 40
0.0
  9
$USERR3
 40
0.0
  9
$USERR4
 40
0.0
  9
$USERR5
 40
0.0
  9
$WORLDVIEW
 70
     1
  9
$SHADEDGE
 70
     3
  9
$SHADEDIF
 70
    70
  9
$TILEMODE
 70
     1
  9
$MAXACTVP
 70
    16
  9
$PINSBASE
 10
0.0
 20
0.0
 30
0.0
  9
$PLIMCHECK
 70
     0
  9
$PEXTMIN
 10
1.000000000000000E+20
 20
1.000000000000000E+20
 30
1.000000000000000E+20
  9
$PEXTMAX
 10
-1.000000000000000E+20
 20
-1.000000000000000E+20
 30
-1.000000000000000E+20
  9
$PLIMMIN
 10
0.0
 20
0.0
  9
$PLIMMAX
 10
12.0
 20
9.0
  9
$UNITMODE
 70
     0
  9
$VISRETAIN
 70
     0
  9
$PLINEGEN
 70
     0
  9
$PSLTSCALE
 70
     0
  9
$TREEDEPTH
 70
  3020
  9
$PICKSTYLE
 70
     1
  9
$CMLSTYLE
  2
STANDARD
  9
$CMLJUST
 70
     0
  9
$CMLSCALE
 40
1.0
  9
$PROXYGRAPHICS
 70
     1
  9
$MEASUREMENT
 70
     0
  0
ENDSEC
  0
SECTION
  2
CLASSES
  0
CLASS
  1
ACDBDICTIONARYWDFLT
  2
AcDbDictionaryWithDefault
  3
AutoCAD 2000
 90
        0
280
     0
281
     0
  0
CLASS
  1
ACDBPLACEHOLDER
  2
AcDbPlaceHolder
  3
AutoCAD 2000
 90
        0
280
     0
281
     0
  0
CLASS
  1
LAYOUT
  2
AcDbLayout
  3
AutoCAD 2000
 90
        0
280
     0
281
     0
  0
CLASS
  1
DICTIONARYVAR
  2
AcDbDictionaryVar
  3
"AutoCAD"
 90
        0
280
     0
281
     0
  0
CLASS
  1
SORTENTSTABLE
  2
AcDbSortentsTable
  3
"AutoCAD"
 90
        0
280
     0
281
     0
  0
CLASS
  1
LONG_TRANSACTION
  2
AcDbLongTransaction
  3
AutoCAD 2000
 90
        0
280
     0
281
     0
  0
CLASS
  1
LWPOLYLINE
  2
AcDbPolyline
  3
"AutoCAD"
 90
        0
280
     0
281
     1
  0
CLASS
  1
HATCH
  2
AcDbHatch
  3
"ACAD_SEDONA"
 90
        0
280
     0
281
     1
  0
CLASS
  1
XRECORD
  2
AcDbXrecord
  3
"<Built In>"
 90
        0
280
     0
281
     0
  0
CLASS
  1
LONG_TRANSACTION
  2
AcDbLongTransaction
  3
AutoCAD 2000
 90
        0
280
     0
281
     0
  0
CLASS
  1
LWPOLYLINE
  2
AcDbPolyline
  3
"AutoCAD"
 90
        0
280
     0
281
     1
  0
CLASS
  1
HATCH
  2
AcDbHatch
  3
"ACAD_SEDONA"
 90
        0
280
     0
281
     1
  0
CLASS
  1
XRECORD
  2
AcDbXrecord
  3
"<Built In>"
 90
        0
280
     0
281
     0
  0
CLASS
  1
LONG_TRANSACTION
  2
AcDbLongTransaction
  3
AutoCAD 2000
 90
        0
280
     0
281
     0
  0
CLASS
  1
LWPOLYLINE
  2
AcDbPolyline
  3
"AutoCAD"
 90
        0
280
     0
281
     1
  0
CLASS
  1
HATCH
  2
AcDbHatch
  3
"ACAD_SEDONA"
 90
        0
280
     0
281
     1
  0
CLASS
  1
XRECORD
  2
AcDbXrecord
  3
"<Built In>"
 90
        0
280
     0
281
     0
  0
CLASS
  1
LONG_TRANSACTION
  2
AcDbLongTransaction
  3
AutoCAD 2000
 90
        0
280
     0
281
     0
  0
CLASS
  1
LWPOLYLINE
  2
AcDbPolyline
  3
"AutoCAD"
 90
        0
280
     0
281
     1
  0
CLASS
  1
HATCH
  2
AcDbHatch
  3
"ACAD_SEDONA"
 90
        0
280
     0
281
     1
  0
CLASS
  1
XRECORD
  2
AcDbXrecord
  3
"<Built In>"
 90
        0
280
     0
281
     0
  0
CLASS
  1
LONG_TRANSACTION
  2
AcDbLongTransaction
  3
AutoCAD 2000
 90
        0
280
     0
281
     0
  0
CLASS
  1
LWPOLYLINE
  2
AcDbPolyline
  3
"AutoCAD"
 90
        0
280
     0
281
     1
  0
CLASS
  1
HATCH
  2
AcDbHatch
  3
"ACAD_SEDONA"
 90
        0
280
     0
281
     1
  0
CLASS
  1
XRECORD
  2
AcDbXrecord
  3
"<Built In>"
 90
        0
280
     0
281
     0
  0
ENDSEC
  0
SECTION
  2
TABLES
  0
TABLE
  2
VPORT
  5
F5
100
AcDbSymbolTable
 70
     1
  0
VPORT
  5
F6
100
AcDbSymbolTableRecord
100
AcDbViewportTableRecord
  2
*ACTIVE
 70
     0
 10
0.0
 20
0.0
 11
1.0
 21
1.0
 12
-0.0004579362767227
 22
11.94801061385246
 13
0.0
 23
0.0
 14
1.0
 24
1.0
 15
0.0
 25
0.0
 16
0.0
 26
0.0
 36
1.0
 17
8.452402229645803
 27
-1.230664625865051
 37
0.5717308169525674
 40
18.80517809425152
 41
1.379227053140096
 42
50.0
 43
0.0
 44
0.0
 50
0.0
 51
0.0
 71
     0
 72
   100
 73
     1
 74
     1
 75
     0
 76
     0
 77
     0
 78
     0
  0
ENDTAB
  0
TABLE
  2
LTYPE
  5
F0
100
AcDbSymbolTable
 70
     1
  0
LTYPE
  5
F1
100
AcDbSymbolTableRecord
100
AcDbLinetypeTableRecord
  2
BYBLOCK
 70
     0
  3

 72
    65
 73
     0
 40
0.0
  0
LTYPE
  5
F2
100
AcDbSymbolTableRecord
100
AcDbLinetypeTableRecord
  2
BYLAYER
 70
     0
  3

 72
    65
 73
     0
 40
0.0
  0
LTYPE
  5
5
100
AcDbSymbolTableRecord
100
AcDbLinetypeTableRecord
  2
CONTINUOUS
 70
     0
  3
Solid line
 72
    65
 73
     0
 40
0.0
  0
ENDTAB
  0
TABLE
  2
LAYER
  5
EE
100
AcDbSymbolTable
 70
     4
  0
LAYER
  5
40
100
AcDbSymbolTableRecord
100
AcDbLayerTableRecord
  2
0
 70
     0
 62
     7
  6
CONTINUOUS
  0
LAYER
  5
8
102
{ACAD_XDICTIONARY
360
9
102
}
100
AcDbSymbolTableRecord
100
AcDbLayerTableRecord
  2
USP-GEO
 70
     0
 62
     7
  6
CONTINUOUS
  0
LAYER
  5
3B
102
{ACAD_XDICTIONARY
360
3C
102
}
100
AcDbSymbolTableRecord
100
AcDbLayerTableRecord
  2
USP-TXT
 70
     0
 62
     7
  6
CONTINUOUS
  0
LAYER
  5
4
100
AcDbSymbolTableRecord
100
AcDbLayerTableRecord
  2
USP
 70
     0
 62
     7
  6
CONTINUOUS
  0
ENDTAB
  0
TABLE
  2
STYLE
  5
EF
100
AcDbSymbolTable
 70
     1
  0
STYLE
  5
3E
100
AcDbSymbolTableRecord
100
AcDbTextStyleTableRecord
  2
STANDARD
 70
     0
 40
0.0
 41
1.0
 50
0.0
 71
     0
 42
0.25
  3
txt
  4

  0
ENDTAB
  0
TABLE
  2
VIEW
  5
F3
100
AcDbSymbolTable
 70
     0
  0
ENDTAB
  0
TABLE
  2
UCS
  5
F4
100
AcDbSymbolTable
 70
     0
  0
ENDTAB
  0
TABLE
  2
APPID
  5
F7
100
AcDbSymbolTable
 70
     1
  0
APPID
  5
81
100
AcDbSymbolTableRecord
100
AcDbRegAppTableRecord
  2
ACAD
 70
     0
  0
ENDTAB
  0
TABLE
  2
DIMSTYLE
  5
F8
100
AcDbSymbolTable
 70
     1
  0
DIMSTYLE
105
FE
102
{ACAD_XDICTIONARY
360
FF
102
}
100
AcDbSymbolTableRecord
100
AcDbDimStyleTableRecord
  2
STANDARD
 70
     0
  3

  4

  5

  6

  7

 40
1.0
 41
0.125
 42
0.0625
 43
0.38
 44
0.09375
 45
0.0
 46
0.0
 47
0.0
 48
0.0
140
0.109375
141
0.0
142
0.0
143
25.4
144
1.0
145
0.0
146
1.0
147
0.09
 71
     0
 72
     0
 73
     1
 74
     1
 75
     0
 76
     0
 77
     0
 78
     8
170
     0
171
     2
172
     0
173
     0
174
     0
175
     0
176
     0
177
     0
178
     0
270
     7
271
     4
272
     4
273
     2
274
     2
340
3E
275
     0
280
     0
281
     0
282
     0
283
     1
284
     0
285
     0
286
     0
287
     3
288
     0
  0
ENDTAB
  0
TABLE
  2
BLOCK_RECORD
  5
1
100
AcDbSymbolTable
 70
     3
  0
BLOCK_RECORD
  5
2
102
{ACAD_XDICTIONARY
360
E5
102
}
100
AcDbSymbolTableRecord
100
AcDbBlockTableRecord
  2
*MODEL_SPACE
  0
BLOCK_RECORD
  5
E9
102
{ACAD_XDICTIONARY
360
EA
102
}
100
AcDbSymbolTableRecord
100
AcDbBlockTableRecord
  2
*PAPER_SPACE
  0
BLOCK_RECORD
  5
6
100
AcDbSymbolTableRecord
100
AcDbBlockTableRecord
  2
TMPH175PR_T
  0
BLOCK_RECORD
  5
43
100
AcDbSymbolTableRecord
100
AcDbBlockTableRecord
  2
TMPH175PR_F
  0
BLOCK_RECORD
  5
B2
100
AcDbSymbolTableRecord
100
AcDbBlockTableRecord
  2
TMPH175PR_S
  0
ENDTAB
  0
ENDSEC
  0
SECTION
  2
BLOCKS
  0
BLOCK
  5
E7
100
AcDbEntity
  8
0
100
AcDbBlockBegin
  2
*MODEL_SPACE
 70
     0
 10
0.0
 20
0.0
 30
0.0
  3
*MODEL_SPACE
  1

  0
ENDBLK
  5
E8
100
AcDbEntity
  8
0
100
AcDbBlockEnd
  0
BLOCK
  5
EC
100
AcDbEntity
 67
     1
  8
0
100
AcDbBlockBegin
  2
*PAPER_SPACE
 70
     0
 10
0.0
 20
0.0
 30
0.0
  3
*PAPER_SPACE
  1

  0
ENDBLK
  5
ED
100
AcDbEntity
 67
     1
  8
0
100
AcDbBlockEnd
  0
BLOCK
  5
3F
100
AcDbEntity
  8
0
100
AcDbBlockBegin
  2
TMPH175PR_T
 70
     0
 10
0.0
 20
0.0
 30
0.0
  3
TMPH175PR_T
  1

  0
LWPOLYLINE
  5
7
100
AcDbEntity
  8
USP-GEO
100
AcDbPolyline
 90
        2
 70
   128
 43
0.0
 10
2.383305377676429
 20
1.191652688838214
 10
2.383305377676429
 20
0.0
  0
LWPOLYLINE
  5
B
100
AcDbEntity
  8
USP-GEO
100
AcDbPolyline
 90
        2
 70
   128
 43
0.0
 10
2.383305377676429
 20
0.0
 10
2.30911331941671
 20
0.0
  0
LWPOLYLINE
  5
C
100
AcDbEntity
  8
USP-GEO
100
AcDbPolyline
 90
        2
 70
   128
 43
0.0
 10
2.30911331941671
 20
1.228290742299805
 10
2.30911331941671
 20
0.0
  0
LWPOLYLINE
  5
D
100
AcDbEntity
  8
USP-GEO
100
AcDbPolyline
 90
        2
 70
   128
 43
0.0
 10
4.197804975361676
 20
0.0
 10
4.25276205555406
 20
0.0
  0
LWPOLYLINE
  5
E
100
AcDbEntity
  8
USP-GEO
100
AcDbPolyline
 90
        2
 70
   128
 43
0.0
 10
4.197804975361676
 20
0.0
 10
4.197804975361676
 20
1.191652688838214
  0
LWPOLYLINE
  5
F
100
AcDbEntity
  8
USP-GEO
100
AcDbPolyline
 90
        2
 70
   128
 43
0.0
 10
4.25276205555406
 20
0.0
 10
4.25276205555406
 20
1.228290742299805
  0
LWPOLYLINE
  5
10
100
AcDbEntity
  8
USP-GEO
100
AcDbPolyline
 90
        2
 70
   128
 43
0.0
 10
3.665637248832081
 20
1.191652688838214
 10
3.665637248832081
 20
1.228290742299805
  0
LWPOLYLINE
  5
11
100
AcDbEntity
  8
USP-GEO
100
AcDbPolyline
 90
        2
 70
   128
 43
0.0
 10
2.914557152869485
 20
1.191652688838214
 10
2.914557152869485
 20
1.228290742299805
  0
LWPOLYLINE
  5
12
100
AcDbEntity
  8
USP-GEO
100
AcDbPolyline
 90
        2
 70
   128
 43
0.0
 10
2.914557152869485
 20
1.191652688838214
 10
2.383305377676429
 20
1.191652688838214
  0
LWPOLYLINE
  5
13
100
AcDbEntity
  8
USP-GEO
100
AcDbPolyline
 90
        2
 70
   128
 43
0.0
 10
3.665637248832081
 20
1.2466097690306
 10
2.914557152869485
 20
1.2466097690306
  0
LWPOLYLINE
  5
14
100
AcDbEntity
  8
USP-GEO
100
AcDbPolyline
 90
        2
 70
   128
 43
0.0
 10
4.197804975361676
 20
1.191652688838214
 10
3.665637248832081
 20
1.191652688838214
  0
LWPOLYLINE
  5
15
100
AcDbEntity
  8
USP-GEO
100
AcDbPolyline
 90
        2
 70
   128
 43
0.0
 10
4.25276205555406
 20
1.228290742299805
 10
4.25276205555406
 20
3.612512071312774
  0
LWPOLYLINE
  5
16
100
AcDbEntity
  8
USP-GEO
100
AcDbPolyline
 90
        2
 70
   128
 43
0.0
 10
3.665637248832081
 20
1.228290742299805
 10
4.25276205555406
 20
1.228290742299805
  0
LWPOLYLINE
  5
17
100
AcDbEntity
  8
USP-GEO
100
AcDbPolyline
 90
        2
 70
   128
 43
0.0
 10
3.665637248832081
 20
1.283247822492189
 10
3.665637248832081
 20
1.228290742299805
  0
LWPOLYLINE
  5
18
100
AcDbEntity
  8
USP-GEO
100
AcDbPolyline
 90
        2
 70
   128
 43
0.0
 10
2.914557152869485
 20
1.283247822492189
 10
3.665637248832081
 20
1.283247822492189
  0
LWPOLYLINE
  5
19
100
AcDbEntity
  8
USP-GEO
100
AcDbPolyline
 90
        2
 70
   128
 43
0.0
 10
2.914557152869485
 20
1.283247822492189
 10
2.914557152869485
 20
1.228290742299805
  0
LWPOLYLINE
  5
1A
100
AcDbEntity
  8
USP-GEO
100
AcDbPolyline
 90
        2
 70
   128
 43
0.0
 10
2.914557152869485
 20
1.228290742299805
 10
2.30911331941671
 20
1.228290742299805
  0
LWPOLYLINE
  5
1B
100
AcDbEntity
  8
USP-GEO
100
AcDbPolyline
 90
        2
 70
   128
 43
0.0
 10
2.30911331941671
 20
3.612512071312774
 10
2.30911331941671
 20
1.228290742299805
  0
LWPOLYLINE
  5
1C
100
AcDbEntity
  8
USP-GEO
100
AcDbPolyline
 90
        2
 70
   128
 43
0.0
 10
0.0
 20
4.712569626497018
 10
2.914557152869485
 20
4.712569626497018
  0
LWPOLYLINE
  5
1D
100
AcDbEntity
  8
USP-GEO
100
AcDbPolyline
 90
        2
 70
   128
 43
0.0
 10
0.0
 20
4.785845733420195
 10
0.0
 20
4.712569626497018
  0
LWPOLYLINE
  5
1E
100
AcDbEntity
  8
USP-GEO
100
AcDbPolyline
 90
        2
 70
   128
 43
0.0
 10
0.0
 20
4.785845733420195
 10
2.914557152869485
 20
4.785845733420195
  0
LWPOLYLINE
  5
1F
100
AcDbEntity
  8
USP-GEO
100
AcDbPolyline
 90
        2
 70
   128
 43
0.0
 10
2.914557152869485
 20
4.785845733420195
 10
2.914557152869485
 20
4.712569626497018
  0
LWPOLYLINE
  5
20
100
AcDbEntity
  8
USP-GEO
100
AcDbPolyline
 90
        2
 70
   128
 43
0.0
 10
2.914557152869485
 20
4.712569626497018
 10
3.665637248832081
 20
4.712569626497018
  0
LWPOLYLINE
  5
21
100
AcDbEntity
  8
USP-GEO
100
AcDbPolyline
 90
        2
 70
   128
 43
0.0
 10
2.914557152869485
 20
4.785845733420195
 10
3.665637248832081
 20
4.785845733420195
  0
LWPOLYLINE
  5
22
100
AcDbEntity
  8
USP-GEO
100
AcDbPolyline
 90
        2
 70
   128
 43
0.0
 10
3.665637248832081
 20
4.712569626497018
 10
6.561875374970772
 20
4.712569626497018
  0
LWPOLYLINE
  5
23
100
AcDbEntity
  8
USP-GEO
100
AcDbPolyline
 90
        2
 70
   128
 43
0.0
 10
3.665637248832081
 20
4.785845733420195
 10
3.665637248832081
 20
4.712569626497018
  0
LWPOLYLINE
  5
24
100
AcDbEntity
  8
USP-GEO
100
AcDbPolyline
 90
        2
 70
   128
 43
0.0
 10
3.665637248832081
 20
4.785845733420195
 10
6.561875374970772
 20
4.785845733420195
  0
LWPOLYLINE
  5
25
100
AcDbEntity
  8
USP-GEO
100
AcDbPolyline
 90
        2
 70
   128
 43
0.0
 10
6.561875374970772
 20
4.785845733420195
 10
6.561875374970772
 20
4.712569626497018
  0
LWPOLYLINE
  5
26
100
AcDbEntity
  8
USP-GEO
100
AcDbPolyline
 90
        2
 70
   128
 43
0.0
 10
1.594671276915705
 20
4.712569626497018
 10
1.594671276915705
 20
4.602655466112246
  0
LWPOLYLINE
  5
27
100
AcDbEntity
  8
USP-GEO
100
AcDbPolyline
 90
        2
 70
   128
 43
0.0
 10
4.985523124785861
 20
4.602655466112246
 10
1.594671276915705
 20
4.602655466112246
  0
LWPOLYLINE
  5
28
100
AcDbEntity
  8
USP-GEO
100
AcDbPolyline
 90
        2
 70
   128
 43
0.0
 10
1.667947383838884
 20
4.547698385919861
 10
1.667947383838884
 20
4.529379359189064
  0
LWPOLYLINE
  5
29
100
AcDbEntity
  8
USP-GEO
100
AcDbPolyline
 90
        2
 70
   128
 43
0.0
 10
1.594671276915705
 20
4.547698385919861
 10
1.667947383838884
 20
4.547698385919861
  0
LWPOLYLINE
  5
2A
100
AcDbEntity
  8
USP-GEO
100
AcDbPolyline
 90
        2
 70
   128
 43
0.0
 10
1.594671276915705
 20
4.602655466112246
 10
1.594671276915705
 20
4.547698385919861
  0
LWPOLYLINE
  5
2B
100
AcDbEntity
  8
USP-GEO
100
AcDbPolyline
 90
        2
 70
   128
 43
0.0
 10
1.667947383838884
 20
4.529379359189064
 10
1.667947383838884
 20
3.722426231697546
  0
LWPOLYLINE
  5
2C
100
AcDbEntity
  8
USP-GEO
100
AcDbPolyline
 90
        2
 70
   128
 43
0.0
 10
1.667947383838884
 20
3.722426231697546
 10
1.667947383838884
 20
3.612512071312774
  0
LWPOLYLINE
  5
2D
100
AcDbEntity
  8
USP-GEO
100
AcDbPolyline
 90
        2
 70
   128
 43
0.0
 10
4.985523124785861
 20
4.547698385919861
 10
4.985523124785861
 20
4.602655466112246
  0
LWPOLYLINE
  5
2E
100
AcDbEntity
  8
USP-GEO
100
AcDbPolyline
 90
        2
 70
   128
 43
0.0
 10
4.985523124785861
 20
4.602655466112246
 10
4.985523124785861
 20
4.712569626497018
  0
LWPOLYLINE
  5
2F
100
AcDbEntity
  8
USP-GEO
100
AcDbPolyline
 90
        2
 70
   128
 43
0.0
 10
4.912247017862681
 20
3.612512071312774
 10
4.912247017862681
 20
3.722426231697546
  0
LWPOLYLINE
  5
30
100
AcDbEntity
  8
USP-GEO
100
AcDbPolyline
 90
        2
 70
   128
 43
0.0
 10
4.912247017862681
 20
3.722426231697546
 10
4.912247017862681
 20
4.529379359189064
  0
LWPOLYLINE
  5
31
100
AcDbEntity
  8
USP-GEO
100
AcDbPolyline
 90
        2
 70
   128
 43
0.0
 10
4.912247017862681
 20
4.529379359189064
 10
4.912247017862681
 20
4.547698385919861
  0
LWPOLYLINE
  5
32
100
AcDbEntity
  8
USP-GEO
100
AcDbPolyline
 90
        2
 70
   128
 43
0.0
 10
4.912247017862681
 20
4.547698385919861
 10
4.985523124785861
 20
4.547698385919861
  0
LWPOLYLINE
  5
33
100
AcDbEntity
  8
USP-GEO
100
AcDbPolyline
 90
        2
 70
   128
 43
0.0
 10
4.912247017862681
 20
3.612512071312774
 10
1.667947383838884
 20
3.612512071312774
  0
LWPOLYLINE
  5
34
100
AcDbEntity
  8
USP-GEO
100
AcDbPolyline
 90
        2
 70
   128
 43
0.0
 10
4.600823563439166
 20
4.584336439381452
 10
4.601739514775705
 20
4.584336439381452
  0
ARC
  5
35
100
AcDbEntity
  8
USP-GEO
100
AcDbCircle
 10
4.599089132143164
 20
5.057150499576035
 30
0.0
 40
0.4759407866466042
100
AcDbArc
 50
254.446618742988
 51
270.2101780715413
  0
ARC
  5
36
100
AcDbEntity
  8
USP-GEO
100
AcDbCircle
 10
4.607061233500268
 20
5.057150499576035
 30
0.0
 40
0.4759407866466042
100
AcDbArc
 50
269.2441607250659
 51
285.0251606380147
  0
LWPOLYLINE
  5
37
100
AcDbEntity
  8
USP-GEO
100
AcDbPolyline
 90
        2
 70
   128
 43
0.0
 10
3.097747420177436
 20
4.584336439381452
 10
3.098663371513976
 20
4.584336439381452
  0
ARC
  5
38
100
AcDbEntity
  8
USP-GEO
100
AcDbCircle
 10
3.098089132143164
 20
5.057150499576035
 30
0.0
 40
0.4759407866466042
100
AcDbArc
 50
254.2039955850556
 51
269.9585912271126
  0
ARC
  5
39
100
AcDbEntity
  8
USP-GEO
100
AcDbCircle
 10
3.106061233500269
 20
5.057150499576035
 30
0.0
 40
0.4759407866466042
100
AcDbArc
 50
268.9926328951415
 51
284.7807441820405
  0
TEXT
  5
3A
100
AcDbEntity
  8
USP-TXT
100
AcDbText
 10
1.081763867517449
 20
-0.758157968242367
 30
0.0
 40
0.25
  1
TMPH175 - TOP VIEW
 72
     1
 11
3.290097200850783
 21
-0.758157968242367
 31
0.0
100
AcDbText
  0
ENDBLK
  5
41
100
AcDbEntity
  8
0
100
AcDbBlockEnd
  0
BLOCK
  5
AF
100
AcDbEntity
  8
0
100
AcDbBlockBegin
  2
TMPH175PR_F
 70
     0
 10
0.0
 20
0.0
 30
0.0
  3
TMPH175PR_F
  1

  0
LWPOLYLINE
  5
44
100
AcDbEntity
  8
USP-GEO
100
AcDbPolyline
 90
        2
 70
   128
 43
0.0
 10
1.53971419672332
 20
1.339120854021116
 10
0.2015092940387451
 20
0.0
  0
LWPOLYLINE
  5
45
100
AcDbEntity
  8
USP-GEO
100
AcDbPolyline
 90
        2
 70
   128
 43
0.0
 10
0.2015092940387451
 20
0.0
 10
0.0
 20
0.0
  0
LWPOLYLINE
  5
46
100
AcDbEntity
  8
USP-GEO
100
AcDbPolyline
 90
        2
 70
   128
 43
0.0
 10
0.0
 20
0.0
 10
0.0
 20
4.694250599766222
  0
LWPOLYLINE
  5
47
100
AcDbEntity
  8
USP-GEO
100
AcDbPolyline
 90
        2
 70
   128
 43
0.0
 10
0.0
 20
4.694250599766222
 10
2.914557152869485
 20
4.694250599766222
  0
LWPOLYLINE
  5
48
100
AcDbEntity
  8
USP-GEO
100
AcDbPolyline
 90
        2
 70
   128
 43
0.0
 10
2.914557152869485
 20
4.694250599766222
 10
2.914557152869485
 20
4.620974492843043
  0
LWPOLYLINE
  5
49
100
AcDbEntity
  8
USP-GEO
100
AcDbPolyline
 90
        2
 70
   128
 43
0.0
 10
2.914557152869485
 20
4.620974492843043
 10
3.665637248832081
 20
4.620974492843043
  0
LWPOLYLINE
  5
4A
100
AcDbEntity
  8
USP-GEO
100
AcDbPolyline
 90
        2
 70
   128
 43
0.0
 10
3.665637248832081
 20
4.694250599766222
 10
3.665637248832081
 20
4.620974492843043
  0
LWPOLYLINE
  5
4B
100
AcDbEntity
  8
USP-GEO
100
AcDbPolyline
 90
        2
 70
   128
 43
0.0
 10
3.665637248832081
 20
4.694250599766222
 10
6.561875374970772
 20
4.694250599766222
  0
LWPOLYLINE
  5
4C
100
AcDbEntity
  8
USP-GEO
100
AcDbPolyline
 90
        2
 70
   128
 43
0.0
 10
6.561875374970772
 20
4.694250599766222
 10
6.561875374970772
 20
0.0
  0
LWPOLYLINE
  5
4D
100
AcDbEntity
  8
USP-GEO
100
AcDbPolyline
 90
        2
 70
   128
 43
0.0
 10
6.561875374970772
 20
0.0
 10
6.360366080932027
 20
0.0
  0
LWPOLYLINE
  5
4E
100
AcDbEntity
  8
USP-GEO
100
AcDbPolyline
 90
        2
 70
   128
 43
0.0
 10
5.022161178247452
 20
1.339120854021116
 10
6.360366080932027
 20
0.0
  0
ARC
  5
4F
100
AcDbEntity
  8
USP-GEO
100
AcDbCircle
 10
4.946075182821718
 20
1.381404451228798
 30
0.0
 40
0.09375
100
AcDbArc
 50
330.9375707090683
 51
88.12753693487026
  0
LWPOLYLINE
  5
50
100
AcDbEntity
  8
USP-GEO
100
AcDbPolyline
 90
        2
 70
   128
 43
0.0
 10
4.948885071324272
 20
1.467354041136681
 10
4.25276205555406
 20
1.467354041136681
  0
LWPOLYLINE
  5
51
100
AcDbEntity
  8
USP-GEO
100
AcDbPolyline
 90
        2
 70
   128
 43
0.0
 10
2.30911331941671
 20
1.467354041136681
 10
1.631309330377295
 20
1.467354041136681
  0
ARC
  5
52
100
AcDbEntity
  8
USP-GEO
100
AcDbCircle
 10
1.633575182821718
 20
1.381404451228798
 30
0.0
 40
0.09375
100
AcDbArc
 50
91.51011446978666
 51
204.2511701668948
  0
CIRCLE
  5
53
100
AcDbEntity
  8
USP-GEO
100
AcDbCircle
 10
0.3835751828217182
 20
0.7564044512287982
 30
0.0
 40
0.082
  0
CIRCLE
  5
54
100
AcDbEntity
  8
USP-GEO
100
AcDbCircle
 10
1.133575182821711
 20
2.068904451228799
 30
0.0
 40
0.082
  0
LWPOLYLINE
  5
55
100
AcDbEntity
  8
USP-GEO
100
AcDbPolyline
 90
        2
 70
   128
 43
0.0
 10
1.887775704608425
 20
2.530773542859332
 10
1.887775704608425
 20
1.687182361906222
  0
LWPOLYLINE
  5
56
100
AcDbEntity
  8
USP-GEO
100
AcDbPolyline
 90
        2
 70
   128
 43
0.0
 10
2.070965971916375
 20
1.687182361906222
 10
2.070965971916375
 20
2.530773542859332
  0
ARC
  5
57
100
AcDbEntity
  8
USP-GEO
100
AcDbCircle
 10
1.977325182821718
 20
1.693904451228799
 30
0.0
 40
0.09375
100
AcDbArc
 50
184.2928934416081
 51
355.8940136359122
  0
CIRCLE
  5
58
100
AcDbEntity
  8
USP-GEO
100
AcDbCircle
 10
6.196075182821725
 20
0.7564044512287982
 30
0.0
 40
0.082
  0
LWPOLYLINE
  5
59
100
AcDbEntity
  8
USP-GEO
100
AcDbPolyline
 90
        2
 70
   128
 43
0.0
 10
5.499371824584662
 20
1.284163773828732
 10
6.067261653239307
 20
1.284163773828732
  0
ARC
  5
5A
100
AcDbEntity
  8
USP-GEO
100
AcDbCircle
 10
5.508575182821718
 20
1.381404451228798
 30
0.0
 40
0.09375
100
AcDbArc
 50
96.11186134227954
 51
264.5933378841591
  0
LWPOLYLINE
  5
5B
100
AcDbEntity
  8
USP-GEO
100
AcDbPolyline
 90
        2
 70
   128
 43
0.0
 10
6.067261653239307
 20
1.467354041136681
 10
5.499371824584662
 20
1.467354041136681
  0
ARC
  5
5C
100
AcDbEntity
  8
USP-GEO
100
AcDbCircle
 10
6.071075182821718
 20
1.381404451228798
 30
0.0
 40
0.09375
100
AcDbArc
 50
267.7541576068589
 51
92.54051168036276
  0
CIRCLE
  5
5D
100
AcDbEntity
  8
USP-GEO
100
AcDbCircle
 10
5.446075182821718
 20
2.068904451228799
 30
0.0
 40
0.082
  0
CIRCLE
  5
5E
100
AcDbEntity
  8
USP-GEO
100
AcDbCircle
 10
6.071075182821718
 20
2.568904451228799
 30
0.0
 40
0.082
  0
CIRCLE
  5
5F
100
AcDbEntity
  8
USP-GEO
100
AcDbCircle
 10
1.133575182821718
 20
4.318904451228799
 30
0.0
 40
0.082
  0
CIRCLE
  5
60
100
AcDbEntity
  8
USP-GEO
100
AcDbCircle
 10
5.446075182821725
 20
4.318904451228799
 30
0.0
 40
0.082
  0
LWPOLYLINE
  5
61
100
AcDbEntity
  8
USP-GEO
100
AcDbPolyline
 90
        2
 70
   128
 43
0.0
 10
3.189342553831411
 20
4.327870065150323
 10
3.189342553831411
 20
4.437784225535093
  0
LWPOLYLINE
  5
62
100
AcDbEntity
  8
USP-GEO
100
AcDbPolyline
 90
        2
 70
   128
 43
0.0
 10
3.00615228652346
 20
4.437784225535093
 10
3.00615228652346
 20
4.327870065150323
  0
ARC
  5
63
100
AcDbEntity
  8
USP-GEO
100
AcDbCircle
 10
3.102075182821717
 20
4.443904451228799
 30
0.0
 40
0.09375
100
AcDbArc
 50
355.9883072162847
 51
183.6507282026708
  0
LWPOLYLINE
  5
64
100
AcDbEntity
  8
USP-GEO
100
AcDbPolyline
 90
        2
 70
   128
 43
0.0
 10
4.509228429785191
 20
4.437784225535093
 10
4.509228429785191
 20
4.327870065150323
  0
ARC
  5
65
100
AcDbEntity
  8
USP-GEO
100
AcDbCircle
 10
4.602325182821718
 20
4.443904451228799
 30
0.0
 40
0.09375
100
AcDbArc
 50
356.1137581732988
 51
183.7612401057335
  0
LWPOLYLINE
  5
66
100
AcDbEntity
  8
USP-GEO
100
AcDbPolyline
 90
        2
 70
   128
 43
0.0
 10
4.692418697093141
 20
4.327870065150323
 10
4.692418697093141
 20
4.437784225535093
  0
CIRCLE
  5
67
100
AcDbEntity
  8
USP-GEO
100
AcDbCircle
 10
0.5085751828217182
 20
3.818904451228799
 30
0.0
 40
0.082
  0
LWPOLYLINE
  5
68
100
AcDbEntity
  8
USP-GEO
100
AcDbPolyline
 90
        2
 70
   128
 43
0.0
 10
0.5129327484622604
 20
1.284163773828732
 10
1.063419501722649
 20
1.284163773828732
  0
ARC
  5
69
100
AcDbEntity
  8
USP-GEO
100
AcDbCircle
 10
0.5085751828217182
 20
1.381404451228798
 30
0.0
 40
0.09375
100
AcDbArc
 50
87.09764138964125
 51
272.5658315481631
  0
LWPOLYLINE
  5
6A
100
AcDbEntity
  8
USP-GEO
100
AcDbPolyline
 90
        2
 70
   128
 43
0.0
 10
1.063419501722649
 20
1.467354041136681
 10
0.5129327484622604
 20
1.467354041136681
  0
ARC
  5
6B
100
AcDbEntity
  8
USP-GEO
100
AcDbCircle
 10
1.071075182821718
 20
1.381404451228798
 30
0.0
 40
0.09375
100
AcDbArc
 50
265.4984342466248
 51
95.09000320089418
  0
LWPOLYLINE
  5
6C
100
AcDbEntity
  8
USP-GEO
100
AcDbPolyline
 90
        2
 70
   128
 43
0.0
 10
2.383305377676429
 20
1.284163773828732
 10
2.383305377676429
 20
0.2024252453752862
  0
LWPOLYLINE
  5
6D
100
AcDbEntity
  8
USP-GEO
100
AcDbPolyline
 90
        2
 70
   128
 43
0.0
 10
2.383305377676429
 20
0.2024252453752862
 10
2.30911331941671
 20
0.2024252453752862
  0
LWPOLYLINE
  5
6E
100
AcDbEntity
  8
USP-GEO
100
AcDbPolyline
 90
        2
 70
   128
 43
0.0
 10
2.30911331941671
 20
1.284163773828732
 10
2.30911331941671
 20
0.2024252453752862
  0
LWPOLYLINE
  5
6F
100
AcDbEntity
  8
USP-GEO
100
AcDbPolyline
 90
        2
 70
   128
 43
0.0
 10
2.383305377676429
 20
3.356045697081647
 10
2.383305377676429
 20
1.284163773828732
  0
LWPOLYLINE
  5
70
100
AcDbEntity
  8
USP-GEO
100
AcDbPolyline
 90
        2
 70
   128
 43
0.0
 10
2.383305377676429
 20
1.284163773828732
 10
2.30911331941671
 20
1.284163773828732
  0
LWPOLYLINE
  5
71
100
AcDbEntity
  8
USP-GEO
100
AcDbPolyline
 90
        2
 70
   128
 43
0.0
 10
2.30911331941671
 20
3.392683750543238
 10
2.30911331941671
 20
1.284163773828732
  0
LWPOLYLINE
  5
72
100
AcDbEntity
  8
USP-GEO
100
AcDbPolyline
 90
        2
 70
   128
 43
0.0
 10
4.197804975361676
 20
0.2024252453752862
 10
4.25276205555406
 20
0.2024252453752862
  0
LWPOLYLINE
  5
73
100
AcDbEntity
  8
USP-GEO
100
AcDbPolyline
 90
        2
 70
   128
 43
0.0
 10
4.197804975361676
 20
0.2024252453752862
 10
4.197804975361676
 20
1.284163773828732
  0
LWPOLYLINE
  5
74
100
AcDbEntity
  8
USP-GEO
100
AcDbPolyline
 90
        2
 70
   128
 43
0.0
 10
4.197804975361676
 20
1.284163773828732
 10
4.25276205555406
 20
1.284163773828732
  0
LWPOLYLINE
  5
75
100
AcDbEntity
  8
USP-GEO
100
AcDbPolyline
 90
        2
 70
   128
 43
0.0
 10
4.197804975361676
 20
1.284163773828732
 10
4.197804975361676
 20
3.356045697081647
  0
LWPOLYLINE
  5
76
100
AcDbEntity
  8
USP-GEO
100
AcDbPolyline
 90
        2
 70
   128
 43
0.0
 10
4.25276205555406
 20
0.2024252453752862
 10
4.25276205555406
 20
1.284163773828732
  0
LWPOLYLINE
  5
77
100
AcDbEntity
  8
USP-GEO
100
AcDbPolyline
 90
        2
 70
   128
 43
0.0
 10
4.25276205555406
 20
1.284163773828732
 10
4.25276205555406
 20
3.392683750543238
  0
LWPOLYLINE
  5
78
100
AcDbEntity
  8
USP-GEO
100
AcDbPolyline
 90
        2
 70
   128
 43
0.0
 10
3.665637248832081
 20
3.356045697081647
 10
3.665637248832081
 20
3.392683750543238
  0
LWPOLYLINE
  5
79
100
AcDbEntity
  8
USP-GEO
100
AcDbPolyline
 90
        2
 70
   128
 43
0.0
 10
2.914557152869485
 20
3.356045697081647
 10
2.914557152869485
 20
3.392683750543238
  0
LWPOLYLINE
  5
7A
100
AcDbEntity
  8
USP-GEO
100
AcDbPolyline
 90
        2
 70
   128
 43
0.0
 10
2.914557152869485
 20
3.356045697081647
 10
2.383305377676429
 20
3.356045697081647
  0
LWPOLYLINE
  5
7B
100
AcDbEntity
  8
USP-GEO
100
AcDbPolyline
 90
        2
 70
   128
 43
0.0
 10
2.914557152869485
 20
3.319407643620056
 10
2.914557152869485
 20
3.356045697081647
  0
LWPOLYLINE
  5
7C
100
AcDbEntity
  8
USP-GEO
100
AcDbPolyline
 90
        2
 70
   128
 43
0.0
 10
3.665637248832081
 20
3.319407643620056
 10
2.914557152869485
 20
3.319407643620056
  0
LWPOLYLINE
  5
7D
100
AcDbEntity
  8
USP-GEO
100
AcDbPolyline
 90
        2
 70
   128
 43
0.0
 10
3.665637248832081
 20
3.356045697081647
 10
3.665637248832081
 20
3.319407643620056
  0
LWPOLYLINE
  5
7E
100
AcDbEntity
  8
USP-GEO
100
AcDbPolyline
 90
        2
 70
   128
 43
0.0
 10
4.197804975361676
 20
3.356045697081647
 10
3.665637248832081
 20
3.356045697081647
  0
LWPOLYLINE
  5
7F
100
AcDbEntity
  8
USP-GEO
100
AcDbPolyline
 90
        2
 70
   128
 43
0.0
 10
4.014614708053726
 20
1.394077934213502
 10
4.197804975361676
 20
1.394077934213502
  0
ELLIPSE
  5
80
100
AcDbEntity
  8
USP-GEO
  6
CONTINUOUS
100
AcDbEllipse
 10
4.008575182821714
 20
1.349904451228798
 30
0.0
 11
-0.09375
 21
0.0
 31
0.0
210
0.0
220
0.0
230
1.0
 40
0.5
 41
4.64413374019383
 42
6.487903792684445
1001
ACAD
1000
RTLwPs
1070
   128
  0
LWPOLYLINE
  5
82
100
AcDbEntity
  8
USP-GEO
100
AcDbPolyline
 90
        2
 70
   128
 43
0.0
 10
3.904700547668956
 20
1.320801827290321
 10
3.904700547668956
 20
1.339120854021116
  0
LWPOLYLINE
  5
83
100
AcDbEntity
  8
USP-GEO
100
AcDbPolyline
 90
        2
 70
   128
 43
0.0
 10
3.904700547668956
 20
1.320801827290321
 10
2.658090778638356
 20
1.320801827290321
  0
LWPOLYLINE
  5
84
100
AcDbEntity
  8
USP-GEO
100
AcDbPolyline
 90
        2
 70
   128
 43
0.0
 10
2.658090778638356
 20
1.339120854021116
 10
2.658090778638356
 20
1.320801827290321
  0
ELLIPSE
  5
85
100
AcDbEntity
  8
USP-GEO
  6
CONTINUOUS
100
AcDbEllipse
 10
2.571075182821714
 20
1.349904451228798
 30
0.0
 11
-0.0937499999999965
 21
0.0
 31
0.0
210
0.0
220
0.0
230
1.0
 40
0.5
 41
2.898634437916412
 42
4.76417845294712
1001
ACAD
1000
RTLwPs
1070
   128
  0
LWPOLYLINE
  5
86
100
AcDbEntity
  8
USP-GEO
100
AcDbPolyline
 90
        2
 70
   128
 43
0.0
 10
2.383305377676429
 20
1.394077934213502
 10
2.566495644984381
 20
1.394077934213502
  0
LWPOLYLINE
  5
87
100
AcDbEntity
  8
USP-GEO
100
AcDbPolyline
 90
        2
 70
   128
 43
0.0
 10
3.665637248832081
 20
3.392683750543238
 10
4.25276205555406
 20
3.392683750543238
  0
LWPOLYLINE
  5
88
100
AcDbEntity
  8
USP-GEO
100
AcDbPolyline
 90
        2
 70
   128
 43
0.0
 10
2.914557152869485
 20
3.374364723812442
 10
3.665637248832081
 20
3.374364723812442
  0
LWPOLYLINE
  5
89
100
AcDbEntity
  8
USP-GEO
100
AcDbPolyline
 90
        2
 70
   128
 43
0.0
 10
2.914557152869485
 20
3.392683750543238
 10
2.30911331941671
 20
3.392683750543238
  0
LWPOLYLINE
  5
8A
100
AcDbEntity
  8
USP-GEO
100
AcDbPolyline
 90
        2
 70
   128
 43
0.0
 10
2.30911331941671
 20
2.530773542859332
 10
1.594671276915705
 20
2.530773542859332
  0
LWPOLYLINE
  5
8B
100
AcDbEntity
  8
USP-GEO
100
AcDbPolyline
 90
        2
 70
   128
 43
0.0
 10
4.985523124785861
 20
2.530773542859332
 10
4.25276205555406
 20
2.530773542859332
  0
LWPOLYLINE
  5
8C
100
AcDbEntity
  8
USP-GEO
100
AcDbPolyline
 90
        2
 70
   128
 43
0.0
 10
1.594671276915705
 20
3.062941269388927
 10
1.594671276915705
 20
2.953027109004157
  0
LWPOLYLINE
  5
8D
100
AcDbEntity
  8
USP-GEO
100
AcDbPolyline
 90
        2
 70
   128
 43
0.0
 10
1.594671276915705
 20
2.953027109004157
 10
1.594671276915705
 20
2.530773542859332
  0
LWPOLYLINE
  5
8E
100
AcDbEntity
  8
USP-GEO
100
AcDbPolyline
 90
        2
 70
   128
 43
0.0
 10
1.594671276915705
 20
3.814021365351523
 10
1.594671276915705
 20
3.704107204966753
  0
LWPOLYLINE
  5
8F
100
AcDbEntity
  8
USP-GEO
100
AcDbPolyline
 90
        2
 70
   128
 43
0.0
 10
1.594671276915705
 20
3.172855429773697
 10
1.594671276915705
 20
3.062941269388927
  0
LWPOLYLINE
  5
90
100
AcDbEntity
  8
USP-GEO
100
AcDbPolyline
 90
        2
 70
   128
 43
0.0
 10
1.594671276915705
 20
3.172855429773697
 10
1.667947383838884
 20
3.172855429773697
  0
LWPOLYLINE
  5
91
100
AcDbEntity
  8
USP-GEO
100
AcDbPolyline
 90
        2
 70
   128
 43
0.0
 10
1.667947383838884
 20
3.062941269388927
 10
1.594671276915705
 20
3.062941269388927
  0
LWPOLYLINE
  5
92
100
AcDbEntity
  8
USP-GEO
100
AcDbPolyline
 90
        2
 70
   128
 43
0.0
 10
1.667947383838884
 20
3.282769590158467
 10
1.667947383838884
 20
3.062941269388927
  0
LWPOLYLINE
  5
93
100
AcDbEntity
  8
USP-GEO
100
AcDbPolyline
 90
        2
 70
   128
 43
0.0
 10
1.667947383838884
 20
3.062941269388927
 10
1.668863335175425
 20
3.062941269388927
  0
LWPOLYLINE
  5
94
100
AcDbEntity
  8
USP-GEO
100
AcDbPolyline
 90
        2
 70
   128
 43
0.0
 10
1.667947383838884
 20
3.704107204966753
 10
1.594671276915705
 20
3.704107204966753
  0
LWPOLYLINE
  5
95
100
AcDbEntity
  8
USP-GEO
100
AcDbPolyline
 90
        2
 70
   128
 43
0.0
 10
1.594671276915705
 20
4.327870065150323
 10
1.594671276915705
 20
3.905616499005498
  0
LWPOLYLINE
  5
96
100
AcDbEntity
  8
USP-GEO
100
AcDbPolyline
 90
        2
 70
   128
 43
0.0
 10
4.985523124785861
 20
4.327870065150323
 10
1.594671276915705
 20
4.327870065150323
  0
LWPOLYLINE
  5
97
100
AcDbEntity
  8
USP-GEO
100
AcDbPolyline
 90
        2
 70
   128
 43
0.0
 10
1.667947383838884
 20
3.814021365351523
 10
1.667947383838884
 20
3.795702338620728
  0
LWPOLYLINE
  5
98
100
AcDbEntity
  8
USP-GEO
100
AcDbPolyline
 90
        2
 70
   128
 43
0.0
 10
1.594671276915705
 20
3.814021365351523
 10
1.667947383838884
 20
3.814021365351523
  0
LWPOLYLINE
  5
99
100
AcDbEntity
  8
USP-GEO
100
AcDbPolyline
 90
        2
 70
   128
 43
0.0
 10
1.594671276915705
 20
3.905616499005498
 10
1.594671276915705
 20
3.814021365351523
  0
LWPOLYLINE
  5
9A
100
AcDbEntity
  8
USP-GEO
100
AcDbPolyline
 90
        2
 70
   128
 43
0.0
 10
1.667947383838884
 20
3.795702338620728
 10
1.667947383838884
 20
3.594193044581983
  0
LWPOLYLINE
  5
9B
100
AcDbEntity
  8
USP-GEO
100
AcDbPolyline
 90
        2
 70
   128
 43
0.0
 10
1.667947383838884
 20
3.594193044581983
 10
1.667947383838884
 20
3.282769590158467
  0
LWPOLYLINE
  5
9C
100
AcDbEntity
  8
USP-GEO
100
AcDbPolyline
 90
        2
 70
   128
 43
0.0
 10
4.985523124785861
 20
3.814021365351523
 10
4.985523124785861
 20
3.905616499005498
  0
LWPOLYLINE
  5
9D
100
AcDbEntity
  8
USP-GEO
100
AcDbPolyline
 90
        2
 70
   128
 43
0.0
 10
4.985523124785861
 20
3.905616499005498
 10
4.985523124785861
 20
4.327870065150323
  0
LWPOLYLINE
  5
9E
100
AcDbEntity
  8
USP-GEO
100
AcDbPolyline
 90
        2
 70
   128
 43
0.0
 10
4.985523124785861
 20
2.530773542859332
 10
4.985523124785861
 20
2.953027109004157
  0
LWPOLYLINE
  5
9F
100
AcDbEntity
  8
USP-GEO
100
AcDbPolyline
 90
        2
 70
   128
 43
0.0
 10
4.985523124785861
 20
2.953027109004157
 10
4.985523124785861
 20
3.062941269388927
  0
LWPOLYLINE
  5
A0
100
AcDbEntity
  8
USP-GEO
100
AcDbPolyline
 90
        2
 70
   128
 43
0.0
 10
4.912247017862681
 20
3.062941269388927
 10
4.913162969199221
 20
3.062941269388927
  0
LWPOLYLINE
  5
A1
100
AcDbEntity
  8
USP-GEO
100
AcDbPolyline
 90
        2
 70
   128
 43
0.0
 10
4.912247017862681
 20
3.062941269388927
 10
4.912247017862681
 20
3.282769590158467
  0
LWPOLYLINE
  5
A2
100
AcDbEntity
  8
USP-GEO
100
AcDbPolyline
 90
        2
 70
   128
 43
0.0
 10
4.912247017862681
 20
3.282769590158467
 10
4.912247017862681
 20
3.594193044581983
  0
LWPOLYLINE
  5
A3
100
AcDbEntity
  8
USP-GEO
100
AcDbPolyline
 90
        2
 70
   128
 43
0.0
 10
4.912247017862681
 20
3.594193044581983
 10
4.912247017862681
 20
3.795702338620728
  0
LWPOLYLINE
  5
A4
100
AcDbEntity
  8
USP-GEO
100
AcDbPolyline
 90
        2
 70
   128
 43
0.0
 10
4.912247017862681
 20
3.795702338620728
 10
4.912247017862681
 20
3.814021365351523
  0
LWPOLYLINE
  5
A5
100
AcDbEntity
  8
USP-GEO
100
AcDbPolyline
 90
        2
 70
   128
 43
0.0
 10
4.985523124785861
 20
3.704107204966753
 10
4.985523124785861
 20
3.814021365351523
  0
LWPOLYLINE
  5
A6
100
AcDbEntity
  8
USP-GEO
100
AcDbPolyline
 90
        2
 70
   128
 43
0.0
 10
4.985523124785861
 20
3.704107204966753
 10
4.912247017862681
 20
3.704107204966753
  0
LWPOLYLINE
  5
A7
100
AcDbEntity
  8
USP-GEO
100
AcDbPolyline
 90
        2
 70
   128
 43
0.0
 10
4.912247017862681
 20
3.814021365351523
 10
4.985523124785861
 20
3.814021365351523
  0
LWPOLYLINE
  5
A8
100
AcDbEntity
  8
USP-GEO
100
AcDbPolyline
 90
        2
 70
   128
 43
0.0
 10
4.912247017862681
 20
3.172855429773697
 10
4.985523124785861
 20
3.172855429773697
  0
LWPOLYLINE
  5
A9
100
AcDbEntity
  8
USP-GEO
100
AcDbPolyline
 90
        2
 70
   128
 43
0.0
 10
4.985523124785861
 20
3.062941269388927
 10
4.985523124785861
 20
3.172855429773697
  0
LWPOLYLINE
  5
AA
100
AcDbEntity
  8
USP-GEO
100
AcDbPolyline
 90
        2
 70
   128
 43
0.0
 10
4.985523124785861
 20
3.062941269388927
 10
4.912247017862681
 20
3.062941269388927
  0
CIRCLE
  5
AB
100
AcDbEntity
  8
USP-GEO
100
AcDbCircle
 10
1.978075182821716
 20
2.793261390701356
 30
0.0
 40
0.125
  0
CIRCLE
  5
AC
100
AcDbEntity
  8
USP-GEO
100
AcDbCircle
 10
3.102075182821717
 20
4.07826139070136
 30
0.0
 40
0.125
  0
CIRCLE
  5
AD
100
AcDbEntity
  8
USP-GEO
100
AcDbCircle
 10
4.603075182821716
 20
4.07826139070136
 30
0.0
 40
0.125
  0
TEXT
  5
AE
100
AcDbEntity
  8
USP-TXT
100
AcDbText
 10
0.8317638675174512
 20
-0.9710002394695198
 30
0.0
 40
0.25
  1
TMPH175 - FRONT VIEW
 72
     1
 11
3.290097200850783
 21
-0.9710002394695198
 31
0.0
100
AcDbText
  0
ENDBLK
  5
B0
100
AcDbEntity
  8
0
100
AcDbBlockEnd
  0
BLOCK
  5
E3
100
AcDbEntity
  8
0
100
AcDbBlockBegin
  2
TMPH175PR_S
 70
     0
 10
0.0
 20
0.0
 30
0.0
  3
TMPH175PR_S
  1

  0
LWPOLYLINE
  5
B3
100
AcDbEntity
  8
USP-GEO
100
AcDbPolyline
 90
        2
 70
   128
 43
0.0
 10
4.58250453670837
 20
1.394077934213502
 10
1.191652688838214
 20
3.356045697081647
  0
ARC
  5
B4
100
AcDbEntity
  8
USP-GEO
100
AcDbCircle
 10
0.922208269645278
 20
1.126227055923394
 30
0.0
 40
0.082
100
AcDbArc
 50
355.4035122504497
 51
122.8858062884367
  0
ARC
  5
B5
100
AcDbEntity
  8
USP-GEO
100
AcDbCircle
 10
1.602977322483607
 20
0.8053536436599202
 30
0.0
 40
0.082
100
AcDbArc
 50
178.8768139767269
 51
237.910649013985
  0
ARC
  5
B6
100
AcDbEntity
  8
USP-GEO
100
AcDbCircle
 10
1.602977322483607
 20
0.8053536436599202
 30
0.0
 40
0.082
100
AcDbArc
 50
237.910649013985
 51
303.0582617237088
  0
CIRCLE
  5
B7
100
AcDbEntity
  8
USP-GEO
100
AcDbCircle
 10
2.346935578713551
 20
1.443927142160529
 30
0.0
 40
0.082
  0
CIRCLE
  5
B8
100
AcDbEntity
  8
USP-GEO
100
AcDbCircle
 10
1.03294556775306
 20
2.31802968253897
 30
0.0
 40
0.082
  0
CIRCLE
  5
B9
100
AcDbEntity
  8
USP-GEO
100
AcDbCircle
 10
1.571727322483607
 20
0.7512270559233923
 30
0.0
 40
0.082
  0
CIRCLE
  5
BA
100
AcDbEntity
  8
USP-GEO
100
AcDbCircle
 10
0.953458269645278
 20
1.180353643659922
 30
0.0
 40
0.082
  0
LWPOLYLINE
  5
BB
100
AcDbEntity
  8
USP-GEO
100
AcDbPolyline
 90
        2
 70
   128
 43
0.0
 10
4.271081082284855
 20
0.843591180953112
 10
1.869456677877629
 20
0.2024252453752862
  0
LWPOLYLINE
  5
BC
100
AcDbEntity
  8
USP-GEO
100
AcDbPolyline
 90
        2
 70
   128
 43
0.0
 10
1.869456677877629
 20
0.2024252453752862
 10
0.0
 20
1.284163773828732
  0
LWPOLYLINE
  5
BD
100
AcDbEntity
  8
USP-GEO
100
AcDbPolyline
 90
        2
 70
   128
 43
0.0
 10
0.0
 20
1.284163773828732
 10
1.228290742299805
 20
3.392683750543238
  0
LWPOLYLINE
  5
BE
100
AcDbEntity
  8
USP-GEO
100
AcDbPolyline
 90
        2
 70
   128
 43
0.0
 10
4.61914259016996
 20
1.449035014405886
 10
4.271081082284855
 20
0.843591180953112
  0
LWPOLYLINE
  5
BF
100
AcDbEntity
  8
USP-GEO
100
AcDbPolyline
 90
        2
 70
   128
 43
0.0
 10
4.655780643631551
 20
1.339120854021116
 10
4.58250453670837
 20
1.394077934213502
  0
LWPOLYLINE
  5
C0
100
AcDbEntity
  8
USP-GEO
100
AcDbPolyline
 90
        2
 70
   128
 43
0.0
 10
4.710737723823935
 20
1.320801827290321
 10
4.655780643631551
 20
1.339120854021116
  0
LWPOLYLINE
  5
C1
100
AcDbEntity
  8
USP-GEO
100
AcDbPolyline
 90
        2
 70
   128
 43
0.0
 10
4.710737723823935
 20
1.394077934213502
 10
4.692418697093142
 20
1.394077934213502
  0
LWPOLYLINE
  5
C2
100
AcDbEntity
  8
USP-GEO
100
AcDbPolyline
 90
        2
 70
   128
 43
0.0
 10
4.61914259016996
 20
1.449035014405886
 10
4.692418697093142
 20
1.394077934213502
  0
LWPOLYLINE
  5
C3
100
AcDbEntity
  8
USP-GEO
100
AcDbPolyline
 90
        2
 70
   128
 43
0.0
 10
1.228290742299805
 20
3.392683750543238
 10
4.61914259016996
 20
1.449035014405886
  0
LWPOLYLINE
  5
C4
100
AcDbEntity
  8
USP-GEO
100
AcDbPolyline
 90
        2
 70
   128
 43
0.0
 10
4.710737723823935
 20
4.694250599766222
 10
4.710737723823935
 20
0.0
  0
LWPOLYLINE
  5
C5
100
AcDbEntity
  8
USP-GEO
100
AcDbPolyline
 90
        2
 70
   128
 43
0.0
 10
4.784013830747117
 20
4.694250599766222
 10
4.710737723823935
 20
4.694250599766222
  0
LWPOLYLINE
  5
C6
100
AcDbEntity
  8
USP-GEO
100
AcDbPolyline
 90
        2
 70
   128
 43
0.0
 10
4.784013830747117
 20
4.694250599766222
 10
4.784013830747117
 20
0.0
  0
LWPOLYLINE
  5
C7
100
AcDbEntity
  8
USP-GEO
100
AcDbPolyline
 90
        2
 70
   128
 43
0.0
 10
4.784013830747117
 20
0.0
 10
4.710737723823935
 20
0.0
  0
ARC
  5
C8
100
AcDbEntity
  8
USP-GEO
100
AcDbCircle
 10
4.49794725691007
 20
3.911439636198277
 30
0.0
 40
0.1084
100
AcDbArc
 50
296.1921840908051
 51
356.7603274448153
  0
LWPOLYLINE
  5
C9
100
AcDbEntity
  8
USP-GEO
100
AcDbPolyline
 90
        2
 70
   128
 43
0.0
 10
4.600823563439167
 20
3.905616499005498
 10
4.600823563439167
 20
4.327870065150323
  0
LWPOLYLINE
  5
CA
100
AcDbEntity
  8
USP-GEO
100
AcDbPolyline
 90
        2
 70
   128
 43
0.0
 10
4.600823563439167
 20
4.327870065150323
 10
4.710737723823935
 20
4.327870065150323
  0
ARC
  5
CB
100
AcDbEntity
  8
USP-GEO
100
AcDbCircle
 10
4.49794725691007
 20
3.911439636198277
 30
0.0
 40
0.2164
100
AcDbArc
 50
287.7175629851169
 51
358.432458269119
  0
LWPOLYLINE
  5
CC
100
AcDbEntity
  8
USP-GEO
100
AcDbPolyline
 90
        2
 70
   128
 43
0.0
 10
4.564185509977576
 20
3.704107204966753
 10
4.545866483246783
 20
3.704107204966753
  0
LWPOLYLINE
  5
CD
100
AcDbEntity
  8
USP-GEO
100
AcDbPolyline
 90
        2
 70
   128
 43
0.0
 10
4.545866483246783
 20
3.172855429773697
 10
4.564185509977576
 20
3.172855429773697
  0
ARC
  5
CE
100
AcDbEntity
  8
USP-GEO
100
AcDbCircle
 10
4.49794725691007
 20
2.960083145204439
 30
0.0
 40
0.2164
100
AcDbArc
 50
358.1007936052242
 51
72.7080845768641
  0
LWPOLYLINE
  5
CF
100
AcDbEntity
  8
USP-GEO
100
AcDbPolyline
 90
        2
 70
   128
 43
0.0
 10
4.710737723823935
 20
2.530773542859332
 10
4.600823563439167
 20
2.530773542859332
  0
LWPOLYLINE
  5
D0
100
AcDbEntity
  8
USP-GEO
100
AcDbPolyline
 90
        2
 70
   128
 43
0.0
 10
4.600823563439167
 20
2.530773542859332
 10
4.600823563439167
 20
2.953027109004157
  0
ARC
  5
D1
100
AcDbEntity
  8
USP-GEO
100
AcDbCircle
 10
4.49794725691007
 20
2.960083145204439
 30
0.0
 40
0.1084
100
AcDbArc
 50
356.0763664229459
 51
65.02027480280131
  0
LWPOLYLINE
  5
D2
100
AcDbEntity
  8
USP-GEO
100
AcDbPolyline
 90
        2
 70
   128
 43
0.0
 10
4.545866483246783
 20
3.704107204966753
 10
3.757232382486055
 20
3.484278884197212
  0
ARC
  5
D3
100
AcDbEntity
  8
USP-GEO
100
AcDbCircle
 10
3.768209991035632
 20
3.435761390701358
 30
0.0
 40
0.0542
100
AcDbArc
 50
102.7491244224502
 51
259.8627418087084
  0
LWPOLYLINE
  5
D4
100
AcDbEntity
  8
USP-GEO
100
AcDbPolyline
 90
        2
 70
   128
 43
0.0
 10
3.757232382486055
 20
3.374364723812442
 10
4.545866483246783
 20
3.172855429773697
  0
ARC
  5
D5
100
AcDbEntity
  8
USP-GEO
100
AcDbCircle
 10
4.49794725691007
 20
2.960083145204439
 30
0.0
 40
0.1084
100
AcDbArc
 50
65.02027480280131
 51
73.94539995951227
  0
LWPOLYLINE
  5
D6
100
AcDbEntity
  8
USP-GEO
100
AcDbPolyline
 90
        2
 70
   128
 43
0.0
 10
4.527547456515986
 20
3.062941269388927
 10
3.720594329024464
 20
3.282769590158467
  0
ARC
  5
D7
100
AcDbEntity
  8
USP-GEO
100
AcDbCircle
 10
3.768209991035632
 20
3.435761390701358
 30
0.0
 40
0.1622
100
AcDbArc
 50
106.7278283193427
 51
252.7122829704449
  0
LWPOLYLINE
  5
D8
100
AcDbEntity
  8
USP-GEO
100
AcDbPolyline
 90
        2
 70
   128
 43
0.0
 10
3.720594329024464
 20
3.594193044581983
 10
4.527547456515986
 20
3.795702338620728
  0
ARC
  5
D9
100
AcDbEntity
  8
USP-GEO
100
AcDbCircle
 10
4.49794725691007
 20
3.911439636198277
 30
0.0
 40
0.1084
100
AcDbArc
 50
284.3460720310123
 51
296.1921840908051
  0
LWPOLYLINE
  5
DA
100
AcDbEntity
  8
USP-GEO
100
AcDbPolyline
 90
        2
 70
   128
 43
0.0
 10
4.545866483246783
 20
3.704107204966753
 10
4.545866483246783
 20
3.814021365351523
  0
LWPOLYLINE
  5
DB
100
AcDbEntity
  8
USP-GEO
100
AcDbPolyline
 90
        2
 70
   128
 43
0.0
 10
4.545866483246783
 20
3.062941269388927
 10
4.545866483246783
 20
3.172855429773697
  0
LWPOLYLINE
  5
DC
100
AcDbEntity
  8
USP-GEO
100
AcDbPolyline
 90
        2
 70
   128
 43
0.0
 10
4.600823563439167
 20
4.071403690919192
 10
4.601739514775704
 20
4.071403690919192
  0
ARC
  5
DD
100
AcDbEntity
  8
USP-GEO
100
AcDbCircle
 10
5.066646351481647
 20
4.082247441379912
 30
0.0
 40
0.4759407866466042
100
AcDbArc
 50
165.8557143213942
 51
181.3335306056875
  0
ARC
  5
DE
100
AcDbEntity
  8
USP-GEO
100
AcDbCircle
 10
5.066646351481647
 20
4.074275340022808
 30
0.0
 40
0.4759407866466042
100
AcDbArc
 50
180.3532057552366
 51
195.7191438952595
  0
LWPOLYLINE
  5
DF
100
AcDbEntity
  8
USP-GEO
100
AcDbPolyline
 90
        2
 70
   128
 43
0.0
 10
4.600823563439167
 20
2.787239917090461
 10
4.601739514775704
 20
2.787239917090461
  0
ARC
  5
E0
100
AcDbEntity
  8
USP-GEO
100
AcDbCircle
 10
5.066646351481647
 20
2.797247441379909
 30
0.0
 40
0.4759407866466042
100
AcDbArc
 50
165.7590423680414
 51
181.2307270700743
  0
ARC
  5
E1
100
AcDbEntity
  8
USP-GEO
100
AcDbCircle
 10
5.066646351481647
 20
2.789275340022804
 30
0.0
 40
0.4759407866466042
100
AcDbArc
 50
180.2503535772496
 51
195.623793720868
  0
TEXT
  5
E2
100
AcDbEntity
  8
USP-TXT
100
AcDbText
 10
0.1003402487068916
 20
-0.9710002394695198
 30
0.0
 40
0.25
  1
TMPH175 - SIDE VIEW
 72
     1
 11
2.392006915373558
 21
-0.9710002394695198
 31
0.0
100
AcDbText
  0
ENDBLK
  5
E4
100
AcDbEntity
  8
0
100
AcDbBlockEnd
  0
ENDSEC
  0
SECTION
  2
ENTITIES
  0
INSERT
  5
3
100
AcDbEntity
  8
USP
100
AcDbBlockReference
  2
TMPH175PR_T
 10
-0.0073243146353255
 20
13.60706247245967
 30
0.0
  0
INSERT
  5
42
100
AcDbEntity
  8
USP
100
AcDbBlockReference
  2
TMPH175PR_F
 10
-0.0073243146353255
 20
2.348188643713054
 30
0.0
  0
INSERT
  5
B1
100
AcDbEntity
  8
USP
100
AcDbBlockReference
  2
TMPH175PR_S
 10
12.12719899184329
 20
2.348188643713054
 30
0.0
  0
ENDSEC
  0
SECTION
  2
OBJECTS
  0
DICTIONARY
  5
FC
100
AcDbDictionary
  3
ACAD_GROUP
350
FA
  3
ACAD_MLINESTYLE
350
FB
  0
DICTIONARY
  5
9
100
AcDbDictionary
280
     1
  3
ACAD_XREC_ROUNDTRIP
360
A
  0
DICTIONARY
  5
3C
100
AcDbDictionary
280
     1
  3
ACAD_XREC_ROUNDTRIP
360
3D
  0
DICTIONARY
  5
FF
100
AcDbDictionary
280
     1
  3
ACAD_XREC_ROUNDTRIP
360
100
  0
DICTIONARY
  5
E5
100
AcDbDictionary
280
     1
  3
ACAD_LAYOUTSELFREF
360
E6
  0
DICTIONARY
  5
EA
100
AcDbDictionary
280
     1
  3
ACAD_LAYOUTSELFREF
360
EB
  0
DICTIONARY
  5
FA
102
{ACAD_REACTORS
330
FC
102
}
100
AcDbDictionary
  0
DICTIONARY
  5
FB
102
{ACAD_REACTORS
330
FC
102
}
100
AcDbDictionary
  3
STANDARD
350
FD
  0
XRECORD
  5
A
102
{ACAD_REACTORS
330
9
102
}
100
AcDbXrecord
102
EXTNAMES
  1
USP-GEO
  2
USP-Geo
  0
XRECORD
  5
3D
102
{ACAD_REACTORS
330
3C
102
}
100
AcDbXrecord
102
EXTNAMES
  1
USP-TXT
  2
USP-Txt
  0
XRECORD
  5
100
102
{ACAD_REACTORS
330
FF
102
}
100
AcDbXrecord
102
ACADR14ROUNDTRIP
1000
DSTYLE
1002
{
1070
   276
 70
     2
1070
   277
 70
     5
1002
}
  0
XRECORD
  5
E6
102
{ACAD_REACTORS
330
E5
102
}
100
AcDbXrecord
340
2
  0
XRECORD
  5
EB
102
{ACAD_REACTORS
330
EA
102
}
100
AcDbXrecord
340
0
  0
MLINESTYLE
  5
FD
102
{ACAD_REACTORS
330
FB
102
}
100
AcDbMlineStyle
  2
STANDARD
 70
     0
  3

 62
     0
 51
90.0
 52
90.0
 71
     2
 49
0.5
 62
   256
  6
BYLAYER
 49
-0.5
 62
   256
  6
BYLAYER
  0
ENDSEC
  0
EOF
