  0
SECTION
  2
HEADER
  9
$ACADVER
  1
AC1014
  9
$ACADMAINTVER
 70
     8
  9
$DWGCODEPAGE
  3
ANSI_1252
  9
$INSBASE
 10
0.0
 20
0.0
 30
0.0
  9
$EXTMIN
 10
-0.0037366178975473
 20
0.9091324063406657
 30
0.0
  9
$EXTMAX
 10
13.64691505265893
 20
14.034363157739
 30
0.0
  9
$LIMMIN
 10
0.0
 20
0.0
  9
$LIMMAX
 10
12.0
 20
9.0
  9
$ORTHOMODE
 70
     0
  9
$REGENMODE
 70
     1
  9
$FILLMODE
 70
     1
  9
$QTEXTMODE
 70
     0
  9
$MIRRTEXT
 70
     0
  9
$DRAGMODE
 70
     2
  9
$LTSCALE
 40
1.5
  9
$OSMODE
 70
     0
  9
$ATTMODE
 70
     1
  9
$TEXTSIZE
 40
0.25
  9
$TRACEWID
 40
0.05
  9
$TEXTSTYLE
  7
STANDARD
  9
$CLAYER
  8
USP
  9
$CELTYPE
  6
BYLAYER
  9
$CECOLOR
 62
   256
  9
$CELTSCALE
 40
1.0
  9
$DELOBJ
 70
     1
  9
$DISPSILH
 70
     1
  9
$DIMSCALE
 40
5.0
  9
$DIMASZ
 40
0.125
  9
$DIMEXO
 40
0.0625
  9
$DIMDLI
 40
0.38
  9
$DIMRND
 40
0.0
  9
$DIMDLE
 40
0.0
  9
$DIMEXE
 40
0.09375
  9
$DIMTP
 40
0.0
  9
$DIMTM
 40
0.0
  9
$DIMTXT
 40
0.109375
  9
$DIMCEN
 40
0.0
  9
$DIMTSZ
 40
0.0
  9
$DIMTOL
 70
     0
  9
$DIMLIM
 70
     0
  9
$DIMTIH
 70
     1
  9
$DIMTOH
 70
     1
  9
$DIMSE1
 70
     0
  9
$DIMSE2
 70
     0
  9
$DIMTAD
 70
     0
  9
$DIMZIN
 70
     8
  9
$DIMBLK
  1

  9
$DIMASO
 70
     1
  9
$DIMSHO
 70
     1
  9
$DIMPOST
  1

  9
$DIMAPOST
  1

  9
$DIMALT
 70
     0
  9
$DIMALTD
 70
     2
  9
$DIMALTF
 40
25.4
  9
$DIMLFAC
 40
1.0
  9
$DIMTOFL
 70
     0
  9
$DIMTVP
 40
0.0
  9
$DIMTIX
 70
     0
  9
$DIMSOXD
 70
     0
  9
$DIMSAH
 70
     0
  9
$DIMBLK1
  1

  9
$DIMBLK2
  1

  9
$DIMSTYLE
  2
STANDARD
  9
$DIMCLRD
 70
   256
  9
$DIMCLRE
 70
   256
  9
$DIMCLRT
 70
   256
  9
$DIMTFAC
 40
1.0
  9
$DIMGAP
 40
0.09
  9
$DIMJUST
 70
     0
  9
$DIMSD1
 70
     0
  9
$DIMSD2
 70
     0
  9
$DIMTOLJ
 70
     1
  9
$DIMTZIN
 70
     0
  9
$DIMALTZ
 70
     0
  9
$DIMALTTZ
 70
     0
  9
$DIMFIT
 70
     3
  9
$DIMUPT
 70
     1
  9
$DIMUNIT
 70
     7
  9
$DIMDEC
 70
     4
  9
$DIMTDEC
 70
     4
  9
$DIMALTU
 70
     2
  9
$DIMALTTD
 70
     2
  9
$DIMTXSTY
  7
STANDARD
  9
$DIMAUNIT
 70
     0
  9
$LUNITS
 70
     5
  9
$LUPREC
 70
     6
  9
$SKETCHINC
 40
0.1
  9
$FILLETRAD
 40
0.0
  9
$AUNITS
 70
     0
  9
$AUPREC
 70
     1
  9
$MENU
  1
CUSTOM
  9
$ELEVATION
 40
0.0
  9
$PELEVATION
 40
0.0
  9
$THICKNESS
 40
0.0
  9
$LIMCHECK
 70
     0
  9
$BLIPMODE
 70
     0
  9
$CHAMFERA
 40
0.0
  9
$CHAMFERB
 40
0.0
  9
$CHAMFERC
 40
0.0
  9
$CHAMFERD
 40
0.0
  9
$SKPOLY
 70
     0
  9
$TDCREATE
 40
2451263.621564698
  9
$TDUPDATE
 40
2453025.971320706
  9
$TDINDWG
 40
1.0610993519
  9
$TDUSRTIMER
 40
1.0610993519
  9
$USRTIMER
 70
     1
  9
$ANGBASE
 50
0.0
  9
$ANGDIR
 70
     0
  9
$PDMODE
 70
     0
  9
$PDSIZE
 40
0.0
  9
$PLINEWID
 40
0.0
  9
$COORDS
 70
     2
  9
$SPLFRAME
 70
     0
  9
$SPLINETYPE
 70
     6
  9
$SPLINESEGS
 70
     8
  9
$ATTDIA
 70
     0
  9
$ATTREQ
 70
     0
  9
$HANDLING
 70
     1
  9
$HANDSEED
  5
163
  9
$SURFTAB1
 70
     6
  9
$SURFTAB2
 70
     6
  9
$SURFTYPE
 70
     6
  9
$SURFU
 70
     6
  9
$SURFV
 70
     6
  9
$UCSNAME
  2

  9
$UCSORG
 10
0.0
 20
0.0
 30
0.0
  9
$UCSXDIR
 10
1.0
 20
0.0
 30
0.0
  9
$UCSYDIR
 10
0.0
 20
1.0
 30
0.0
  9
$PUCSNAME
  2

  9
$PUCSORG
 10
0.0
 20
0.0
 30
0.0
  9
$PUCSXDIR
 10
1.0
 20
0.0
 30
0.0
  9
$PUCSYDIR
 10
0.0
 20
1.0
 30
0.0
  9
$USERI1
 70
     0
  9
$USERI2
 70
     0
  9
$USERI3
 70
     0
  9
$USERI4
 70
     0
  9
$USERI5
 70
     0
  9
$USERR1
 40
0.0
  9
$USERR2
 40
0.0
  9
$USERR3
 40
0.0
  9
$USERR4
 40
0.0
  9
$USERR5
 40
0.0
  9
$WORLDVIEW
 70
     1
  9
$SHADEDGE
 70
     3
  9
$SHADEDIF
 70
    70
  9
$TILEMODE
 70
     1
  9
$MAXACTVP
 70
    16
  9
$PINSBASE
 10
0.0
 20
0.0
 30
0.0
  9
$PLIMCHECK
 70
     0
  9
$PEXTMIN
 10
1.000000000000000E+20
 20
1.000000000000000E+20
 30
1.000000000000000E+20
  9
$PEXTMAX
 10
-1.000000000000000E+20
 20
-1.000000000000000E+20
 30
-1.000000000000000E+20
  9
$PLIMMIN
 10
0.0
 20
0.0
  9
$PLIMMAX
 10
12.0
 20
9.0
  9
$UNITMODE
 70
     0
  9
$VISRETAIN
 70
     0
  9
$PLINEGEN
 70
     0
  9
$PSLTSCALE
 70
     0
  9
$TREEDEPTH
 70
  3020
  9
$PICKSTYLE
 70
     1
  9
$CMLSTYLE
  2
STANDARD
  9
$CMLJUST
 70
     0
  9
$CMLSCALE
 40
1.0
  9
$PROXYGRAPHICS
 70
     1
  9
$MEASUREMENT
 70
     0
  0
ENDSEC
  0
SECTION
  2
CLASSES
  0
CLASS
  1
ACDBDICTIONARYWDFLT
  2
AcDbDictionaryWithDefault
  3
AutoCAD 2000
 90
        0
280
     0
281
     0
  0
CLASS
  1
ACDBPLACEHOLDER
  2
AcDbPlaceHolder
  3
AutoCAD 2000
 90
        0
280
     0
281
     0
  0
CLASS
  1
LAYOUT
  2
AcDbLayout
  3
AutoCAD 2000
 90
        0
280
     0
281
     0
  0
CLASS
  1
DICTIONARYVAR
  2
AcDbDictionaryVar
  3
"AutoCAD"
 90
        0
280
     0
281
     0
  0
CLASS
  1
SORTENTSTABLE
  2
AcDbSortentsTable
  3
"AutoCAD"
 90
        0
280
     0
281
     0
  0
CLASS
  1
LONG_TRANSACTION
  2
AcDbLongTransaction
  3
AutoCAD 2000
 90
        0
280
     0
281
     0
  0
CLASS
  1
LWPOLYLINE
  2
AcDbPolyline
  3
"AutoCAD"
 90
        0
280
     0
281
     1
  0
CLASS
  1
HATCH
  2
AcDbHatch
  3
"ACAD_SEDONA"
 90
        0
280
     0
281
     1
  0
CLASS
  1
XRECORD
  2
AcDbXrecord
  3
"<Built In>"
 90
        0
280
     0
281
     0
  0
CLASS
  1
LONG_TRANSACTION
  2
AcDbLongTransaction
  3
AutoCAD 2000
 90
        0
280
     0
281
     0
  0
CLASS
  1
LWPOLYLINE
  2
AcDbPolyline
  3
"AutoCAD"
 90
        0
280
     0
281
     1
  0
CLASS
  1
HATCH
  2
AcDbHatch
  3
"ACAD_SEDONA"
 90
        0
280
     0
281
     1
  0
CLASS
  1
XRECORD
  2
AcDbXrecord
  3
"<Built In>"
 90
        0
280
     0
281
     0
  0
CLASS
  1
LONG_TRANSACTION
  2
AcDbLongTransaction
  3
AutoCAD 2000
 90
        0
280
     0
281
     0
  0
CLASS
  1
LWPOLYLINE
  2
AcDbPolyline
  3
"AutoCAD"
 90
        0
280
     0
281
     1
  0
CLASS
  1
HATCH
  2
AcDbHatch
  3
"ACAD_SEDONA"
 90
        0
280
     0
281
     1
  0
CLASS
  1
XRECORD
  2
AcDbXrecord
  3
"<Built In>"
 90
        0
280
     0
281
     0
  0
CLASS
  1
LONG_TRANSACTION
  2
AcDbLongTransaction
  3
AutoCAD 2000
 90
        0
280
     0
281
     0
  0
CLASS
  1
LWPOLYLINE
  2
AcDbPolyline
  3
"AutoCAD"
 90
        0
280
     0
281
     1
  0
CLASS
  1
HATCH
  2
AcDbHatch
  3
"ACAD_SEDONA"
 90
        0
280
     0
281
     1
  0
CLASS
  1
XRECORD
  2
AcDbXrecord
  3
"<Built In>"
 90
        0
280
     0
281
     0
  0
CLASS
  1
LONG_TRANSACTION
  2
AcDbLongTransaction
  3
AutoCAD 2000
 90
        0
280
     0
281
     0
  0
CLASS
  1
LWPOLYLINE
  2
AcDbPolyline
  3
"AutoCAD"
 90
        0
280
     0
281
     1
  0
CLASS
  1
HATCH
  2
AcDbHatch
  3
"ACAD_SEDONA"
 90
        0
280
     0
281
     1
  0
CLASS
  1
XRECORD
  2
AcDbXrecord
  3
"<Built In>"
 90
        0
280
     0
281
     0
  0
ENDSEC
  0
SECTION
  2
TABLES
  0
TABLE
  2
VPORT
  5
154
100
AcDbSymbolTable
 70
     1
  0
VPORT
  5
155
100
AcDbSymbolTableRecord
100
AcDbViewportTableRecord
  2
*ACTIVE
 70
     0
 10
0.0
 20
0.0
 11
1.0
 21
1.0
 12
-0.1382221658880667
 22
11.4861034901883
 13
0.0
 23
0.0
 14
1.0
 24
1.0
 15
0.0
 25
0.0
 16
0.0
 26
0.0
 36
1.0
 17
6.9598114468365
 27
-3.371939902721572
 37
-1.09437175754962
 40
14.50556600396492
 41
1.379227053140096
 42
50.0
 43
0.0
 44
0.0
 50
0.0
 51
0.0
 71
     0
 72
   100
 73
     1
 74
     1
 75
     0
 76
     0
 77
     0
 78
     0
  0
ENDTAB
  0
TABLE
  2
LTYPE
  5
14F
100
AcDbSymbolTable
 70
     1
  0
LTYPE
  5
150
100
AcDbSymbolTableRecord
100
AcDbLinetypeTableRecord
  2
BYBLOCK
 70
     0
  3

 72
    65
 73
     0
 40
0.0
  0
LTYPE
  5
151
100
AcDbSymbolTableRecord
100
AcDbLinetypeTableRecord
  2
BYLAYER
 70
     0
  3

 72
    65
 73
     0
 40
0.0
  0
LTYPE
  5
5
100
AcDbSymbolTableRecord
100
AcDbLinetypeTableRecord
  2
CONTINUOUS
 70
     0
  3
Solid line
 72
    65
 73
     0
 40
0.0
  0
ENDTAB
  0
TABLE
  2
LAYER
  5
14D
100
AcDbSymbolTable
 70
     4
  0
LAYER
  5
79
100
AcDbSymbolTableRecord
100
AcDbLayerTableRecord
  2
0
 70
     0
 62
     7
  6
CONTINUOUS
  0
LAYER
  5
8
102
{ACAD_XDICTIONARY
360
9
102
}
100
AcDbSymbolTableRecord
100
AcDbLayerTableRecord
  2
USP-GEO
 70
     0
 62
     7
  6
CONTINUOUS
  0
LAYER
  5
74
102
{ACAD_XDICTIONARY
360
75
102
}
100
AcDbSymbolTableRecord
100
AcDbLayerTableRecord
  2
USP-TXT
 70
     0
 62
     7
  6
CONTINUOUS
  0
LAYER
  5
4
100
AcDbSymbolTableRecord
100
AcDbLayerTableRecord
  2
USP
 70
     0
 62
     7
  6
CONTINUOUS
  0
ENDTAB
  0
TABLE
  2
STYLE
  5
14E
100
AcDbSymbolTable
 70
     1
  0
STYLE
  5
77
100
AcDbSymbolTableRecord
100
AcDbTextStyleTableRecord
  2
STANDARD
 70
     0
 40
0.0
 41
1.0
 50
0.0
 71
     0
 42
0.25
  3
txt
  4

  0
ENDTAB
  0
TABLE
  2
VIEW
  5
152
100
AcDbSymbolTable
 70
     0
  0
ENDTAB
  0
TABLE
  2
UCS
  5
153
100
AcDbSymbolTable
 70
     0
  0
ENDTAB
  0
TABLE
  2
APPID
  5
156
100
AcDbSymbolTable
 70
     1
  0
APPID
  5
1A
100
AcDbSymbolTableRecord
100
AcDbRegAppTableRecord
  2
ACAD
 70
     0
  0
ENDTAB
  0
TABLE
  2
DIMSTYLE
  5
157
100
AcDbSymbolTable
 70
     1
  0
DIMSTYLE
105
15D
102
{ACAD_XDICTIONARY
360
15E
102
}
100
AcDbSymbolTableRecord
100
AcDbDimStyleTableRecord
  2
STANDARD
 70
     0
  3

  4

  5

  6

  7

 40
1.0
 41
0.125
 42
0.0625
 43
0.38
 44
0.09375
 45
0.0
 46
0.0
 47
0.0
 48
0.0
140
0.109375
141
0.0
142
0.0
143
25.4
144
1.0
145
0.0
146
1.0
147
0.09
 71
     0
 72
     0
 73
     1
 74
     1
 75
     0
 76
     0
 77
     0
 78
     8
170
     0
171
     2
172
     0
173
     0
174
     0
175
     0
176
     0
177
     0
178
     0
270
     7
271
     4
272
     4
273
     2
274
     2
340
77
275
     0
280
     0
281
     0
282
     0
283
     1
284
     0
285
     0
286
     0
287
     3
288
     0
  0
ENDTAB
  0
TABLE
  2
BLOCK_RECORD
  5
1
100
AcDbSymbolTable
 70
     3
  0
BLOCK_RECORD
  5
2
102
{ACAD_XDICTIONARY
360
144
102
}
100
AcDbSymbolTableRecord
100
AcDbBlockTableRecord
  2
*MODEL_SPACE
  0
BLOCK_RECORD
  5
148
102
{ACAD_XDICTIONARY
360
149
102
}
100
AcDbSymbolTableRecord
100
AcDbBlockTableRecord
  2
*PAPER_SPACE
  0
BLOCK_RECORD
  5
6
100
AcDbSymbolTableRecord
100
AcDbBlockTableRecord
  2
TMP23PR_T
  0
BLOCK_RECORD
  5
7C
100
AcDbSymbolTableRecord
100
AcDbBlockTableRecord
  2
TMP23PR_F
  0
BLOCK_RECORD
  5
103
100
AcDbSymbolTableRecord
100
AcDbBlockTableRecord
  2
TMP23PR_S
  0
ENDTAB
  0
ENDSEC
  0
SECTION
  2
BLOCKS
  0
BLOCK
  5
146
100
AcDbEntity
  8
0
100
AcDbBlockBegin
  2
*MODEL_SPACE
 70
     0
 10
0.0
 20
0.0
 30
0.0
  3
*MODEL_SPACE
  1

  0
ENDBLK
  5
147
100
AcDbEntity
  8
0
100
AcDbBlockEnd
  0
BLOCK
  5
14B
100
AcDbEntity
 67
     1
  8
0
100
AcDbBlockBegin
  2
*PAPER_SPACE
 70
     0
 10
0.0
 20
0.0
 30
0.0
  3
*PAPER_SPACE
  1

  0
ENDBLK
  5
14C
100
AcDbEntity
 67
     1
  8
0
100
AcDbBlockEnd
  0
BLOCK
  5
78
100
AcDbEntity
  8
0
100
AcDbBlockBegin
  2
TMP23PR_T
 70
     0
 10
0.0
 20
0.0
 30
0.0
  3
TMP23PR_T
  1

  0
LWPOLYLINE
  5
7
100
AcDbEntity
  8
USP-GEO
100
AcDbPolyline
 90
        2
 70
   128
 43
0.0
 10
1.887871345287755
 20
3.498258453596895
 10
1.943787564326266
 20
3.498258453596895
  0
LWPOLYLINE
  5
B
100
AcDbEntity
  8
USP-GEO
100
AcDbPolyline
 90
        2
 70
   128
 43
0.0
 10
1.943787564326266
 20
3.022271639031563
 10
1.943787564326266
 20
3.498258453596895
  0
LWPOLYLINE
  5
C
100
AcDbEntity
  8
USP-GEO
100
AcDbPolyline
 90
        2
 70
   128
 43
0.0
 10
1.887871345287755
 20
3.498258453596895
 10
1.887871345287755
 20
3.022271639031563
  0
LWPOLYLINE
  5
D
100
AcDbEntity
  8
USP-GEO
100
AcDbPolyline
 90
        2
 70
   128
 43
0.0
 10
1.887871345287755
 20
3.022271639031563
 10
1.943787564326266
 20
3.022271639031563
  0
LWPOLYLINE
  5
E
100
AcDbEntity
  8
USP-GEO
100
AcDbPolyline
 90
        2
 70
   128
 43
0.0
 10
1.943787564326266
 20
3.022271639031563
 10
1.943787564326266
 20
1.73549964840781
  0
LWPOLYLINE
  5
F
100
AcDbEntity
  8
USP-GEO
100
AcDbPolyline
 90
        2
 70
   128
 43
0.0
 10
1.887871345287755
 20
3.022271639031563
 10
1.887871345287755
 20
1.73549964840781
  0
LWPOLYLINE
  5
10
100
AcDbEntity
  8
USP-GEO
100
AcDbPolyline
 90
        2
 70
   128
 43
0.0
 10
1.887871345287755
 20
1.73549964840781
 10
1.943787564326266
 20
1.73549964840781
  0
LWPOLYLINE
  5
11
100
AcDbEntity
  8
USP-GEO
100
AcDbPolyline
 90
        2
 70
   128
 43
0.0
 10
4.447436271775633
 20
3.022271639031563
 10
4.447436271775633
 20
3.498258453596895
  0
LWPOLYLINE
  5
12
100
AcDbEntity
  8
USP-GEO
100
AcDbPolyline
 90
        2
 70
   128
 43
0.0
 10
4.490072388792499
 20
3.498258453596895
 10
4.447436271775633
 20
3.498258453596895
  0
LWPOLYLINE
  5
13
100
AcDbEntity
  8
USP-GEO
100
AcDbPolyline
 90
        2
 70
   128
 43
0.0
 10
4.490072388792499
 20
3.498258453596895
 10
4.490072388792499
 20
3.022271639031563
  0
LWPOLYLINE
  5
14
100
AcDbEntity
  8
USP-GEO
100
AcDbPolyline
 90
        2
 70
   128
 43
0.0
 10
4.447436271775633
 20
3.022271639031563
 10
4.447436271775633
 20
1.73549964840781
  0
LWPOLYLINE
  5
15
100
AcDbEntity
  8
USP-GEO
100
AcDbPolyline
 90
        2
 70
   128
 43
0.0
 10
4.490072388792499
 20
3.022271639031563
 10
4.447436271775633
 20
3.022271639031563
  0
LWPOLYLINE
  5
16
100
AcDbEntity
  8
USP-GEO
100
AcDbPolyline
 90
        2
 70
   128
 43
0.0
 10
4.490072388792499
 20
3.022271639031563
 10
4.490072388792499
 20
1.73549964840781
  0
LWPOLYLINE
  5
17
100
AcDbEntity
  8
USP-GEO
100
AcDbPolyline
 90
        2
 70
   128
 43
0.0
 10
4.490072388792499
 20
1.73549964840781
 10
4.447436271775633
 20
1.73549964840781
  0
LWPOLYLINE
  5
18
100
AcDbEntity
  8
USP-GEO
100
AcDbPolyline
 90
        2
 70
   128
 43
0.0
 10
4.559967662590637
 20
2.043038853119625
 10
4.559967662590637
 20
3.190719248885079
  0
ELLIPSE
  5
19
100
AcDbEntity
  8
USP-GEO
  6
CONTINUOUS
100
AcDbEllipse
 10
4.528628202092879
 20
2.053853008112378
 30
0.0
 11
-0.0148147412155075
 21
0.060718806336896
 31
0.0
210
0.0
220
0.0
230
1.0
 40
0.4531577022186781
 41
1.035395563039326
 42
4.428772030798272
1001
ACAD
1000
RTLwPs
1070
   128
  0
ELLIPSE
  5
1B
100
AcDbEntity
  8
USP-GEO
  6
CONTINUOUS
100
AcDbEllipse
 10
4.528638100958919
 20
3.203311132816599
 30
0.0
 11
-0.0148147412155075
 21
0.060718806336896
 31
0.0
210
0.0
220
0.0
230
1.0
 40
0.4531577022186781
 41
4.398590288900315
 42
7.344103203084112
1001
ACAD
1000
RTLwPs
1070
   128
  0
ELLIPSE
  5
1C
100
AcDbEntity
  8
USP-GEO
  6
CONTINUOUS
100
AcDbEllipse
 10
4.483604779962123
 20
3.192323058009554
 30
0.0
 11
-0.0148147412155089
 21
0.0607188063368957
 31
0.0
210
0.0
220
0.0
230
1.0
 40
0.4531577022187107
 41
5.593279708098457
 42
10.65455662855943
1001
ACAD
1000
RTLwPs
1070
   128
  0
LWPOLYLINE
  5
1D
100
AcDbEntity
  8
USP-GEO
100
AcDbPolyline
 90
        2
 70
   128
 43
0.0
 10
4.518030498311754
 20
3.176740194125452
 10
4.518030498311754
 20
2.029059798359996
  0
ELLIPSE
  5
1E
100
AcDbEntity
  8
USP-GEO
  6
CONTINUOUS
100
AcDbEllipse
 10
4.483594881096084
 20
2.042864933305333
 30
0.0
 11
-0.0148147412155089
 21
0.0607188063368957
 31
0.0
210
0.0
220
0.0
230
1.0
 40
0.4531577022187107
 41
4.399134914244435
 42
10.46038010038342
1001
ACAD
1000
RTLwPs
1070
   128
  0
LWPOLYLINE
  5
1F
100
AcDbEntity
  8
USP-GEO
100
AcDbPolyline
 90
        2
 70
   128
 43
0.0
 10
4.587925772109895
 20
1.73549964840781
 10
4.573946717350266
 20
1.73549964840781
  0
LWPOLYLINE
  5
20
100
AcDbEntity
  8
USP-GEO
100
AcDbPolyline
 90
        2
 70
   128
 43
0.0
 10
4.573946717350266
 20
1.73549964840781
 10
4.490072388792499
 20
1.73549964840781
  0
LWPOLYLINE
  5
21
100
AcDbEntity
  8
USP-GEO
100
AcDbPolyline
 90
        2
 70
   128
 43
0.0
 10
4.447436271775633
 20
1.650926367112061
 10
4.490072388792499
 20
1.650926367112061
  0
LWPOLYLINE
  5
22
100
AcDbEntity
  8
USP-GEO
100
AcDbPolyline
 90
        2
 70
   128
 43
0.0
 10
4.447436271775633
 20
1.650926367112061
 10
4.447436271775633
 20
1.73549964840781
  0
LWPOLYLINE
  5
23
100
AcDbEntity
  8
USP-GEO
100
AcDbPolyline
 90
        2
 70
   128
 43
0.0
 10
4.490072388792499
 20
1.73549964840781
 10
4.490072388792499
 20
1.650926367112061
  0
LWPOLYLINE
  5
24
100
AcDbEntity
  8
USP-GEO
100
AcDbPolyline
 90
        2
 70
   128
 43
0.0
 10
4.573946717350266
 20
3.498258453596895
 10
4.587925772109895
 20
3.498258453596895
  0
LWPOLYLINE
  5
25
100
AcDbEntity
  8
USP-GEO
100
AcDbPolyline
 90
        2
 70
   128
 43
0.0
 10
4.490072388792499
 20
3.498258453596895
 10
4.573946717350266
 20
3.498258453596895
  0
LWPOLYLINE
  5
26
100
AcDbEntity
  8
USP-GEO
100
AcDbPolyline
 90
        2
 70
   128
 43
0.0
 10
1.887871345287755
 20
1.650926367112061
 10
1.943787564326266
 20
1.650926367112061
  0
LWPOLYLINE
  5
27
100
AcDbEntity
  8
USP-GEO
100
AcDbPolyline
 90
        2
 70
   128
 43
0.0
 10
1.887871345287755
 20
1.73549964840781
 10
1.887871345287755
 20
1.650926367112061
  0
LWPOLYLINE
  5
28
100
AcDbEntity
  8
USP-GEO
100
AcDbPolyline
 90
        2
 70
   128
 43
0.0
 10
1.943787564326266
 20
1.650926367112061
 10
1.943787564326266
 20
1.73549964840781
  0
LWPOLYLINE
  5
29
100
AcDbEntity
  8
USP-GEO
100
AcDbPolyline
 90
        2
 70
   128
 43
0.0
 10
1.817976071489615
 20
3.498258453596895
 10
1.803997016729987
 20
3.498258453596895
  0
LWPOLYLINE
  5
2A
100
AcDbEntity
  8
USP-GEO
100
AcDbPolyline
 90
        2
 70
   128
 43
0.0
 10
1.803997016729987
 20
1.73549964840781
 10
1.817976071489615
 20
1.73549964840781
  0
LWPOLYLINE
  5
2B
100
AcDbEntity
  8
USP-GEO
100
AcDbPolyline
 90
        2
 70
   128
 43
0.0
 10
1.887871345287755
 20
3.498258453596895
 10
1.817976071489615
 20
3.498258453596895
  0
LWPOLYLINE
  5
2C
100
AcDbEntity
  8
USP-GEO
100
AcDbPolyline
 90
        2
 70
   128
 43
0.0
 10
1.817976071489615
 20
1.73549964840781
 10
1.887871345287755
 20
1.73549964840781
  0
LWPOLYLINE
  5
2D
100
AcDbEntity
  8
USP-GEO
100
AcDbPolyline
 90
        2
 70
   128
 43
0.0
 10
1.831955126249243
 20
2.043038853119625
 10
1.831955126249243
 20
3.190719248885079
  0
ELLIPSE
  5
2E
100
AcDbEntity
  8
USP-GEO
  6
CONTINUOUS
100
AcDbEllipse
 10
1.860654341351704
 20
2.053853008112374
 30
0.0
 11
0.0148147412155078
 21
0.0607188063368959
 31
0.0
210
0.0
220
0.0
230
1.0
 40
0.4531577022187137
 41
1.871221877380354
 42
5.429556722105303
1001
ACAD
1000
RTLwPs
1070
   128
  0
ELLIPSE
  5
2F
100
AcDbEntity
  8
USP-GEO
  6
CONTINUOUS
100
AcDbEllipse
 10
1.860644442485642
 20
3.203311132816599
 30
0.0
 11
0.0148147412155078
 21
0.0607188063368959
 31
0.0
210
0.0
220
0.0
230
1.0
 40
0.4531577022187137
 41
5.394825260733308
 42
8.187599868437507
1001
ACAD
1000
RTLwPs
1070
   128
  0
LWPOLYLINE
  5
30
100
AcDbEntity
  8
USP-GEO
100
AcDbPolyline
 90
        2
 70
   128
 43
0.0
 10
1.873892290528127
 20
3.176740194125452
 10
1.873892290528127
 20
2.029059798359996
  0
ELLIPSE
  5
31
100
AcDbEntity
  8
USP-GEO
  6
CONTINUOUS
100
AcDbEllipse
 10
1.905677763482436
 20
3.192323058009554
 30
0.0
 11
0.0148147412155091
 21
0.0607188063368956
 31
0.0
210
0.0
220
0.0
230
1.0
 40
0.4531577022187464
 41
0.9408296557180975
 42
1.932136479417889
1001
ACAD
1000
RTLwPs
1070
   128
  0
ELLIPSE
  5
32
100
AcDbEntity
  8
USP-GEO
  6
CONTINUOUS
100
AcDbEllipse
 10
1.905687662348499
 20
2.042864933305333
 30
0.0
 11
0.0148147412155091
 21
0.0607188063368956
 31
0.0
210
0.0
220
0.0
230
1.0
 40
0.4531577022187464
 41
2.142817196221499
 42
8.18506434313271
1001
ACAD
1000
RTLwPs
1070
   128
  0
ARC
  5
33
100
AcDbEntity
  8
USP-GEO
100
AcDbCircle
 10
1.914141271722218
 20
0.7345271726733511
 30
0.0
 40
0.09375
100
AcDbArc
 50
64.37125360712524
 51
131.5506297713282
  0
LWPOLYLINE
  5
34
100
AcDbEntity
  8
USP-GEO
100
AcDbPolyline
 90
        2
 70
   128
 43
0.0
 10
1.524415921537428
 20
0.4899658693249603
 10
1.845934181008871
 20
0.8114841287964029
  0
LWPOLYLINE
  5
35
100
AcDbEntity
  8
USP-GEO
100
AcDbPolyline
 90
        2
 70
   128
 43
0.0
 10
1.524415921537428
 20
0.4340496502864486
 10
1.524415921537428
 20
0.4899658693249603
  0
LWPOLYLINE
  5
36
100
AcDbEntity
  8
USP-GEO
100
AcDbPolyline
 90
        2
 70
   128
 43
0.0
 10
0.0
 20
0.4340496502864486
 10
1.524415921537428
 20
0.4340496502864486
  0
LWPOLYLINE
  5
37
100
AcDbEntity
  8
USP-GEO
100
AcDbPolyline
 90
        2
 70
   128
 43
0.0
 10
0.0
 20
0.4340496502864486
 10
0.0
 20
1.553072983794665
  0
LWPOLYLINE
  5
38
100
AcDbEntity
  8
USP-GEO
100
AcDbPolyline
 90
        2
 70
   128
 43
0.0
 10
1.817976071489615
 20
1.553072983794665
 10
0.0
 20
1.553072983794665
  0
ARC
  5
39
100
AcDbEntity
  8
USP-GEO
100
AcDbCircle
 10
1.850141271722249
 20
1.640777172673383
 30
0.0
 40
0.09375
100
AcDbArc
 50
338.247540141329
 51
6.185457585487726
  0
LWPOLYLINE
  5
3A
100
AcDbEntity
  8
USP-GEO
100
AcDbPolyline
 90
        2
 70
   128
 43
0.0
 10
1.943787564326266
 20
3.498258453596895
 10
4.447436271775633
 20
3.498258453596895
  0
ARC
  5
3B
100
AcDbEntity
  8
USP-GEO
100
AcDbCircle
 10
4.539141271722249
 20
1.640777172673383
 30
0.0
 40
0.09375
100
AcDbArc
 50
173.6846503115126
 51
199.1179990549716
  0
LWPOLYLINE
  5
3C
100
AcDbEntity
  8
USP-GEO
100
AcDbPolyline
 90
        2
 70
   128
 43
0.0
 10
4.559967662590637
 20
1.553072983794665
 10
6.391922788839882
 20
1.553072983794665
  0
LWPOLYLINE
  5
3D
100
AcDbEntity
  8
USP-GEO
100
AcDbPolyline
 90
        2
 70
   128
 43
0.0
 10
6.391922788839882
 20
1.553072983794665
 10
6.391922788839882
 20
0.4340496502864486
  0
LWPOLYLINE
  5
3E
100
AcDbEntity
  8
USP-GEO
100
AcDbPolyline
 90
        2
 70
   128
 43
0.0
 10
4.853527812542826
 20
0.4340496502864486
 10
6.391922788839882
 20
0.4340496502864486
  0
LWPOLYLINE
  5
3F
100
AcDbEntity
  8
USP-GEO
100
AcDbPolyline
 90
        2
 70
   128
 43
0.0
 10
4.853527812542826
 20
0.4899658693249603
 10
4.853527812542826
 20
0.4340496502864486
  0
LWPOLYLINE
  5
40
100
AcDbEntity
  8
USP-GEO
100
AcDbPolyline
 90
        2
 70
   128
 43
0.0
 10
4.853527812542826
 20
0.4899658693249603
 10
4.54598860783101
 20
0.8114841287964029
  0
ARC
  5
41
100
AcDbEntity
  8
USP-GEO
100
AcDbCircle
 10
4.476141271722279
 20
0.7345271726733547
 30
0.0
 40
0.09375
100
AcDbArc
 50
47.77262466924897
 51
115.144684795144
  0
CIRCLE
  5
42
100
AcDbEntity
  8
USP-GEO
100
AcDbCircle
 10
0.6507698653742589
 20
0.8261118680145767
 30
0.0
 40
0.156
  0
CIRCLE
  5
43
100
AcDbEntity
  8
USP-GEO
100
AcDbCircle
 10
0.3045846532838681
 20
1.226127172673399
 30
0.0
 40
0.078
  0
CIRCLE
  5
44
100
AcDbEntity
  8
USP-GEO
100
AcDbCircle
 10
1.120141271722246
 20
0.98612717267339
 30
0.0
 40
0.078
  0
CIRCLE
  5
45
100
AcDbEntity
  8
USP-GEO
100
AcDbCircle
 10
5.270141271722251
 20
0.9861271726733935
 30
0.0
 40
0.078
  0
CIRCLE
  5
46
100
AcDbEntity
  8
USP-GEO
100
AcDbCircle
 10
3.195141271722284
 20
3.184526767249108
 30
0.0
 40
0.078
  0
CIRCLE
  5
47
100
AcDbEntity
  8
USP-GEO
100
AcDbCircle
 10
5.739512678070242
 20
0.8261118680145802
 30
0.0
 40
0.156
  0
CIRCLE
  5
48
100
AcDbEntity
  8
USP-GEO
100
AcDbCircle
 10
6.085697890160632
 20
1.226127172673402
 30
0.0
 40
0.078
  0
ELLIPSE
  5
49
100
AcDbEntity
  8
USP-GEO
  6
CONTINUOUS
100
AcDbEllipse
 10
4.551093645924054
 20
1.162206761609498
 30
0.0
 11
0.0510629863152221
 21
0.05896245778944
 31
0.0
210
0.0
220
0.0
230
1.0
 40
0.3535533905932596
 41
4.176017759039354
 42
5.278836579684972
1001
ACAD
1000
RTLwPs
1070
   128
  0
ELLIPSE
  5
4A
100
AcDbEntity
  8
USP-GEO
  6
CONTINUOUS
100
AcDbEllipse
 10
4.589442023053961
 20
1.128996092821092
 30
0.0
 11
0.0510629863152221
 21
0.05896245778944
 31
0.0
210
0.0
220
0.0
230
1.0
 40
0.3535533905932596
 41
3.170128934376965
 42
3.666148776231567
1001
ACAD
1000
RTLwPs
1070
   128
  0
ELLIPSE
  5
4B
100
AcDbEntity
  8
USP-GEO
  6
CONTINUOUS
100
AcDbEllipse
 10
4.589442023053961
 20
1.128996092821092
 30
0.0
 11
0.0510629863152221
 21
0.05896245778944
 31
0.0
210
0.0
220
0.0
230
1.0
 40
0.3535533905932596
 41
1.409326611863955
 42
3.192692715719649
1001
ACAD
1000
RTLwPs
1070
   128
  0
ELLIPSE
  5
4C
100
AcDbEntity
  8
USP-GEO
  6
CONTINUOUS
100
AcDbEllipse
 10
4.589442023053961
 20
1.128996092821092
 30
0.0
 11
0.0510629863152221
 21
0.05896245778944
 31
0.0
210
0.0
220
0.0
230
1.0
 40
0.3535533905932596
 41
4.308970722698655
 42
9.926315409248424
1001
ACAD
1000
RTLwPs
1070
   128
  0
ELLIPSE
  5
4D
100
AcDbEntity
  8
USP-GEO
  6
CONTINUOUS
100
AcDbEllipse
 10
4.589442023053961
 20
1.128996092821092
 30
0.0
 11
0.0510629863152221
 21
0.05896245778944
 31
0.0
210
0.0
220
0.0
230
1.0
 40
0.3535533905932596
 41
0.7060011704755796
 42
1.416629986357346
1001
ACAD
1000
RTLwPs
1070
   128
  0
ELLIPSE
  5
4E
100
AcDbEntity
  8
USP-GEO
  6
CONTINUOUS
100
AcDbEllipse
 10
4.589442023053961
 20
1.128996092821092
 30
0.0
 11
0.0510629863152221
 21
0.05896245778944
 31
0.0
210
0.0
220
0.0
230
1.0
 40
0.3535533905932596
 41
4.294951849576644
 42
5.376740080390298
1001
ACAD
1000
RTLwPs
1070
   128
  0
ELLIPSE
  5
4F
100
AcDbEntity
  8
USP-GEO
  6
CONTINUOUS
100
AcDbEllipse
 10
4.589442023053961
 20
1.128996092821092
 30
0.0
 11
0.0510629863152221
 21
0.05896245778944
 31
0.0
210
0.0
220
0.0
230
1.0
 40
0.3535533905932596
 41
0.7230330634772026
 42
6.605961268714422
1001
ACAD
1000
RTLwPs
1070
   128
  0
ELLIPSE
  5
50
100
AcDbEntity
  8
USP-GEO
  6
CONTINUOUS
100
AcDbEllipse
 10
4.589442023053961
 20
1.128996092821092
 30
0.0
 11
0.0510629863152221
 21
0.05896245778944
 31
0.0
210
0.0
220
0.0
230
1.0
 40
0.3535533905932596
 41
0.3431310798725331
 42
6.233337815838265
1001
ACAD
1000
RTLwPs
1070
   128
  0
ELLIPSE
  5
51
100
AcDbEntity
  8
USP-GEO
  6
CONTINUOUS
100
AcDbEllipse
 10
4.589442023053961
 20
1.128996092821092
 30
0.0
 11
0.0510629863152221
 21
0.05896245778944
 31
0.0
210
0.0
220
0.0
230
1.0
 40
0.3535533905932596
 41
5.368400790130074
 42
6.215431323345387
1001
ACAD
1000
RTLwPs
1070
   128
  0
LWPOLYLINE
  5
52
100
AcDbEntity
  8
USP-GEO
100
AcDbPolyline
 90
        2
 70
   128
 43
0.0
 10
4.377540997977493
 20
0.0
 10
4.433457217016004
 20
0.0
  0
LWPOLYLINE
  5
53
100
AcDbEntity
  8
USP-GEO
100
AcDbPolyline
 90
        2
 70
   128
 43
0.0
 10
4.377540997977493
 20
0.0
 10
4.377540997977493
 20
0.7975050740367742
  0
LWPOLYLINE
  5
54
100
AcDbEntity
  8
USP-GEO
100
AcDbPolyline
 90
        2
 70
   128
 43
0.0
 10
1.957766619085894
 20
2.574941886723468
 10
4.433457217016004
 20
2.574941886723468
  0
LWPOLYLINE
  5
55
100
AcDbEntity
  8
USP-GEO
100
AcDbPolyline
 90
        2
 70
   128
 43
0.0
 10
4.377540997977493
 20
0.7975050740367742
 10
4.433457217016004
 20
0.7975050740367742
  0
LWPOLYLINE
  5
56
100
AcDbEntity
  8
USP-GEO
100
AcDbPolyline
 90
        2
 70
   128
 43
0.0
 10
4.377540997977493
 20
0.7975050740367742
 10
4.377540997977493
 20
2.533004722444584
  0
LWPOLYLINE
  5
57
100
AcDbEntity
  8
USP-GEO
100
AcDbPolyline
 90
        2
 70
   128
 43
0.0
 10
1.957766619085894
 20
0.7975050740367742
 10
1.957766619085894
 20
2.574941886723468
  0
LWPOLYLINE
  5
58
100
AcDbEntity
  8
USP-GEO
100
AcDbPolyline
 90
        2
 70
   128
 43
0.0
 10
1.957766619085894
 20
0.7975050740367742
 10
1.957766619085894
 20
0.0
  0
LWPOLYLINE
  5
59
100
AcDbEntity
  8
USP-GEO
100
AcDbPolyline
 90
        2
 70
   128
 43
0.0
 10
1.999703783364778
 20
0.7975050740367742
 10
1.957766619085894
 20
0.7975050740367742
  0
LWPOLYLINE
  5
5A
100
AcDbEntity
  8
USP-GEO
100
AcDbPolyline
 90
        2
 70
   128
 43
0.0
 10
1.999703783364778
 20
0.0
 10
1.957766619085894
 20
0.0
  0
LWPOLYLINE
  5
5B
100
AcDbEntity
  8
USP-GEO
100
AcDbPolyline
 90
        2
 70
   128
 43
0.0
 10
1.999703783364778
 20
0.7975050740367742
 10
1.999703783364778
 20
0.0
  0
LWPOLYLINE
  5
5C
100
AcDbEntity
  8
USP-GEO
100
AcDbPolyline
 90
        2
 70
   128
 43
0.0
 10
1.999703783364778
 20
2.533004722444584
 10
1.999703783364778
 20
0.7975050740367742
  0
LWPOLYLINE
  5
5D
100
AcDbEntity
  8
USP-GEO
100
AcDbPolyline
 90
        2
 70
   128
 43
0.0
 10
4.377540997977493
 20
0.685672635959751
 10
4.377540997977493
 20
0.7136307454790068
  0
LWPOLYLINE
  5
5E
100
AcDbEntity
  8
USP-GEO
100
AcDbPolyline
 90
        2
 70
   128
 43
0.0
 10
3.930211245669398
 20
0.685672635959751
 10
4.377540997977493
 20
0.685672635959751
  0
LWPOLYLINE
  5
5F
100
AcDbEntity
  8
USP-GEO
100
AcDbPolyline
 90
        2
 70
   128
 43
0.0
 10
3.930211245669398
 20
0.7136307454790068
 10
3.930211245669398
 20
0.685672635959751
  0
LWPOLYLINE
  5
60
100
AcDbEntity
  8
USP-GEO
100
AcDbPolyline
 90
        2
 70
   128
 43
0.0
 10
3.776441643313492
 20
0.685672635959751
 10
3.776441643313492
 20
0.7136307454790068
  0
LWPOLYLINE
  5
61
100
AcDbEntity
  8
USP-GEO
100
AcDbPolyline
 90
        2
 70
   128
 43
0.0
 10
2.615481145526389
 20
0.685672635959751
 10
3.776441643313492
 20
0.685672635959751
  0
LWPOLYLINE
  5
62
100
AcDbEntity
  8
USP-GEO
100
AcDbPolyline
 90
        2
 70
   128
 43
0.0
 10
2.615481145526389
 20
0.7136307454790068
 10
2.615481145526389
 20
0.685672635959751
  0
LWPOLYLINE
  5
63
100
AcDbEntity
  8
USP-GEO
100
AcDbPolyline
 90
        2
 70
   128
 43
0.0
 10
2.461711543170483
 20
0.685672635959751
 10
2.461711543170483
 20
0.7136307454790068
  0
LWPOLYLINE
  5
64
100
AcDbEntity
  8
USP-GEO
100
AcDbPolyline
 90
        2
 70
   128
 43
0.0
 10
1.999703783364778
 20
0.685672635959751
 10
2.461711543170483
 20
0.685672635959751
  0
LWPOLYLINE
  5
65
100
AcDbEntity
  8
USP-GEO
100
AcDbPolyline
 90
        2
 70
   128
 43
0.0
 10
1.999703783364778
 20
0.7136307454790068
 10
1.999703783364778
 20
0.685672635959751
  0
LWPOLYLINE
  5
66
100
AcDbEntity
  8
USP-GEO
100
AcDbPolyline
 90
        2
 70
   128
 43
0.0
 10
4.377540997977493
 20
2.533004722444584
 10
1.999703783364778
 20
2.533004722444584
  0
ELLIPSE
  5
67
100
AcDbEntity
  8
USP-GEO
  6
CONTINUOUS
100
AcDbEllipse
 10
2.539141271722248
 20
0.7085267672491167
 30
0.0
 11
-0.078
 21
0.0
 31
0.0
210
0.0
220
0.0
230
1.0
 40
0.5000000000000008
 41
3.273329298682615
 42
6.152106120370995
1001
ACAD
1000
RTLwPs
1070
   128
  0
ELLIPSE
  5
68
100
AcDbEntity
  8
USP-GEO
  6
CONTINUOUS
100
AcDbEllipse
 10
3.851141271722252
 20
0.7085267672491167
 30
0.0
 11
-0.078
 21
0.0
 31
0.0
210
0.0
220
0.0
230
1.0
 40
0.5000000000000008
 41
3.26886997746084
 42
6.147373153282535
1001
ACAD
1000
RTLwPs
1070
   128
  0
LWPOLYLINE
  5
69
100
AcDbEntity
  8
USP-GEO
100
AcDbPolyline
 90
        2
 70
   128
 43
0.0
 10
4.433457217016004
 20
0.7975050740367742
 10
4.433457217016004
 20
0.0
  0
LWPOLYLINE
  5
6A
100
AcDbEntity
  8
USP-GEO
100
AcDbPolyline
 90
        2
 70
   128
 43
0.0
 10
4.433457217016004
 20
2.574941886723468
 10
4.433457217016004
 20
0.7975050740367742
  0
ELLIPSE
  5
6B
100
AcDbEntity
  8
USP-GEO
  6
CONTINUOUS
100
AcDbEllipse
 10
1.839188897520592
 20
1.162206761609498
 30
0.0
 11
-0.0510629863152227
 21
0.0589624577894394
 31
0.0
210
0.0
220
0.0
230
0.9999999999999998
 40
0.3535533905932889
 41
0.9881705726874969
 42
1.823957805800366
1001
ACAD
1000
RTLwPs
1070
   128
  0
ELLIPSE
  5
6C
100
AcDbEntity
  8
USP-GEO
  6
CONTINUOUS
100
AcDbEllipse
 10
1.800840520390686
 20
1.128996092821092
 30
0.0
 11
-0.0510629863152227
 21
0.0589624577894394
 31
0.0
210
0.0
220
0.0
230
0.9999999999999998
 40
0.3535533905932889
 41
6.271440519396839
 42
8.978090352917028
1001
ACAD
1000
RTLwPs
1070
   128
  0
ELLIPSE
  5
6D
100
AcDbEntity
  8
USP-GEO
  6
CONTINUOUS
100
AcDbEllipse
 10
1.800840520390686
 20
1.128996092821092
 30
0.0
 11
-0.0510629863152227
 21
0.0589624577894394
 31
0.0
210
0.0
220
0.0
230
0.9999999999999998
 40
0.3535533905932889
 41
0.006916922472166
 42
5.892465245512291
1001
ACAD
1000
RTLwPs
1070
   128
  0
ELLIPSE
  5
6E
100
AcDbEntity
  8
USP-GEO
  6
CONTINUOUS
100
AcDbEllipse
 10
1.800840520390686
 20
1.128996092821092
 30
0.0
 11
-0.0510629863152227
 21
0.0589624577894394
 31
0.0
210
0.0
220
0.0
230
0.9999999999999998
 40
0.3535533905932889
 41
2.718576442527526
 42
5.872302279451291
1001
ACAD
1000
RTLwPs
1070
   128
  0
ARC
  5
6F
100
AcDbEntity
  8
USP-GEO
100
AcDbCircle
 10
2.007141271722326
 20
1.307657784294109
 30
0.0
 40
0.3020000000000001
100
AcDbArc
 50
99.3055071438402
 51
260.1979868372433
  0
ARC
  5
70
100
AcDbEntity
  8
USP-GEO
100
AcDbCircle
 10
4.383141271722315
 20
1.307657784294113
 30
0.0
 40
0.3020000000000001
100
AcDbArc
 50
279.9851549306544
 51
80.52028057423013
  0
LWPOLYLINE
  5
71
100
AcDbEntity
  8
USP-GEO
100
AcDbPolyline
 90
        2
 70
   128
 43
0.0
 10
1.803997016729987
 20
3.498258453596895
 10
1.803997016729987
 20
1.73549964840781
  0
LWPOLYLINE
  5
72
100
AcDbEntity
  8
USP-GEO
100
AcDbPolyline
 90
        2
 70
   128
 43
0.0
 10
4.587925772109895
 20
1.73549964840781
 10
4.587925772109895
 20
3.498258453596895
  0
TEXT
  5
73
100
AcDbEntity
  8
USP-TXT
100
AcDbText
 10
1.195961394419941
 20
-0.7642649581562342
 30
0.0
 40
0.25
  1
TMP23 - TOP VIEW
 72
     1
 11
3.195961394419941
 21
-0.7642649581562342
 31
0.0
100
AcDbText
  0
ENDBLK
  5
7A
100
AcDbEntity
  8
0
100
AcDbBlockEnd
  0
BLOCK
  5
100
100
AcDbEntity
  8
0
100
AcDbBlockBegin
  2
TMP23PR_F
 70
     0
 10
0.0
 20
0.0
 30
0.0
  3
TMP23PR_F
  1

  0
LWPOLYLINE
  5
7D
100
AcDbEntity
  8
USP-GEO
100
AcDbPolyline
 90
        2
 70
   128
 43
0.0
 10
1.943787564326266
 20
3.120823975086938
 10
1.944486517064248
 20
3.120823975086938
  0
LWPOLYLINE
  5
7E
100
AcDbEntity
  8
USP-GEO
100
AcDbPolyline
 90
        2
 70
   128
 43
0.0
 10
1.887871345287755
 20
3.120823975086938
 10
1.888570298025737
 20
3.120823975086938
  0
LWPOLYLINE
  5
7F
100
AcDbEntity
  8
USP-GEO
100
AcDbPolyline
 90
        2
 70
   128
 43
0.0
 10
1.887871345287755
 20
3.176740194125452
 10
1.943787564326266
 20
3.176740194125452
  0
LWPOLYLINE
  5
80
100
AcDbEntity
  8
USP-GEO
100
AcDbPolyline
 90
        2
 70
   128
 43
0.0
 10
1.943787564326266
 20
3.120823975086938
 10
1.943787564326266
 20
3.176740194125452
  0
LWPOLYLINE
  5
81
100
AcDbEntity
  8
USP-GEO
100
AcDbPolyline
 90
        2
 70
   128
 43
0.0
 10
1.887871345287755
 20
3.120823975086938
 10
1.943787564326266
 20
3.120823975086938
  0
LWPOLYLINE
  5
82
100
AcDbEntity
  8
USP-GEO
100
AcDbPolyline
 90
        2
 70
   128
 43
0.0
 10
1.887871345287755
 20
3.176740194125452
 10
1.887871345287755
 20
3.120823975086938
  0
LWPOLYLINE
  5
83
100
AcDbEntity
  8
USP-GEO
100
AcDbPolyline
 90
        2
 70
   128
 43
0.0
 10
4.447436271775633
 20
3.120823975086938
 10
4.448135224513614
 20
3.120823975086938
  0
LWPOLYLINE
  5
84
100
AcDbEntity
  8
USP-GEO
100
AcDbPolyline
 90
        2
 70
   128
 43
0.0
 10
4.490072388792499
 20
3.120823975086938
 10
4.490771341530479
 20
3.120823975086938
  0
LWPOLYLINE
  5
85
100
AcDbEntity
  8
USP-GEO
100
AcDbPolyline
 90
        2
 70
   128
 43
0.0
 10
4.490072388792499
 20
3.120823975086938
 10
4.447436271775633
 20
3.120823975086938
  0
LWPOLYLINE
  5
86
100
AcDbEntity
  8
USP-GEO
100
AcDbPolyline
 90
        2
 70
   128
 43
0.0
 10
4.447436271775633
 20
3.120823975086938
 10
4.447436271775633
 20
3.176740194125452
  0
LWPOLYLINE
  5
87
100
AcDbEntity
  8
USP-GEO
100
AcDbPolyline
 90
        2
 70
   128
 43
0.0
 10
4.490072388792499
 20
3.176740194125452
 10
4.447436271775633
 20
3.176740194125452
  0
LWPOLYLINE
  5
88
100
AcDbEntity
  8
USP-GEO
100
AcDbPolyline
 90
        2
 70
   128
 43
0.0
 10
4.490072388792499
 20
3.176740194125452
 10
4.490072388792499
 20
3.120823975086938
  0
LWPOLYLINE
  5
89
100
AcDbEntity
  8
USP-GEO
100
AcDbPolyline
 90
        2
 70
   128
 43
0.0
 10
4.447436271775633
 20
3.106844920327311
 10
4.447436271775633
 20
2.868502036675655
  0
LWPOLYLINE
  5
8A
100
AcDbEntity
  8
USP-GEO
100
AcDbPolyline
 90
        2
 70
   128
 43
0.0
 10
4.447436271775633
 20
2.938397310473794
 10
4.447436271775633
 20
2.868502036675655
  0
ELLIPSE
  5
8B
100
AcDbEntity
  8
USP-GEO
  6
CONTINUOUS
100
AcDbEllipse
 10
4.483594881096084
 20
2.888904270947261
 30
0.0
 11
-0.0289766180879629
 21
0.055376941087799
 31
0.0
210
0.0
220
0.0
230
1.0
 40
0.2113009628740913
 41
4.796587535576733
 42
6.900461164992846
1001
ACAD
1000
RTLwPs
1070
   128
  0
ELLIPSE
  5
8C
100
AcDbEntity
  8
USP-GEO
  6
CONTINUOUS
100
AcDbEllipse
 10
4.507444200241891
 20
2.936264978624578
 30
0.0
 11
-0.0000000000000017
 21
-0.0827924579353582
 31
0.0
210
0.0
220
0.0
230
1.0
 40
0.9063154044609454
 41
0.5604738705124822
 42
2.111650824633485
1001
ACAD
1000
RTLwPs
1070
   128
  0
LWPOLYLINE
  5
8D
100
AcDbEntity
  8
USP-GEO
100
AcDbPolyline
 90
        2
 70
   128
 43
0.0
 10
4.490072388792499
 20
2.826564872396771
 10
4.54598860783101
 20
2.868502036675655
  0
LWPOLYLINE
  5
8E
100
AcDbEntity
  8
USP-GEO
100
AcDbPolyline
 90
        2
 70
   128
 43
0.0
 10
4.447436271775633
 20
0.9519736291306628
 10
4.447436271775633
 20
2.868502036675655
  0
LWPOLYLINE
  5
8F
100
AcDbEntity
  8
USP-GEO
100
AcDbPolyline
 90
        2
 70
   128
 43
0.0
 10
4.518030498311754
 20
2.910439200954538
 10
4.447436271775633
 20
2.868502036675655
  0
ELLIPSE
  5
90
100
AcDbEntity
  8
USP-GEO
  6
CONTINUOUS
100
AcDbEllipse
 10
4.507444200241891
 20
2.936264978624578
 30
0.0
 11
-0.0000000000000005
 21
-0.0254172883817431
 31
0.0
210
0.0
220
0.0
230
1.0
 40
0.9063154044609454
 41
0.4247517852140354
 42
2.107098597854807
1001
ACAD
1000
RTLwPs
1070
   128
  0
ELLIPSE
  5
91
100
AcDbEntity
  8
USP-GEO
  6
CONTINUOUS
100
AcDbEllipse
 10
4.507444200241891
 20
2.936264978624578
 30
0.0
 11
-0.0000000000000005
 21
-0.0254172883817431
 31
0.0
210
0.0
220
0.0
230
1.0
 40
0.9063154044609454
 41
1.649304991292813
 42
7.930326856502824
1001
ACAD
1000
RTLwPs
1070
   128
  0
LWPOLYLINE
  5
92
100
AcDbEntity
  8
USP-GEO
100
AcDbPolyline
 90
        2
 70
   128
 43
0.0
 10
4.447436271775633
 20
3.106844920327311
 10
4.532009553071381
 20
2.952376365233423
  0
LWPOLYLINE
  5
93
100
AcDbEntity
  8
USP-GEO
100
AcDbPolyline
 90
        2
 70
   128
 43
0.0
 10
4.447436271775633
 20
3.120823975086938
 10
4.447436271775633
 20
3.106844920327311
  0
LWPOLYLINE
  5
94
100
AcDbEntity
  8
USP-GEO
100
AcDbPolyline
 90
        2
 70
   128
 43
0.0
 10
4.490072388792499
 20
3.120823975086938
 10
4.447436271775633
 20
3.120823975086938
  0
LWPOLYLINE
  5
95
100
AcDbEntity
  8
USP-GEO
100
AcDbPolyline
 90
        2
 70
   128
 43
0.0
 10
4.573946717350266
 20
2.980334474752678
 10
4.490072388792499
 20
3.120823975086938
  0
LWPOLYLINE
  5
96
100
AcDbEntity
  8
USP-GEO
100
AcDbPolyline
 90
        2
 70
   128
 43
0.0
 10
6.391922788839882
 20
0.0
 10
5.665011941339227
 20
0.0
  0
LWPOLYLINE
  5
97
100
AcDbEntity
  8
USP-GEO
100
AcDbPolyline
 90
        2
 70
   128
 43
0.0
 10
5.665011941339227
 20
0.0
 10
4.853527812542826
 20
0.7975050740367742
  0
LWPOLYLINE
  5
98
100
AcDbEntity
  8
USP-GEO
100
AcDbPolyline
 90
        2
 70
   128
 43
0.0
 10
4.853527812542826
 20
0.8541202458132666
 10
4.853527812542826
 20
0.7975050740367742
  0
CIRCLE
  5
99
100
AcDbEntity
  8
USP-GEO
100
AcDbCircle
 10
5.917237518233366
 20
0.3035104639646953
 30
0.0
 40
0.078
  0
LWPOLYLINE
  5
9A
100
AcDbEntity
  8
USP-GEO
100
AcDbPolyline
 90
        2
 70
   128
 43
0.0
 10
6.391922788839882
 20
0.8541202458132666
 10
6.391922788839882
 20
0.0
  0
LWPOLYLINE
  5
9B
100
AcDbEntity
  8
USP-GEO
100
AcDbPolyline
 90
        2
 70
   128
 43
0.0
 10
2.615481145526389
 20
0.7975050740367742
 10
2.615481145526389
 20
0.8541202458132666
  0
LWPOLYLINE
  5
9C
100
AcDbEntity
  8
USP-GEO
100
AcDbPolyline
 90
        2
 70
   128
 43
0.0
 10
2.461711543170483
 20
0.7975050740367742
 10
2.461711543170483
 20
0.8541202458132666
  0
LWPOLYLINE
  5
9D
100
AcDbEntity
  8
USP-GEO
100
AcDbPolyline
 90
        2
 70
   128
 43
0.0
 10
1.999703783364778
 20
0.7975050740367742
 10
1.999703783364778
 20
0.8541202458132666
  0
LWPOLYLINE
  5
9E
100
AcDbEntity
  8
USP-GEO
100
AcDbPolyline
 90
        2
 70
   128
 43
0.0
 10
1.524415921537428
 20
0.7975050740367742
 10
1.524415921537428
 20
0.8541202458132666
  0
LWPOLYLINE
  5
9F
100
AcDbEntity
  8
USP-GEO
100
AcDbPolyline
 90
        2
 70
   128
 43
0.0
 10
0.0
 20
0.0
 10
0.0
 20
0.8541202458132666
  0
LWPOLYLINE
  5
A0
100
AcDbEntity
  8
USP-GEO
100
AcDbPolyline
 90
        2
 70
   128
 43
0.0
 10
4.490072388792499
 20
2.826564872396771
 10
4.490072388792499
 20
0.9519736291306628
  0
LWPOLYLINE
  5
A1
100
AcDbEntity
  8
USP-GEO
100
AcDbPolyline
 90
        2
 70
   128
 43
0.0
 10
4.377540997977493
 20
0.7975050740367742
 10
4.377540997977493
 20
0.8541202458132666
  0
LWPOLYLINE
  5
A2
100
AcDbEntity
  8
USP-GEO
100
AcDbPolyline
 90
        2
 70
   128
 43
0.0
 10
3.930211245669398
 20
0.7975050740367742
 10
3.930211245669398
 20
0.8541202458132666
  0
LWPOLYLINE
  5
A3
100
AcDbEntity
  8
USP-GEO
100
AcDbPolyline
 90
        2
 70
   128
 43
0.0
 10
3.776441643313492
 20
0.7975050740367742
 10
3.776441643313492
 20
0.8541202458132666
  0
LWPOLYLINE
  5
A4
100
AcDbEntity
  8
USP-GEO
100
AcDbPolyline
 90
        2
 70
   128
 43
0.0
 10
1.524415921537428
 20
0.7975050740367742
 10
0.7269108475006539
 20
0.0
  0
LWPOLYLINE
  5
A5
100
AcDbEntity
  8
USP-GEO
100
AcDbPolyline
 90
        2
 70
   128
 43
0.0
 10
0.0
 20
0.0
 10
0.7269108475006539
 20
0.0
  0
CIRCLE
  5
A6
100
AcDbEntity
  8
USP-GEO
100
AcDbCircle
 10
0.4730450252111096
 20
0.3035104639648072
 30
0.0
 40
0.078
  0
LWPOLYLINE
  5
A7
100
AcDbEntity
  8
USP-GEO
100
AcDbPolyline
 90
        2
 70
   128
 43
0.0
 10
4.447436271775633
 20
0.8541202458132666
 10
4.447436271775633
 20
0.9519736291306628
  0
LWPOLYLINE
  5
A8
100
AcDbEntity
  8
USP-GEO
100
AcDbPolyline
 90
        2
 70
   128
 43
0.0
 10
4.490072388792499
 20
0.9519736291306628
 10
4.490072388792499
 20
0.8541202458132666
  0
LWPOLYLINE
  5
A9
100
AcDbEntity
  8
USP-GEO
100
AcDbPolyline
 90
        2
 70
   128
 43
0.0
 10
4.54598860783101
 20
2.043038853119623
 10
4.490072388792499
 20
2.015080743600368
  0
ELLIPSE
  5
AA
100
AcDbEntity
  8
USP-GEO
  6
CONTINUOUS
100
AcDbEllipse
 10
4.507444200241873
 20
2.120264978624614
 30
0.0
 11
-0.0000000000000017
 21
-0.0827924579353582
 31
0.0
210
0.0
220
0.0
230
1.0
 40
0.9063154044609454
 41
0.5033830978463683
 42
1.488429249588007
1001
ACAD
1000
RTLwPs
1070
   128
  0
LWPOLYLINE
  5
AB
100
AcDbEntity
  8
USP-GEO
100
AcDbPolyline
 90
        2
 70
   128
 43
0.0
 10
1.845934181008871
 20
0.7975050740367742
 10
1.524415921537428
 20
0.7975050740367742
  0
LWPOLYLINE
  5
AC
100
AcDbEntity
  8
USP-GEO
100
AcDbPolyline
 90
        2
 70
   128
 43
0.0
 10
1.999703783364778
 20
0.7975050740367742
 10
1.845934181008871
 20
0.7975050740367742
  0
LWPOLYLINE
  5
AD
100
AcDbEntity
  8
USP-GEO
100
AcDbPolyline
 90
        2
 70
   128
 43
0.0
 10
2.461711543170483
 20
0.7975050740367742
 10
1.999703783364778
 20
0.7975050740367742
  0
LWPOLYLINE
  5
AE
100
AcDbEntity
  8
USP-GEO
100
AcDbPolyline
 90
        2
 70
   128
 43
0.0
 10
2.615481145526389
 20
0.7975050740367742
 10
2.461711543170483
 20
0.7975050740367742
  0
LWPOLYLINE
  5
AF
100
AcDbEntity
  8
USP-GEO
100
AcDbPolyline
 90
        2
 70
   128
 43
0.0
 10
3.776441643313492
 20
0.7975050740367742
 10
2.615481145526389
 20
0.7975050740367742
  0
LWPOLYLINE
  5
B0
100
AcDbEntity
  8
USP-GEO
100
AcDbPolyline
 90
        2
 70
   128
 43
0.0
 10
3.930211245669398
 20
0.7975050740367742
 10
3.776441643313492
 20
0.7975050740367742
  0
LWPOLYLINE
  5
B1
100
AcDbEntity
  8
USP-GEO
100
AcDbPolyline
 90
        2
 70
   128
 43
0.0
 10
4.377540997977493
 20
0.7975050740367742
 10
3.930211245669398
 20
0.7975050740367742
  0
LWPOLYLINE
  5
B2
100
AcDbEntity
  8
USP-GEO
100
AcDbPolyline
 90
        2
 70
   128
 43
0.0
 10
4.54598860783101
 20
0.7975050740367742
 10
4.377540997977493
 20
0.7975050740367742
  0
LWPOLYLINE
  5
B3
100
AcDbEntity
  8
USP-GEO
100
AcDbPolyline
 90
        2
 70
   128
 43
0.0
 10
4.853527812542826
 20
0.7975050740367742
 10
4.54598860783101
 20
0.7975050740367742
  0
LWPOLYLINE
  5
B4
100
AcDbEntity
  8
USP-GEO
100
AcDbPolyline
 90
        2
 70
   128
 43
0.0
 10
1.887871345287755
 20
2.826564872396771
 10
1.887871345287755
 20
0.9519736291306628
  0
LWPOLYLINE
  5
B5
100
AcDbEntity
  8
USP-GEO
100
AcDbPolyline
 90
        2
 70
   128
 43
0.0
 10
1.887871345287755
 20
0.9519736291306628
 10
1.887871345287755
 20
0.8541202458132666
  0
LWPOLYLINE
  5
B6
100
AcDbEntity
  8
USP-GEO
100
AcDbPolyline
 90
        2
 70
   128
 43
0.0
 10
1.943787564326266
 20
0.8541202458132666
 10
1.943787564326266
 20
0.9519736291306628
  0
LWPOLYLINE
  5
B7
100
AcDbEntity
  8
USP-GEO
100
AcDbPolyline
 90
        2
 70
   128
 43
0.0
 10
1.943787564326266
 20
0.9519736291306628
 10
1.943787564326266
 20
2.868502036675655
  0
LWPOLYLINE
  5
B8
100
AcDbEntity
  8
USP-GEO
100
AcDbPolyline
 90
        2
 70
   128
 43
0.0
 10
1.845934181008871
 20
2.043038853119623
 10
1.887871345287755
 20
2.015080743600368
  0
LWPOLYLINE
  5
B9
100
AcDbEntity
  8
USP-GEO
100
AcDbPolyline
 90
        2
 70
   128
 43
0.0
 10
1.887871345287755
 20
2.826564872396771
 10
1.845934181008871
 20
2.868502036675655
  0
ELLIPSE
  5
BA
100
AcDbEntity
  8
USP-GEO
  6
CONTINUOUS
100
AcDbEllipse
 10
1.881838343202676
 20
2.120264978624666
 30
0.0
 11
-0.0000000000000017
 21
-0.0827924579353582
 31
0.0
210
0.0
220
0.0
230
1.0
 40
0.9063154044609454
 41
4.79753654451084
 42
5.809206994180004
1001
ACAD
1000
RTLwPs
1070
   128
  0
ELLIPSE
  5
BB
100
AcDbEntity
  8
USP-GEO
  6
CONTINUOUS
100
AcDbEllipse
 10
1.881838343202694
 20
2.936264978624633
 30
0.0
 11
-0.0000000000000017
 21
-0.0827924579353582
 31
0.0
210
0.0
220
0.0
230
1.0
 40
0.9063154044609454
 41
4.153486334990177
 42
5.754151883827015
1001
ACAD
1000
RTLwPs
1070
   128
  0
LWPOLYLINE
  5
BC
100
AcDbEntity
  8
USP-GEO
100
AcDbPolyline
 90
        2
 70
   128
 43
0.0
 10
1.817976071489615
 20
2.980334474752678
 10
1.887871345287755
 20
3.120823975086938
  0
LWPOLYLINE
  5
BD
100
AcDbEntity
  8
USP-GEO
100
AcDbPolyline
 90
        2
 70
   128
 43
0.0
 10
1.887871345287755
 20
3.120823975086938
 10
1.943787564326266
 20
3.120823975086938
  0
LWPOLYLINE
  5
BE
100
AcDbEntity
  8
USP-GEO
100
AcDbPolyline
 90
        2
 70
   128
 43
0.0
 10
1.943787564326266
 20
3.120823975086938
 10
1.943787564326266
 20
3.106844920327311
  0
LWPOLYLINE
  5
BF
100
AcDbEntity
  8
USP-GEO
100
AcDbPolyline
 90
        2
 70
   128
 43
0.0
 10
1.943787564326266
 20
3.106844920327311
 10
1.943787564326266
 20
2.868502036675655
  0
LWPOLYLINE
  5
C0
100
AcDbEntity
  8
USP-GEO
100
AcDbPolyline
 90
        2
 70
   128
 43
0.0
 10
1.943787564326266
 20
3.106844920327311
 10
1.859913235768499
 20
2.952376365233423
  0
LWPOLYLINE
  5
C1
100
AcDbEntity
  8
USP-GEO
100
AcDbPolyline
 90
        2
 70
   128
 43
0.0
 10
1.929808509566639
 20
2.938397310473794
 10
1.929808509566639
 20
2.868502036675655
  0
ELLIPSE
  5
C2
100
AcDbEntity
  8
USP-GEO
  6
CONTINUOUS
100
AcDbEllipse
 10
1.905687662348499
 20
2.888904270947314
 30
0.0
 11
0.0289766180879652
 21
0.0553769410877979
 31
0.0
210
0.0
220
0.0
230
1.0
 40
0.2113009628740907
 41
0.0814726053831509
 42
1.587942493857185
1001
ACAD
1000
RTLwPs
1070
   128
  0
LWPOLYLINE
  5
C3
100
AcDbEntity
  8
USP-GEO
100
AcDbPolyline
 90
        2
 70
   128
 43
0.0
 10
1.873892290528127
 20
2.910439200954538
 10
1.943787564326266
 20
2.868502036675655
  0
ELLIPSE
  5
C4
100
AcDbEntity
  8
USP-GEO
  6
CONTINUOUS
100
AcDbEllipse
 10
1.881838343202694
 20
2.936264978624633
 30
0.0
 11
-0.0000000000000005
 21
-0.0254172883817431
 31
0.0
210
0.0
220
0.0
230
1.0
 40
0.9063154044609454
 41
4.124851965070346
 42
5.955909853476928
1001
ACAD
1000
RTLwPs
1070
   128
  0
LWPOLYLINE
  5
C5
100
AcDbEntity
  8
USP-GEO
100
AcDbPolyline
 90
        2
 70
   128
 43
0.0
 10
3.776441643313492
 20
0.8541202458132666
 10
3.930211245669398
 20
0.8541202458132666
  0
LWPOLYLINE
  5
C6
100
AcDbEntity
  8
USP-GEO
100
AcDbPolyline
 90
        2
 70
   128
 43
0.0
 10
2.461711543170483
 20
0.8541202458132666
 10
2.615481145526389
 20
0.8541202458132666
  0
LWPOLYLINE
  5
C7
100
AcDbEntity
  8
USP-GEO
100
AcDbPolyline
 90
        2
 70
   128
 43
0.0
 10
1.845934181008871
 20
0.8541202458132666
 10
1.999703783364778
 20
0.8541202458132666
  0
LWPOLYLINE
  5
C8
100
AcDbEntity
  8
USP-GEO
100
AcDbPolyline
 90
        2
 70
   128
 43
0.0
 10
1.524415921537428
 20
0.8541202458132666
 10
1.845934181008871
 20
0.8541202458132666
  0
LWPOLYLINE
  5
C9
100
AcDbEntity
  8
USP-GEO
100
AcDbPolyline
 90
        2
 70
   128
 43
0.0
 10
0.0
 20
0.8541202458132666
 10
1.524415921537428
 20
0.8541202458132666
  0
LWPOLYLINE
  5
CA
100
AcDbEntity
  8
USP-GEO
100
AcDbPolyline
 90
        2
 70
   128
 43
0.0
 10
4.853527812542826
 20
0.8541202458132666
 10
6.391922788839882
 20
0.8541202458132666
  0
LWPOLYLINE
  5
CB
100
AcDbEntity
  8
USP-GEO
100
AcDbPolyline
 90
        2
 70
   128
 43
0.0
 10
4.853527812542826
 20
0.8541202458132666
 10
4.54598860783101
 20
0.8541202458132666
  0
LWPOLYLINE
  5
CC
100
AcDbEntity
  8
USP-GEO
100
AcDbPolyline
 90
        2
 70
   128
 43
0.0
 10
4.377540997977493
 20
0.8541202458132666
 10
4.54598860783101
 20
0.8541202458132666
  0
ELLIPSE
  5
CD
100
AcDbEntity
  8
USP-GEO
  6
CONTINUOUS
100
AcDbEllipse
 10
4.551093645924054
 20
4.451239932006791
 30
0.0
 11
-0.0348826604489955
 21
0.0697653208979944
 31
0.0
210
0.0
220
0.0
230
1.0
 40
0.6123724356957942
 41
3.549955293071023
 42
5.973659068530836
1001
ACAD
1000
RTLwPs
1070
   128
  0
ELLIPSE
  5
CE
100
AcDbEntity
  8
USP-GEO
  6
CONTINUOUS
100
AcDbEllipse
 10
4.589442023053961
 20
4.47041412057174
 30
0.0
 11
0.0348826604489955
 21
-0.0697653208979944
 31
0.0
210
0.0
220
0.0
230
1.0
 40
0.6123724356957942
 41
3.34800617247596
 42
5.811489514699556
1001
ACAD
1000
RTLwPs
1070
   128
  0
ELLIPSE
  5
CF
100
AcDbEntity
  8
USP-GEO
  6
CONTINUOUS
100
AcDbEllipse
 10
4.589442023053961
 20
4.47041412057174
 30
0.0
 11
0.0348826604489955
 21
-0.0697653208979944
 31
0.0
210
0.0
220
0.0
230
1.0
 40
0.6123724356957942
 41
2.72189643955881
 42
3.35995582057082
1001
ACAD
1000
RTLwPs
1070
   128
  0
ELLIPSE
  5
D0
100
AcDbEntity
  8
USP-GEO
  6
CONTINUOUS
100
AcDbEllipse
 10
4.589442023053961
 20
4.47041412057174
 30
0.0
 11
0.0348826604489955
 21
-0.0697653208979944
 31
0.0
210
0.0
220
0.0
230
1.0
 40
0.6123724356957942
 41
5.824129178375307
 42
8.992436195838854
1001
ACAD
1000
RTLwPs
1070
   128
  0
LWPOLYLINE
  5
D1
100
AcDbEntity
  8
USP-GEO
100
AcDbPolyline
 90
        2
 70
   128
 43
0.0
 10
4.377540997977493
 20
0.8820783553325224
 10
4.433457217016004
 20
0.8820783553325224
  0
LWPOLYLINE
  5
D2
100
AcDbEntity
  8
USP-GEO
100
AcDbPolyline
 90
        2
 70
   128
 43
0.0
 10
4.377540997977493
 20
0.9100364648517782
 10
4.433457217016004
 20
0.9100364648517782
  0
LWPOLYLINE
  5
D3
100
AcDbEntity
  8
USP-GEO
100
AcDbPolyline
 90
        2
 70
   128
 43
0.0
 10
4.377540997977493
 20
0.9100364648517782
 10
4.377540997977493
 20
0.9659526838902898
  0
LWPOLYLINE
  5
D4
100
AcDbEntity
  8
USP-GEO
100
AcDbPolyline
 90
        2
 70
   128
 43
0.0
 10
4.377540997977493
 20
0.9659526838902898
 10
4.377540997977493
 20
3.666007110712429
  0
LWPOLYLINE
  5
D5
100
AcDbEntity
  8
USP-GEO
100
AcDbPolyline
 90
        2
 70
   128
 43
0.0
 10
4.377540997977493
 20
3.666007110712429
 10
4.433457217016004
 20
3.666007110712429
  0
LWPOLYLINE
  5
D6
100
AcDbEntity
  8
USP-GEO
100
AcDbPolyline
 90
        2
 70
   128
 43
0.0
 10
4.377540997977493
 20
3.666007110712429
 10
4.377540997977493
 20
5.051331437391559
  0
LWPOLYLINE
  5
D7
100
AcDbEntity
  8
USP-GEO
100
AcDbPolyline
 90
        2
 70
   128
 43
0.0
 10
4.377540997977493
 20
5.051331437391559
 10
4.433457217016004
 20
5.051331437391559
  0
LWPOLYLINE
  5
D8
100
AcDbEntity
  8
USP-GEO
100
AcDbPolyline
 90
        2
 70
   128
 43
0.0
 10
1.957766619085894
 20
5.051331437391559
 10
1.957766619085894
 20
3.666007110712429
  0
LWPOLYLINE
  5
D9
100
AcDbEntity
  8
USP-GEO
100
AcDbPolyline
 90
        2
 70
   128
 43
0.0
 10
1.999703783364778
 20
5.051331437391559
 10
1.957766619085894
 20
5.051331437391559
  0
LWPOLYLINE
  5
DA
100
AcDbEntity
  8
USP-GEO
100
AcDbPolyline
 90
        2
 70
   128
 43
0.0
 10
1.957766619085894
 20
3.666007110712429
 10
1.957766619085894
 20
0.9659526838902898
  0
LWPOLYLINE
  5
DB
100
AcDbEntity
  8
USP-GEO
100
AcDbPolyline
 90
        2
 70
   128
 43
0.0
 10
1.999703783364778
 20
3.666007110712429
 10
1.957766619085894
 20
3.666007110712429
  0
LWPOLYLINE
  5
DC
100
AcDbEntity
  8
USP-GEO
100
AcDbPolyline
 90
        2
 70
   128
 43
0.0
 10
1.957766619085894
 20
0.9100364648517782
 10
1.957766619085894
 20
0.9659526838902898
  0
LWPOLYLINE
  5
DD
100
AcDbEntity
  8
USP-GEO
100
AcDbPolyline
 90
        2
 70
   128
 43
0.0
 10
1.999703783364778
 20
0.8820783553325224
 10
1.957766619085894
 20
0.8820783553325224
  0
LWPOLYLINE
  5
DE
100
AcDbEntity
  8
USP-GEO
100
AcDbPolyline
 90
        2
 70
   128
 43
0.0
 10
1.957766619085894
 20
0.8820783553325224
 10
1.957766619085894
 20
0.9100364648517782
  0
LWPOLYLINE
  5
DF
100
AcDbEntity
  8
USP-GEO
100
AcDbPolyline
 90
        2
 70
   128
 43
0.0
 10
1.999703783364778
 20
0.9100364648517782
 10
1.957766619085894
 20
0.9100364648517782
  0
LWPOLYLINE
  5
E0
100
AcDbEntity
  8
USP-GEO
100
AcDbPolyline
 90
        2
 70
   128
 43
0.0
 10
1.999703783364778
 20
0.9659526838902898
 10
1.999703783364778
 20
0.9100364648517782
  0
LWPOLYLINE
  5
E1
100
AcDbEntity
  8
USP-GEO
100
AcDbPolyline
 90
        2
 70
   128
 43
0.0
 10
1.999703783364778
 20
3.666007110712429
 10
1.999703783364778
 20
0.9659526838902898
  0
LWPOLYLINE
  5
E2
100
AcDbEntity
  8
USP-GEO
100
AcDbPolyline
 90
        2
 70
   128
 43
0.0
 10
1.999703783364778
 20
5.051331437391559
 10
1.999703783364778
 20
3.666007110712429
  0
LWPOLYLINE
  5
E3
100
AcDbEntity
  8
USP-GEO
100
AcDbPolyline
 90
        2
 70
   128
 43
0.0
 10
4.377540997977493
 20
0.8541202458132666
 10
4.377540997977493
 20
0.8960574100921512
  0
LWPOLYLINE
  5
E4
100
AcDbEntity
  8
USP-GEO
100
AcDbPolyline
 90
        2
 70
   128
 43
0.0
 10
3.930211245669398
 20
0.8541202458132666
 10
4.377540997977493
 20
0.8541202458132666
  0
LWPOLYLINE
  5
E5
100
AcDbEntity
  8
USP-GEO
100
AcDbPolyline
 90
        2
 70
   128
 43
0.0
 10
3.930211245669398
 20
0.8960574100921512
 10
3.930211245669398
 20
0.8541202458132666
  0
LWPOLYLINE
  5
E6
100
AcDbEntity
  8
USP-GEO
100
AcDbPolyline
 90
        2
 70
   128
 43
0.0
 10
3.776441643313492
 20
0.8541202458132666
 10
3.776441643313492
 20
0.8960574100921512
  0
LWPOLYLINE
  5
E7
100
AcDbEntity
  8
USP-GEO
100
AcDbPolyline
 90
        2
 70
   128
 43
0.0
 10
2.615481145526389
 20
0.8541202458132666
 10
3.776441643313492
 20
0.8541202458132666
  0
LWPOLYLINE
  5
E8
100
AcDbEntity
  8
USP-GEO
100
AcDbPolyline
 90
        2
 70
   128
 43
0.0
 10
2.615481145526389
 20
0.8960574100921512
 10
2.615481145526389
 20
0.8541202458132666
  0
LWPOLYLINE
  5
E9
100
AcDbEntity
  8
USP-GEO
100
AcDbPolyline
 90
        2
 70
   128
 43
0.0
 10
2.461711543170483
 20
0.8541202458132666
 10
2.461711543170483
 20
0.8960574100921512
  0
LWPOLYLINE
  5
EA
100
AcDbEntity
  8
USP-GEO
100
AcDbPolyline
 90
        2
 70
   128
 43
0.0
 10
1.999703783364778
 20
0.8541202458132666
 10
2.461711543170483
 20
0.8541202458132666
  0
LWPOLYLINE
  5
EB
100
AcDbEntity
  8
USP-GEO
100
AcDbPolyline
 90
        2
 70
   128
 43
0.0
 10
1.999703783364778
 20
0.8960574100921512
 10
1.999703783364778
 20
0.8541202458132666
  0
LWPOLYLINE
  5
EC
100
AcDbEntity
  8
USP-GEO
100
AcDbPolyline
 90
        2
 70
   128
 43
0.0
 10
4.377540997977493
 20
4.044140541960366
 10
1.999703783364778
 20
4.044140541960366
  0
LWPOLYLINE
  5
ED
100
AcDbEntity
  8
USP-GEO
100
AcDbPolyline
 90
        2
 70
   128
 43
0.0
 10
1.999703783364778
 20
0.9100364648517782
 10
1.999703783364778
 20
0.8820783553325224
  0
ELLIPSE
  5
EE
100
AcDbEntity
  8
USP-GEO
  6
CONTINUOUS
100
AcDbEllipse
 10
2.539141271722248
 20
0.8745437849615207
 30
0.0
 11
-0.078
 21
0.0000000000000016
 31
0.0
210
0.0
220
0.0
230
1.0
 40
0.8660254037844381
 41
3.044421761204812
 42
6.378996893962488
1001
ACAD
1000
RTLwPs
1070
   128
  0
ELLIPSE
  5
EF
100
AcDbEntity
  8
USP-GEO
  6
CONTINUOUS
100
AcDbEllipse
 10
2.539141271722248
 20
0.9005437849615205
 30
0.0
 11
-0.078
 21
0.0000000000000016
 31
0.0
210
0.0
220
0.0
230
1.0
 40
0.8660254037844381
 41
3.073836588208348
 42
6.349990533661127
1001
ACAD
1000
RTLwPs
1070
   128
  0
ELLIPSE
  5
F0
100
AcDbEntity
  8
USP-GEO
  6
CONTINUOUS
100
AcDbEllipse
 10
3.851141271722252
 20
0.874543784961494
 30
0.0
 11
-0.078
 21
0.0000000000000016
 31
0.0
210
0.0
220
0.0
230
1.0
 40
0.8660254037844381
 41
3.047756835293582
 42
6.382476019316598
1001
ACAD
1000
RTLwPs
1070
   128
  0
ELLIPSE
  5
F1
100
AcDbEntity
  8
USP-GEO
  6
CONTINUOUS
100
AcDbEllipse
 10
3.851141271722252
 20
0.9005437849614938
 30
0.0
 11
-0.078
 21
0.0000000000000016
 31
0.0
210
0.0
220
0.0
230
1.0
 40
0.8660254037844381
 41
3.07616925712475
 42
6.352424452374263
1001
ACAD
1000
RTLwPs
1070
   128
  0
LWPOLYLINE
  5
F2
100
AcDbEntity
  8
USP-GEO
100
AcDbPolyline
 90
        2
 70
   128
 43
0.0
 10
4.377540997977493
 20
0.8820783553325224
 10
4.377540997977493
 20
0.9100364648517782
  0
LWPOLYLINE
  5
F3
100
AcDbEntity
  8
USP-GEO
100
AcDbPolyline
 90
        2
 70
   128
 43
0.0
 10
4.433457217016004
 20
0.8820783553325224
 10
4.433457217016004
 20
0.9100364648517782
  0
LWPOLYLINE
  5
F4
100
AcDbEntity
  8
USP-GEO
100
AcDbPolyline
 90
        2
 70
   128
 43
0.0
 10
4.433457217016004
 20
0.9659526838902898
 10
4.433457217016004
 20
0.9100364648517782
  0
LWPOLYLINE
  5
F5
100
AcDbEntity
  8
USP-GEO
100
AcDbPolyline
 90
        2
 70
   128
 43
0.0
 10
4.433457217016004
 20
3.666007110712429
 10
4.433457217016004
 20
0.9659526838902898
  0
LWPOLYLINE
  5
F6
100
AcDbEntity
  8
USP-GEO
100
AcDbPolyline
 90
        2
 70
   128
 43
0.0
 10
4.433457217016004
 20
5.051331437391559
 10
4.433457217016004
 20
3.666007110712429
  0
ELLIPSE
  5
F7
100
AcDbEntity
  8
USP-GEO
  6
CONTINUOUS
100
AcDbEllipse
 10
1.839188897520592
 20
4.451239932006844
 30
0.0
 11
0.0348826604489983
 21
0.0697653208979929
 31
0.0
210
0.0
220
0.0
230
1.0
 40
0.6123724356957946
 41
0.545711350098114
 42
2.757281280432845
1001
ACAD
1000
RTLwPs
1070
   128
  0
ELLIPSE
  5
F8
100
AcDbEntity
  8
USP-GEO
  6
CONTINUOUS
100
AcDbEllipse
 10
1.800840520390686
 20
4.470414120571797
 30
0.0
 11
-0.0348826604489983
 21
-0.0697653208979929
 31
0.0
210
0.0
220
0.0
230
1.0
 40
0.6123724356957946
 41
4.272154297091317
 42
6.527153830870567
1001
ACAD
1000
RTLwPs
1070
   128
  0
ELLIPSE
  5
F9
100
AcDbEntity
  8
USP-GEO
  6
CONTINUOUS
100
AcDbEllipse
 10
1.800840520390686
 20
4.470414120571797
 30
0.0
 11
-0.0348826604489983
 21
-0.0697653208979929
 31
0.0
210
0.0
220
0.0
230
1.0
 40
0.6123724356957946
 41
2.331374469510713
 42
4.28114525307562
1001
ACAD
1000
RTLwPs
1070
   128
  0
ELLIPSE
  5
FA
100
AcDbEntity
  8
USP-GEO
  6
CONTINUOUS
100
AcDbEllipse
 10
1.800840520390686
 20
4.470414120571797
 30
0.0
 11
-0.0348826604489983
 21
-0.0697653208979929
 31
0.0
210
0.0
220
0.0
230
1.0
 40
0.6123724356957946
 41
0.2569445746799355
 42
2.325741926295369
1001
ACAD
1000
RTLwPs
1070
   128
  0
ARC
  5
FB
100
AcDbEntity
  8
USP-GEO
100
AcDbCircle
 10
2.007141271722326
 20
4.367263744905974
 30
0.0
 40
0.3020000000000001
100
AcDbArc
 50
99.57637907317632
 51
260.5035960894289
  0
ARC
  5
FC
100
AcDbEntity
  8
USP-GEO
100
AcDbCircle
 10
4.383141271722315
 20
4.367263744905928
 30
0.0
 40
0.3020000000000001
100
AcDbArc
 50
279.6740559143703
 51
80.24453026956377
  0
LWPOLYLINE
  5
FD
100
AcDbEntity
  8
USP-GEO
100
AcDbPolyline
 90
        2
 70
   128
 43
0.0
 10
1.803997016729987
 20
2.112934126917764
 10
1.803997016729987
 20
2.938397310473794
  0
LWPOLYLINE
  5
FE
100
AcDbEntity
  8
USP-GEO
100
AcDbPolyline
 90
        2
 70
   128
 43
0.0
 10
4.587925772109895
 20
2.938397310473794
 10
4.587925772109895
 20
2.112934126917764
  0
TEXT
  5
FF
100
AcDbEntity
  8
USP-TXT
100
AcDbText
 10
0.9459613944199416
 20
-0.839738475899316
 30
0.0
 40
0.25
  1
TMP23 - FRONT VIEW
 72
     1
 11
3.195961394419941
 21
-0.839738475899316
 31
0.0
100
AcDbText
  0
ENDBLK
  5
101
100
AcDbEntity
  8
0
100
AcDbBlockEnd
  0
BLOCK
  5
142
100
AcDbEntity
  8
0
100
AcDbBlockBegin
  2
TMP23PR_S
 70
     0
 10
0.0
 20
0.0
 30
0.0
  3
TMP23PR_S
  1

  0
LWPOLYLINE
  5
104
100
AcDbEntity
  8
USP-GEO
100
AcDbPolyline
 90
        2
 70
   128
 43
0.0
 10
1.734800695669827
 20
3.120823975086938
 10
3.496860548120933
 20
2.309339846290537
  0
LWPOLYLINE
  5
105
100
AcDbEntity
  8
USP-GEO
100
AcDbPolyline
 90
        2
 70
   128
 43
0.0
 10
3.496860548120933
 20
2.309339846290537
 10
3.496860548120933
 20
2.616879051002351
  0
LWPOLYLINE
  5
106
100
AcDbEntity
  8
USP-GEO
100
AcDbPolyline
 90
        2
 70
   128
 43
0.0
 10
3.496860548120933
 20
2.616879051002351
 10
3.021572686293582
 20
3.176740194125452
  0
LWPOLYLINE
  5
107
100
AcDbEntity
  8
USP-GEO
100
AcDbPolyline
 90
        2
 70
   128
 43
0.0
 10
3.021572686293582
 20
3.176740194125452
 10
1.734800695669827
 20
3.176740194125452
  0
LWPOLYLINE
  5
108
100
AcDbEntity
  8
USP-GEO
100
AcDbPolyline
 90
        2
 70
   128
 43
0.0
 10
1.734800695669827
 20
3.176740194125452
 10
1.734800695669827
 20
3.120823975086938
  0
LWPOLYLINE
  5
109
100
AcDbEntity
  8
USP-GEO
100
AcDbPolyline
 90
        2
 70
   128
 43
0.0
 10
2.042339900381643
 20
2.854522981916026
 10
3.189321343409117
 20
2.323318901050164
  0
ELLIPSE
  5
10A
100
AcDbEntity
  8
USP-GEO
  6
CONTINUOUS
100
AcDbEllipse
 10
2.059358599917461
 20
2.912468273414042
 30
0.0
 11
0.0566447127822639
 21
-0.0264126203554101
 31
0.0
210
0.0
220
0.0
230
1.0
 40
0.8660254037699317
 41
1.573550702941483
 42
4.843097492722333
1001
ACAD
1000
RTLwPs
1070
   128
  0
ELLIPSE
  5
10B
100
AcDbEntity
  8
USP-GEO
  6
CONTINUOUS
100
AcDbEllipse
 10
3.208816724621685
 20
2.376473453065436
 30
0.0
 11
0.0566447127822639
 21
-0.0264126203554101
 31
0.0
210
0.0
220
0.0
230
1.0
 40
0.8660254037699317
 41
4.785854833909692
 42
6.033032284416124
1001
ACAD
1000
RTLwPs
1070
   128
  0
ELLIPSE
  5
10C
100
AcDbEntity
  8
USP-GEO
  6
CONTINUOUS
100
AcDbEllipse
 10
3.208816724621685
 20
2.376473453065436
 30
0.0
 11
0.0566447127822639
 21
-0.0264126203554101
 31
0.0
210
0.0
220
0.0
230
1.0
 40
0.8660254037699317
 41
0.0730179868438505
 42
6.025461061251326
1001
ACAD
1000
RTLwPs
1070
   128
  0
ELLIPSE
  5
10D
100
AcDbEntity
  8
USP-GEO
  6
CONTINUOUS
100
AcDbEllipse
 10
3.208816724621685
 20
2.376473453065436
 30
0.0
 11
0.0566447127822639
 21
-0.0264126203554101
 31
0.0
210
0.0
220
0.0
230
1.0
 40
0.8660254037699317
 41
0.0772270877306096
 42
1.545692731953122
1001
ACAD
1000
RTLwPs
1070
   128
  0
LWPOLYLINE
  5
10E
100
AcDbEntity
  8
USP-GEO
100
AcDbPolyline
 90
        2
 70
   128
 43
0.0
 10
3.231258507688002
 20
2.42117228436756
 10
3.496860548120933
 20
2.309339846290537
  0
LWPOLYLINE
  5
10F
100
AcDbEntity
  8
USP-GEO
100
AcDbPolyline
 90
        2
 70
   128
 43
0.0
 10
3.231258507688002
 20
2.42117228436756
 10
3.231957460425983
 20
2.42117228436756
  0
LWPOLYLINE
  5
110
100
AcDbEntity
  8
USP-GEO
100
AcDbPolyline
 90
        2
 70
   128
 43
0.0
 10
3.231258507688002
 20
2.42117228436756
 10
2.084277064660527
 20
2.96635541999305
  0
LWPOLYLINE
  5
111
100
AcDbEntity
  8
USP-GEO
100
AcDbPolyline
 90
        2
 70
   128
 43
0.0
 10
2.084277064660527
 20
2.96635541999305
 10
2.084976017398508
 20
2.96635541999305
  0
LWPOLYLINE
  5
112
100
AcDbEntity
  8
USP-GEO
100
AcDbPolyline
 90
        2
 70
   128
 43
0.0
 10
1.734800695669827
 20
3.120823975086938
 10
2.084277064660527
 20
2.96635541999305
  0
LWPOLYLINE
  5
113
100
AcDbEntity
  8
USP-GEO
100
AcDbPolyline
 90
        2
 70
   128
 43
0.0
 10
2.0702980099009
 20
2.938397310473794
 10
3.217279452928371
 20
2.393214174848305
  0
ELLIPSE
  5
114
100
AcDbEntity
  8
USP-GEO
  6
CONTINUOUS
100
AcDbEllipse
 10
3.19782864981464
 20
2.352909450598657
 30
0.0
 11
0.0566447127822638
 21
-0.0264126203554101
 31
0.0
210
0.0
220
0.0
230
1.0
 40
0.8660254037699107
 41
0.2154263550934357
 42
1.559268052043065
1001
ACAD
1000
RTLwPs
1070
   128
  0
ELLIPSE
  5
115
100
AcDbEntity
  8
USP-GEO
  6
CONTINUOUS
100
AcDbEllipse
 10
2.048370525110419
 20
2.888904270947261
 30
0.0
 11
0.0566447127822638
 21
-0.0264126203554101
 31
0.0
210
0.0
220
0.0
230
1.0
 40
0.8660254037699107
 41
1.587478100457748
 42
2.910527643073424
1001
ACAD
1000
RTLwPs
1070
   128
  0
LWPOLYLINE
  5
116
100
AcDbEntity
  8
USP-GEO
100
AcDbPolyline
 90
        2
 70
   128
 43
0.0
 10
1.734800695669827
 20
2.868502036675655
 10
1.734800695669827
 20
2.980334474752678
  0
LWPOLYLINE
  5
117
100
AcDbEntity
  8
USP-GEO
100
AcDbPolyline
 90
        2
 70
   128
 43
0.0
 10
1.734800695669827
 20
2.826564872396771
 10
1.734800695669827
 20
2.868502036675655
  0
LWPOLYLINE
  5
118
100
AcDbEntity
  8
USP-GEO
100
AcDbPolyline
 90
        2
 70
   128
 43
0.0
 10
1.734800695669827
 20
2.980334474752678
 10
1.734800695669827
 20
3.120823975086938
  0
LWPOLYLINE
  5
119
100
AcDbEntity
  8
USP-GEO
100
AcDbPolyline
 90
        2
 70
   128
 43
0.0
 10
0.4899658693249585
 20
0.0
 10
0.433350697548466
 20
0.0
  0
LWPOLYLINE
  5
11A
100
AcDbEntity
  8
USP-GEO
100
AcDbPolyline
 90
        2
 70
   128
 43
0.0
 10
0.433350697548466
 20
0.8541202458132666
 10
0.433350697548466
 20
0.0
  0
LWPOLYLINE
  5
11B
100
AcDbEntity
  8
USP-GEO
100
AcDbPolyline
 90
        2
 70
   128
 43
0.0
 10
0.4899658693249585
 20
0.7975050740367742
 10
0.4899658693249585
 20
0.0
  0
LWPOLYLINE
  5
11C
100
AcDbEntity
  8
USP-GEO
100
AcDbPolyline
 90
        2
 70
   128
 43
0.0
 10
1.734800695669827
 20
2.826564872396771
 10
1.734800695669827
 20
0.9519736291306628
  0
LWPOLYLINE
  5
11D
100
AcDbEntity
  8
USP-GEO
100
AcDbPolyline
 90
        2
 70
   128
 43
0.0
 10
1.734800695669827
 20
2.826564872396771
 10
3.496860548120933
 20
2.015080743600368
  0
LWPOLYLINE
  5
11E
100
AcDbEntity
  8
USP-GEO
100
AcDbPolyline
 90
        2
 70
   128
 43
0.0
 10
1.650926367112059
 20
0.7975050740367742
 10
1.650926367112059
 20
0.8541202458132666
  0
LWPOLYLINE
  5
11F
100
AcDbEntity
  8
USP-GEO
100
AcDbPolyline
 90
        2
 70
   128
 43
0.0
 10
1.552374031056682
 20
0.7975050740367742
 10
1.552374031056682
 20
0.8541202458132666
  0
ARC
  5
120
100
AcDbEntity
  8
USP-GEO
100
AcDbCircle
 10
1.646282764478465
 20
0.9492604639646948
 30
0.0
 40
0.09375
100
AcDbArc
 50
272.7942742729729
 51
1.755624612532141
  0
LWPOLYLINE
  5
121
100
AcDbEntity
  8
USP-GEO
100
AcDbPolyline
 90
        2
 70
   128
 43
0.0
 10
3.496860548120933
 20
0.7975050740367742
 10
3.496860548120933
 20
2.015080743600368
  0
LWPOLYLINE
  5
122
100
AcDbEntity
  8
USP-GEO
100
AcDbPolyline
 90
        2
 70
   128
 43
0.0
 10
3.496860548120933
 20
2.043038853119623
 10
3.496860548120933
 20
2.015080743600368
  0
LWPOLYLINE
  5
123
100
AcDbEntity
  8
USP-GEO
100
AcDbPolyline
 90
        2
 70
   128
 43
0.0
 10
3.496860548120933
 20
2.154871291196648
 10
3.496860548120933
 20
2.043038853119623
  0
LWPOLYLINE
  5
124
100
AcDbEntity
  8
USP-GEO
100
AcDbPolyline
 90
        2
 70
   128
 43
0.0
 10
3.496860548120933
 20
2.309339846290537
 10
3.496860548120933
 20
2.154871291196648
  0
LWPOLYLINE
  5
125
100
AcDbEntity
  8
USP-GEO
100
AcDbPolyline
 90
        2
 70
   128
 43
0.0
 10
1.552374031056682
 20
0.7975050740367742
 10
0.4899658693249585
 20
0.7975050740367742
  0
LWPOLYLINE
  5
126
100
AcDbEntity
  8
USP-GEO
100
AcDbPolyline
 90
        2
 70
   128
 43
0.0
 10
1.650926367112059
 20
0.7975050740367742
 10
1.552374031056682
 20
0.7975050740367742
  0
LWPOLYLINE
  5
127
100
AcDbEntity
  8
USP-GEO
100
AcDbPolyline
 90
        2
 70
   128
 43
0.0
 10
3.496860548120933
 20
0.7975050740367742
 10
1.650926367112059
 20
0.7975050740367742
  0
LWPOLYLINE
  5
128
100
AcDbEntity
  8
USP-GEO
100
AcDbPolyline
 90
        2
 70
   128
 43
0.0
 10
1.552374031056682
 20
0.8541202458132666
 10
1.650926367112059
 20
0.8541202458132666
  0
LWPOLYLINE
  5
129
100
AcDbEntity
  8
USP-GEO
100
AcDbPolyline
 90
        2
 70
   128
 43
0.0
 10
1.552374031056682
 20
0.8541202458132666
 10
0.433350697548466
 20
0.8541202458132666
  0
ELLIPSE
  5
12A
100
AcDbEntity
  8
USP-GEO
  6
CONTINUOUS
100
AcDbEllipse
 10
1.167712353414584
 20
4.451239932006791
 30
0.0
 11
0.0390000000000002
 21
0.0675499814951865
 31
0.0
210
0.0
220
0.0
230
0.9999999999999998
 40
0.7071067811865551
 41
1.591385899740591
 42
2.892509606271308
1001
ACAD
1000
RTLwPs
1070
   128
  0
ELLIPSE
  5
12B
100
AcDbEntity
  8
USP-GEO
  6
CONTINUOUS
100
AcDbEllipse
 10
1.167712353414584
 20
4.451239932006791
 30
0.0
 11
0.0390000000000002
 21
0.0675499814951865
 31
0.0
210
0.0
220
0.0
230
0.9999999999999998
 40
0.7071067811865551
 41
0.3129899863301534
 42
1.591385899740591
1001
ACAD
1000
RTLwPs
1070
   128
  0
ELLIPSE
  5
12C
100
AcDbEntity
  8
USP-GEO
  6
CONTINUOUS
100
AcDbEllipse
 10
1.134501684626178
 20
4.47041412057174
 30
0.0
 11
-0.0390000000000002
 21
-0.0675499814951865
 31
0.0
210
0.0
220
0.0
230
0.9999999999999998
 40
0.7071067811865551
 41
6.168356385313034
 42
12.09953874164592
1001
ACAD
1000
RTLwPs
1070
   128
  0
ELLIPSE
  5
12D
100
AcDbEntity
  8
USP-GEO
  6
CONTINUOUS
100
AcDbEllipse
 10
1.134501684626178
 20
4.47041412057174
 30
0.0
 11
-0.0390000000000002
 21
-0.0675499814951865
 31
0.0
210
0.0
220
0.0
230
0.9999999999999998
 40
0.7071067811865551
 41
4.064686825754337
 42
5.824056928143749
1001
ACAD
1000
RTLwPs
1070
   128
  0
ELLIPSE
  5
12E
100
AcDbEntity
  8
USP-GEO
  6
CONTINUOUS
100
AcDbEllipse
 10
1.134501684626178
 20
4.47041412057174
 30
0.0
 11
-0.0390000000000002
 21
-0.0675499814951865
 31
0.0
210
0.0
220
0.0
230
0.9999999999999998
 40
0.7071067811865551
 41
3.082112152549115
 42
4.074670746481904
1001
ACAD
1000
RTLwPs
1070
   128
  0
ELLIPSE
  5
12F
100
AcDbEntity
  8
USP-GEO
  6
CONTINUOUS
100
AcDbEllipse
 10
1.134501684626178
 20
4.47041412057174
 30
0.0
 11
-0.0390000000000002
 21
-0.0675499814951865
 31
0.0
210
0.0
220
0.0
230
0.9999999999999998
 40
0.7071067811865551
 41
6.178993453877889
 42
9.354314694688362
1001
ACAD
1000
RTLwPs
1070
   128
  0
LWPOLYLINE
  5
130
100
AcDbEntity
  8
USP-GEO
100
AcDbPolyline
 90
        2
 70
   128
 43
0.0
 10
0.7555679097578896
 20
0.8541202458132666
 10
0.7555679097578896
 20
0.8680993005728954
  0
LWPOLYLINE
  5
131
100
AcDbEntity
  8
USP-GEO
100
AcDbPolyline
 90
        2
 70
   128
 43
0.0
 10
0.685672635959751
 20
0.8541202458132666
 10
0.7136307454790068
 20
0.8960574100921512
  0
LWPOLYLINE
  5
132
100
AcDbEntity
  8
USP-GEO
100
AcDbPolyline
 90
        2
 70
   128
 43
0.0
 10
0.7695469645175184
 20
0.8820783553325224
 10
0.7555679097578896
 20
0.8680993005728954
  0
LWPOLYLINE
  5
133
100
AcDbEntity
  8
USP-GEO
100
AcDbPolyline
 90
        2
 70
   128
 43
0.0
 10
0.7136307454790068
 20
0.8960574100921512
 10
0.7276098002386338
 20
0.9100364648517782
  0
CIRCLE
  5
134
100
AcDbEntity
  8
USP-GEO
100
AcDbCircle
 10
1.313163376099199
 20
4.367263744905928
 30
0.0
 40
0.2974894956128706
  0
LWPOLYLINE
  5
135
100
AcDbEntity
  8
USP-GEO
100
AcDbPolyline
 90
        2
 70
   128
 43
0.0
 10
2.084277064660527
 20
3.176740194125452
 10
2.573543981247505
 20
4.016182432441109
  0
LWPOLYLINE
  5
136
100
AcDbEntity
  8
USP-GEO
100
AcDbPolyline
 90
        2
 70
   128
 43
0.0
 10
1.986423681343131
 20
3.008292584271934
 10
1.987122634081112
 20
3.008292584271934
  0
LWPOLYLINE
  5
137
100
AcDbEntity
  8
USP-GEO
100
AcDbPolyline
 90
        2
 70
   128
 43
0.0
 10
0.7695469645175184
 20
0.8820783553325224
 10
1.734800695669827
 20
2.574941886723468
  0
LWPOLYLINE
  5
138
100
AcDbEntity
  8
USP-GEO
100
AcDbPolyline
 90
        2
 70
   128
 43
0.0
 10
0.7695469645175184
 20
0.8820783553325224
 10
0.7276098002386338
 20
0.9100364648517782
  0
ARC
  5
139
100
AcDbEntity
  8
USP-GEO
100
AcDbCircle
 10
0.6334917937901086
 20
0.9470434338538211
 30
0.0
 40
0.09375
100
AcDbArc
 50
338.5353697278042
 51
11.36005829274773
  0
LWPOLYLINE
  5
13A
100
AcDbEntity
  8
USP-GEO
100
AcDbPolyline
 90
        2
 70
   128
 43
0.0
 10
0.0
 20
3.666007110712429
 10
0.7276098002386338
 20
0.9659526838902898
  0
LWPOLYLINE
  5
13B
100
AcDbEntity
  8
USP-GEO
100
AcDbPolyline
 90
        2
 70
   128
 43
0.0
 10
0.7975050740367742
 20
5.051331437391559
 10
0.0
 20
3.666007110712429
  0
LWPOLYLINE
  5
13C
100
AcDbEntity
  8
USP-GEO
100
AcDbPolyline
 90
        2
 70
   128
 43
0.0
 10
2.573543981247505
 20
4.016182432441109
 10
0.7975050740367742
 20
5.051331437391559
  0
LWPOLYLINE
  5
13D
100
AcDbEntity
  8
USP-GEO
100
AcDbPolyline
 90
        2
 70
   128
 43
0.0
 10
0.8254631835560299
 20
2.924418255714167
 10
1.216876716825613
 20
3.610090891673918
  0
ARC
  5
13E
100
AcDbEntity
  8
USP-GEO
100
AcDbCircle
 10
1.149348576823781
 20
3.653529382531308
 30
0.0
 40
0.078
100
AcDbArc
 50
327.2482405607903
 51
150.7699553457513
  0
LWPOLYLINE
  5
13F
100
AcDbEntity
  8
USP-GEO
100
AcDbPolyline
 90
        2
 70
   128
 43
0.0
 10
1.077086169229332
 20
3.693965220231685
 10
0.685672635959751
 20
3.008292584271934
  0
ARC
  5
140
100
AcDbEntity
  8
USP-GEO
100
AcDbCircle
 10
0.751985582320339
 20
2.965277538439535
 30
0.0
 40
0.078
100
AcDbArc
 50
147.0298403061251
 51
330.922523897199
  0
TEXT
  5
141
100
AcDbEntity
  8
USP-TXT
100
AcDbText
 10
-0.3349030592728686
 20
-0.839738475899316
 30
0.0
 40
0.25
  1
TMP23 - SIDE VIEW
 72
     1
 11
1.748430274060465
 21
-0.839738475899316
 31
0.0
100
AcDbText
  0
ENDBLK
  5
143
100
AcDbEntity
  8
0
100
AcDbBlockEnd
  0
ENDSEC
  0
SECTION
  2
ENTITIES
  0
INSERT
  5
3
100
AcDbEntity
  8
USP
100
AcDbBlockReference
  2
TMP23PR_T
 10
-0.0037366178975473
 20
10.53610470414211
 30
0.0
  0
INSERT
  5
7B
100
AcDbEntity
  8
USP
100
AcDbBlockReference
  2
TMP23PR_F
 10
-0.0037366178975473
 20
1.748870882239982
 30
0.0
  0
INSERT
  5
102
100
AcDbEntity
  8
USP
100
AcDbBlockReference
  2
TMP23PR_S
 10
9.815151445265128
 20
1.748870882239982
 30
0.0
  0
ENDSEC
  0
SECTION
  2
OBJECTS
  0
DICTIONARY
  5
15B
100
AcDbDictionary
  3
ACAD_GROUP
350
159
  3
ACAD_MLINESTYLE
350
15A
  0
DICTIONARY
  5
9
100
AcDbDictionary
280
     1
  3
ACAD_XREC_ROUNDTRIP
360
A
  0
DICTIONARY
  5
75
100
AcDbDictionary
280
     1
  3
ACAD_XREC_ROUNDTRIP
360
76
  0
DICTIONARY
  5
15E
100
AcDbDictionary
280
     1
  3
ACAD_XREC_ROUNDTRIP
360
15F
  0
DICTIONARY
  5
144
100
AcDbDictionary
280
     1
  3
ACAD_LAYOUTSELFREF
360
145
  0
DICTIONARY
  5
149
100
AcDbDictionary
280
     1
  3
ACAD_LAYOUTSELFREF
360
14A
  0
DICTIONARY
  5
159
102
{ACAD_REACTORS
330
15B
102
}
100
AcDbDictionary
  0
DICTIONARY
  5
15A
102
{ACAD_REACTORS
330
15B
102
}
100
AcDbDictionary
  3
STANDARD
350
15C
  0
XRECORD
  5
A
102
{ACAD_REACTORS
330
9
102
}
100
AcDbXrecord
102
EXTNAMES
  1
USP-GEO
  2
USP-Geo
  0
XRECORD
  5
76
102
{ACAD_REACTORS
330
75
102
}
100
AcDbXrecord
102
EXTNAMES
  1
USP-TXT
  2
USP-Txt
  0
XRECORD
  5
15F
102
{ACAD_REACTORS
330
15E
102
}
100
AcDbXrecord
102
ACADR14ROUNDTRIP
1000
DSTYLE
1002
{
1070
   276
 70
     2
1070
   277
 70
     5
1002
}
  0
XRECORD
  5
145
102
{ACAD_REACTORS
330
144
102
}
100
AcDbXrecord
340
2
  0
XRECORD
  5
14A
102
{ACAD_REACTORS
330
149
102
}
100
AcDbXrecord
340
0
  0
MLINESTYLE
  5
15C
102
{ACAD_REACTORS
330
15A
102
}
100
AcDbMlineStyle
  2
STANDARD
 70
     0
  3

 62
     0
 51
90.0
 52
90.0
 71
     2
 49
0.5
 62
   256
  6
BYLAYER
 49
-0.5
 62
   256
  6
BYLAYER
  0
ENDSEC
  0
EOF
