  0
SECTION
  2
HEADER
  9
$ACADVER
  1
AC1014
  9
$ACADMAINTVER
 70
     8
  9
$DWGCODEPAGE
  3
ANSI_1252
  9
$INSBASE
 10
0.0
 20
0.0
 30
0.0
  9
$EXTMIN
 10
-0.0046290949427252
 20
0.9454245284744128
 30
0.0
  9
$EXTMAX
 10
11.58999672077112
 20
12.99156835308028
 30
0.0
  9
$LIMMIN
 10
0.0
 20
0.0
  9
$LIMMAX
 10
12.0
 20
9.0
  9
$ORTHOMODE
 70
     0
  9
$REGENMODE
 70
     1
  9
$FILLMODE
 70
     1
  9
$QTEXTMODE
 70
     0
  9
$MIRRTEXT
 70
     0
  9
$DRAGMODE
 70
     2
  9
$LTSCALE
 40
1.5
  9
$OSMODE
 70
     0
  9
$ATTMODE
 70
     1
  9
$TEXTSIZE
 40
0.25
  9
$TRACEWID
 40
0.05
  9
$TEXTSTYLE
  7
STANDARD
  9
$CLAYER
  8
USP
  9
$CELTYPE
  6
BYLAYER
  9
$CECOLOR
 62
   256
  9
$CELTSCALE
 40
1.0
  9
$DELOBJ
 70
     1
  9
$DISPSILH
 70
     1
  9
$DIMSCALE
 40
5.0
  9
$DIMASZ
 40
0.125
  9
$DIMEXO
 40
0.0625
  9
$DIMDLI
 40
0.38
  9
$DIMRND
 40
0.0
  9
$DIMDLE
 40
0.0
  9
$DIMEXE
 40
0.09375
  9
$DIMTP
 40
0.0
  9
$DIMTM
 40
0.0
  9
$DIMTXT
 40
0.109375
  9
$DIMCEN
 40
0.0
  9
$DIMTSZ
 40
0.0
  9
$DIMTOL
 70
     0
  9
$DIMLIM
 70
     0
  9
$DIMTIH
 70
     1
  9
$DIMTOH
 70
     1
  9
$DIMSE1
 70
     0
  9
$DIMSE2
 70
     0
  9
$DIMTAD
 70
     0
  9
$DIMZIN
 70
     8
  9
$DIMBLK
  1

  9
$DIMASO
 70
     1
  9
$DIMSHO
 70
     1
  9
$DIMPOST
  1

  9
$DIMAPOST
  1

  9
$DIMALT
 70
     0
  9
$DIMALTD
 70
     2
  9
$DIMALTF
 40
25.4
  9
$DIMLFAC
 40
1.0
  9
$DIMTOFL
 70
     0
  9
$DIMTVP
 40
0.0
  9
$DIMTIX
 70
     0
  9
$DIMSOXD
 70
     0
  9
$DIMSAH
 70
     0
  9
$DIMBLK1
  1

  9
$DIMBLK2
  1

  9
$DIMSTYLE
  2
STANDARD
  9
$DIMCLRD
 70
   256
  9
$DIMCLRE
 70
   256
  9
$DIMCLRT
 70
   256
  9
$DIMTFAC
 40
1.0
  9
$DIMGAP
 40
0.09
  9
$DIMJUST
 70
     0
  9
$DIMSD1
 70
     0
  9
$DIMSD2
 70
     0
  9
$DIMTOLJ
 70
     1
  9
$DIMTZIN
 70
     0
  9
$DIMALTZ
 70
     0
  9
$DIMALTTZ
 70
     0
  9
$DIMFIT
 70
     3
  9
$DIMUPT
 70
     1
  9
$DIMUNIT
 70
     7
  9
$DIMDEC
 70
     4
  9
$DIMTDEC
 70
     4
  9
$DIMALTU
 70
     2
  9
$DIMALTTD
 70
     2
  9
$DIMTXSTY
  7
STANDARD
  9
$DIMAUNIT
 70
     0
  9
$LUNITS
 70
     5
  9
$LUPREC
 70
     6
  9
$SKETCHINC
 40
0.1
  9
$FILLETRAD
 40
0.0
  9
$AUNITS
 70
     0
  9
$AUPREC
 70
     1
  9
$MENU
  1
CUSTOM
  9
$ELEVATION
 40
0.0
  9
$PELEVATION
 40
0.0
  9
$THICKNESS
 40
0.0
  9
$LIMCHECK
 70
     0
  9
$BLIPMODE
 70
     0
  9
$CHAMFERA
 40
0.0
  9
$CHAMFERB
 40
0.0
  9
$CHAMFERC
 40
0.0
  9
$CHAMFERD
 40
0.0
  9
$SKPOLY
 70
     0
  9
$TDCREATE
 40
2451263.621564698
  9
$TDUPDATE
 40
2453025.972236319
  9
$TDINDWG
 40
1.0592959838
  9
$TDUSRTIMER
 40
1.0592959838
  9
$USRTIMER
 70
     1
  9
$ANGBASE
 50
0.0
  9
$ANGDIR
 70
     0
  9
$PDMODE
 70
     0
  9
$PDSIZE
 40
0.0
  9
$PLINEWID
 40
0.0
  9
$COORDS
 70
     2
  9
$SPLFRAME
 70
     0
  9
$SPLINETYPE
 70
     6
  9
$SPLINESEGS
 70
     8
  9
$ATTDIA
 70
     0
  9
$ATTREQ
 70
     0
  9
$HANDLING
 70
     1
  9
$HANDSEED
  5
14E
  9
$SURFTAB1
 70
     6
  9
$SURFTAB2
 70
     6
  9
$SURFTYPE
 70
     6
  9
$SURFU
 70
     6
  9
$SURFV
 70
     6
  9
$UCSNAME
  2

  9
$UCSORG
 10
0.0
 20
0.0
 30
0.0
  9
$UCSXDIR
 10
1.0
 20
0.0
 30
0.0
  9
$UCSYDIR
 10
0.0
 20
1.0
 30
0.0
  9
$PUCSNAME
  2

  9
$PUCSORG
 10
0.0
 20
0.0
 30
0.0
  9
$PUCSXDIR
 10
1.0
 20
0.0
 30
0.0
  9
$PUCSYDIR
 10
0.0
 20
1.0
 30
0.0
  9
$USERI1
 70
     0
  9
$USERI2
 70
     0
  9
$USERI3
 70
     0
  9
$USERI4
 70
     0
  9
$USERI5
 70
     0
  9
$USERR1
 40
0.0
  9
$USERR2
 40
0.0
  9
$USERR3
 40
0.0
  9
$USERR4
 40
0.0
  9
$USERR5
 40
0.0
  9
$WORLDVIEW
 70
     1
  9
$SHADEDGE
 70
     3
  9
$SHADEDIF
 70
    70
  9
$TILEMODE
 70
     1
  9
$MAXACTVP
 70
    16
  9
$PINSBASE
 10
0.0
 20
0.0
 30
0.0
  9
$PLIMCHECK
 70
     0
  9
$PEXTMIN
 10
1.000000000000000E+20
 20
1.000000000000000E+20
 30
1.000000000000000E+20
  9
$PEXTMAX
 10
-1.000000000000000E+20
 20
-1.000000000000000E+20
 30
-1.000000000000000E+20
  9
$PLIMMIN
 10
0.0
 20
0.0
  9
$PLIMMAX
 10
12.0
 20
9.0
  9
$UNITMODE
 70
     0
  9
$VISRETAIN
 70
     0
  9
$PLINEGEN
 70
     0
  9
$PSLTSCALE
 70
     0
  9
$TREEDEPTH
 70
  3020
  9
$PICKSTYLE
 70
     1
  9
$CMLSTYLE
  2
STANDARD
  9
$CMLJUST
 70
     0
  9
$CMLSCALE
 40
1.0
  9
$PROXYGRAPHICS
 70
     1
  9
$MEASUREMENT
 70
     0
  0
ENDSEC
  0
SECTION
  2
CLASSES
  0
CLASS
  1
ACDBDICTIONARYWDFLT
  2
AcDbDictionaryWithDefault
  3
AutoCAD 2000
 90
        0
280
     0
281
     0
  0
CLASS
  1
ACDBPLACEHOLDER
  2
AcDbPlaceHolder
  3
AutoCAD 2000
 90
        0
280
     0
281
     0
  0
CLASS
  1
LAYOUT
  2
AcDbLayout
  3
AutoCAD 2000
 90
        0
280
     0
281
     0
  0
CLASS
  1
DICTIONARYVAR
  2
AcDbDictionaryVar
  3
"AutoCAD"
 90
        0
280
     0
281
     0
  0
CLASS
  1
SORTENTSTABLE
  2
AcDbSortentsTable
  3
"AutoCAD"
 90
        0
280
     0
281
     0
  0
CLASS
  1
LONG_TRANSACTION
  2
AcDbLongTransaction
  3
AutoCAD 2000
 90
        0
280
     0
281
     0
  0
CLASS
  1
LWPOLYLINE
  2
AcDbPolyline
  3
"AutoCAD"
 90
        0
280
     0
281
     1
  0
CLASS
  1
HATCH
  2
AcDbHatch
  3
"ACAD_SEDONA"
 90
        0
280
     0
281
     1
  0
CLASS
  1
XRECORD
  2
AcDbXrecord
  3
"<Built In>"
 90
        0
280
     0
281
     0
  0
CLASS
  1
LONG_TRANSACTION
  2
AcDbLongTransaction
  3
AutoCAD 2000
 90
        0
280
     0
281
     0
  0
CLASS
  1
LWPOLYLINE
  2
AcDbPolyline
  3
"AutoCAD"
 90
        0
280
     0
281
     1
  0
CLASS
  1
HATCH
  2
AcDbHatch
  3
"ACAD_SEDONA"
 90
        0
280
     0
281
     1
  0
CLASS
  1
XRECORD
  2
AcDbXrecord
  3
"<Built In>"
 90
        0
280
     0
281
     0
  0
CLASS
  1
LONG_TRANSACTION
  2
AcDbLongTransaction
  3
AutoCAD 2000
 90
        0
280
     0
281
     0
  0
CLASS
  1
LWPOLYLINE
  2
AcDbPolyline
  3
"AutoCAD"
 90
        0
280
     0
281
     1
  0
CLASS
  1
HATCH
  2
AcDbHatch
  3
"ACAD_SEDONA"
 90
        0
280
     0
281
     1
  0
CLASS
  1
XRECORD
  2
AcDbXrecord
  3
"<Built In>"
 90
        0
280
     0
281
     0
  0
CLASS
  1
LONG_TRANSACTION
  2
AcDbLongTransaction
  3
AutoCAD 2000
 90
        0
280
     0
281
     0
  0
CLASS
  1
LWPOLYLINE
  2
AcDbPolyline
  3
"AutoCAD"
 90
        0
280
     0
281
     1
  0
CLASS
  1
HATCH
  2
AcDbHatch
  3
"ACAD_SEDONA"
 90
        0
280
     0
281
     1
  0
CLASS
  1
XRECORD
  2
AcDbXrecord
  3
"<Built In>"
 90
        0
280
     0
281
     0
  0
CLASS
  1
LONG_TRANSACTION
  2
AcDbLongTransaction
  3
AutoCAD 2000
 90
        0
280
     0
281
     0
  0
CLASS
  1
LWPOLYLINE
  2
AcDbPolyline
  3
"AutoCAD"
 90
        0
280
     0
281
     1
  0
CLASS
  1
HATCH
  2
AcDbHatch
  3
"ACAD_SEDONA"
 90
        0
280
     0
281
     1
  0
CLASS
  1
XRECORD
  2
AcDbXrecord
  3
"<Built In>"
 90
        0
280
     0
281
     0
  0
ENDSEC
  0
SECTION
  2
TABLES
  0
TABLE
  2
VPORT
  5
13F
100
AcDbSymbolTable
 70
     1
  0
VPORT
  5
140
100
AcDbSymbolTableRecord
100
AcDbViewportTableRecord
  2
*ACTIVE
 70
     0
 10
0.0
 20
0.0
 11
1.0
 21
1.0
 12
-0.1040171932445073
 22
11.46049206912724
 13
0.0
 23
0.0
 14
1.0
 24
1.0
 15
0.0
 25
0.0
 16
0.0
 26
0.0
 36
1.0
 17
5.89654543797549
 27
-3.902519167236666
 37
-0.9532348151084899
 40
13.31234255552112
 41
1.379227053140096
 42
50.0
 43
0.0
 44
0.0
 50
0.0
 51
0.0
 71
     0
 72
   100
 73
     1
 74
     1
 75
     0
 76
     0
 77
     0
 78
     0
  0
ENDTAB
  0
TABLE
  2
LTYPE
  5
13A
100
AcDbSymbolTable
 70
     1
  0
LTYPE
  5
13B
100
AcDbSymbolTableRecord
100
AcDbLinetypeTableRecord
  2
BYBLOCK
 70
     0
  3

 72
    65
 73
     0
 40
0.0
  0
LTYPE
  5
13C
100
AcDbSymbolTableRecord
100
AcDbLinetypeTableRecord
  2
BYLAYER
 70
     0
  3

 72
    65
 73
     0
 40
0.0
  0
LTYPE
  5
5
100
AcDbSymbolTableRecord
100
AcDbLinetypeTableRecord
  2
CONTINUOUS
 70
     0
  3
Solid line
 72
    65
 73
     0
 40
0.0
  0
ENDTAB
  0
TABLE
  2
LAYER
  5
138
100
AcDbSymbolTable
 70
     4
  0
LAYER
  5
7D
100
AcDbSymbolTableRecord
100
AcDbLayerTableRecord
  2
0
 70
     0
 62
     7
  6
CONTINUOUS
  0
LAYER
  5
8
102
{ACAD_XDICTIONARY
360
9
102
}
100
AcDbSymbolTableRecord
100
AcDbLayerTableRecord
  2
USP-GEO
 70
     0
 62
     7
  6
CONTINUOUS
  0
LAYER
  5
78
102
{ACAD_XDICTIONARY
360
79
102
}
100
AcDbSymbolTableRecord
100
AcDbLayerTableRecord
  2
USP-TXT
 70
     0
 62
     7
  6
CONTINUOUS
  0
LAYER
  5
4
100
AcDbSymbolTableRecord
100
AcDbLayerTableRecord
  2
USP
 70
     0
 62
     7
  6
CONTINUOUS
  0
ENDTAB
  0
TABLE
  2
STYLE
  5
139
100
AcDbSymbolTable
 70
     1
  0
STYLE
  5
7B
100
AcDbSymbolTableRecord
100
AcDbTextStyleTableRecord
  2
STANDARD
 70
     0
 40
0.0
 41
1.0
 50
0.0
 71
     0
 42
0.25
  3
txt
  4

  0
ENDTAB
  0
TABLE
  2
VIEW
  5
13D
100
AcDbSymbolTable
 70
     0
  0
ENDTAB
  0
TABLE
  2
UCS
  5
13E
100
AcDbSymbolTable
 70
     0
  0
ENDTAB
  0
TABLE
  2
APPID
  5
141
100
AcDbSymbolTable
 70
     1
  0
APPID
  5
C
100
AcDbSymbolTableRecord
100
AcDbRegAppTableRecord
  2
ACAD
 70
     0
  0
ENDTAB
  0
TABLE
  2
DIMSTYLE
  5
142
100
AcDbSymbolTable
 70
     1
  0
DIMSTYLE
105
148
102
{ACAD_XDICTIONARY
360
149
102
}
100
AcDbSymbolTableRecord
100
AcDbDimStyleTableRecord
  2
STANDARD
 70
     0
  3

  4

  5

  6

  7

 40
1.0
 41
0.125
 42
0.0625
 43
0.38
 44
0.09375
 45
0.0
 46
0.0
 47
0.0
 48
0.0
140
0.109375
141
0.0
142
0.0
143
25.4
144
1.0
145
0.0
146
1.0
147
0.09
 71
     0
 72
     0
 73
     1
 74
     1
 75
     0
 76
     0
 77
     0
 78
     8
170
     0
171
     2
172
     0
173
     0
174
     0
175
     0
176
     0
177
     0
178
     0
270
     7
271
     4
272
     4
273
     2
274
     2
340
7B
275
     0
280
     0
281
     0
282
     0
283
     1
284
     0
285
     0
286
     0
287
     3
288
     0
  0
ENDTAB
  0
TABLE
  2
BLOCK_RECORD
  5
1
100
AcDbSymbolTable
 70
     3
  0
BLOCK_RECORD
  5
2
102
{ACAD_XDICTIONARY
360
12F
102
}
100
AcDbSymbolTableRecord
100
AcDbBlockTableRecord
  2
*MODEL_SPACE
  0
BLOCK_RECORD
  5
133
102
{ACAD_XDICTIONARY
360
134
102
}
100
AcDbSymbolTableRecord
100
AcDbBlockTableRecord
  2
*PAPER_SPACE
  0
BLOCK_RECORD
  5
6
100
AcDbSymbolTableRecord
100
AcDbBlockTableRecord
  2
TMP2PR_T
  0
BLOCK_RECORD
  5
80
100
AcDbSymbolTableRecord
100
AcDbBlockTableRecord
  2
TMP2PR_F
  0
BLOCK_RECORD
  5
F3
100
AcDbSymbolTableRecord
100
AcDbBlockTableRecord
  2
TMP2PR_S
  0
ENDTAB
  0
ENDSEC
  0
SECTION
  2
BLOCKS
  0
BLOCK
  5
131
100
AcDbEntity
  8
0
100
AcDbBlockBegin
  2
*MODEL_SPACE
 70
     0
 10
0.0
 20
0.0
 30
0.0
  3
*MODEL_SPACE
  1

  0
ENDBLK
  5
132
100
AcDbEntity
  8
0
100
AcDbBlockEnd
  0
BLOCK
  5
136
100
AcDbEntity
 67
     1
  8
0
100
AcDbBlockBegin
  2
*PAPER_SPACE
 70
     0
 10
0.0
 20
0.0
 30
0.0
  3
*PAPER_SPACE
  1

  0
ENDBLK
  5
137
100
AcDbEntity
 67
     1
  8
0
100
AcDbBlockEnd
  0
BLOCK
  5
7C
100
AcDbEntity
  8
0
100
AcDbBlockBegin
  2
TMP2PR_T
 70
     0
 10
0.0
 20
0.0
 30
0.0
  3
TMP2PR_T
  1

  0
LWPOLYLINE
  5
7
100
AcDbEntity
  8
USP-GEO
100
AcDbPolyline
 90
        2
 70
   128
 43
0.0
 10
1.95717964122279
 20
2.528401495477755
 10
1.95717964122279
 20
2.580213001532627
  0
ELLIPSE
  5
B
100
AcDbEntity
  8
USP-GEO
  6
CONTINUOUS
100
AcDbEllipse
 10
2.789797880297246
 20
0.7113951022318794
 30
0.0
 11
-0.078
 21
0.0
 31
0.0
210
0.0
220
0.0
230
1.0
 40
0.5000000000000015
 41
3.186009639092083
 42
6.242051829567428
1001
ACAD
1000
RTLwPs
1070
   128
  0
LWPOLYLINE
  5
D
100
AcDbEntity
  8
USP-GEO
100
AcDbPolyline
 90
        2
 70
   128
 43
0.0
 10
2.70909412284412
 20
0.6871500990527402
 10
2.70909412284412
 20
0.713055852080176
  0
LWPOLYLINE
  5
E
100
AcDbEntity
  8
USP-GEO
100
AcDbPolyline
 90
        2
 70
   128
 43
0.0
 10
3.61579547880438
 20
0.7907731111624834
 10
3.61579547880438
 20
0.0
  0
LWPOLYLINE
  5
F
100
AcDbEntity
  8
USP-GEO
100
AcDbPolyline
 90
        2
 70
   128
 43
0.0
 10
3.563983972749508
 20
0.0
 10
3.61579547880438
 20
0.0
  0
LWPOLYLINE
  5
10
100
AcDbEntity
  8
USP-GEO
100
AcDbPolyline
 90
        2
 70
   128
 43
0.0
 10
3.563983972749508
 20
0.0
 10
3.563983972749508
 20
0.7907731111624834
  0
LWPOLYLINE
  5
11
100
AcDbEntity
  8
USP-GEO
100
AcDbPolyline
 90
        2
 70
   128
 43
0.0
 10
3.61579547880438
 20
0.7907731111624834
 10
3.61579547880438
 20
2.528401495477755
  0
LWPOLYLINE
  5
12
100
AcDbEntity
  8
USP-GEO
100
AcDbPolyline
 90
        2
 70
   128
 43
0.0
 10
3.563983972749508
 20
0.7907731111624834
 10
3.61579547880438
 20
0.7907731111624834
  0
LWPOLYLINE
  5
13
100
AcDbEntity
  8
USP-GEO
100
AcDbPolyline
 90
        2
 70
   128
 43
0.0
 10
3.563983972749508
 20
0.7907731111624834
 10
3.563983972749508
 20
2.528401495477755
  0
LWPOLYLINE
  5
14
100
AcDbEntity
  8
USP-GEO
100
AcDbPolyline
 90
        2
 70
   128
 43
0.0
 10
3.61579547880438
 20
2.528401495477755
 10
3.61579547880438
 20
2.580213001532627
  0
LWPOLYLINE
  5
15
100
AcDbEntity
  8
USP-GEO
100
AcDbPolyline
 90
        2
 70
   128
 43
0.0
 10
3.563983972749508
 20
2.528401495477755
 10
2.008991147277662
 20
2.528401495477755
  0
LWPOLYLINE
  5
16
100
AcDbEntity
  8
USP-GEO
100
AcDbPolyline
 90
        2
 70
   128
 43
0.0
 10
2.008991147277662
 20
2.528401495477755
 10
2.008991147277662
 20
2.580213001532627
  0
LWPOLYLINE
  5
17
100
AcDbEntity
  8
USP-GEO
100
AcDbPolyline
 90
        2
 70
   128
 43
0.0
 10
2.008991147277662
 20
2.580213001532627
 10
3.61579547880438
 20
2.580213001532627
  0
LWPOLYLINE
  5
18
100
AcDbEntity
  8
USP-GEO
100
AcDbPolyline
 90
        2
 70
   128
 43
0.0
 10
1.95717964122279
 20
2.580213001532627
 10
2.008991147277662
 20
2.580213001532627
  0
LWPOLYLINE
  5
19
100
AcDbEntity
  8
USP-GEO
100
AcDbPolyline
 90
        2
 70
   128
 43
0.0
 10
1.95717964122279
 20
2.528401495477755
 10
1.95717964122279
 20
2.580213001532627
  0
LWPOLYLINE
  5
1A
100
AcDbEntity
  8
USP-GEO
100
AcDbPolyline
 90
        2
 70
   128
 43
0.0
 10
1.95717964122279
 20
0.7907731111624834
 10
1.95717964122279
 20
0.0
  0
LWPOLYLINE
  5
1B
100
AcDbEntity
  8
USP-GEO
100
AcDbPolyline
 90
        2
 70
   128
 43
0.0
 10
2.008991147277662
 20
0.0
 10
1.95717964122279
 20
0.0
  0
LWPOLYLINE
  5
1C
100
AcDbEntity
  8
USP-GEO
100
AcDbPolyline
 90
        2
 70
   128
 43
0.0
 10
2.008991147277662
 20
0.7907731111624834
 10
1.95717964122279
 20
0.7907731111624834
  0
LWPOLYLINE
  5
1D
100
AcDbEntity
  8
USP-GEO
100
AcDbPolyline
 90
        2
 70
   128
 43
0.0
 10
1.95717964122279
 20
0.7907731111624834
 10
1.95717964122279
 20
2.528401495477755
  0
LWPOLYLINE
  5
1E
100
AcDbEntity
  8
USP-GEO
100
AcDbPolyline
 90
        2
 70
   128
 43
0.0
 10
2.008991147277662
 20
2.528401495477755
 10
1.95717964122279
 20
2.528401495477755
  0
LWPOLYLINE
  5
1F
100
AcDbEntity
  8
USP-GEO
100
AcDbPolyline
 90
        2
 70
   128
 43
0.0
 10
2.008991147277662
 20
0.7907731111624834
 10
2.008991147277662
 20
0.0
  0
LWPOLYLINE
  5
20
100
AcDbEntity
  8
USP-GEO
100
AcDbPolyline
 90
        2
 70
   128
 43
0.0
 10
2.008991147277662
 20
2.528401495477755
 10
2.008991147277662
 20
0.7907731111624834
  0
LWPOLYLINE
  5
21
100
AcDbEntity
  8
USP-GEO
100
AcDbPolyline
 90
        2
 70
   128
 43
0.0
 10
2.864528641008736
 20
0.713055852080176
 10
2.864528641008736
 20
0.6871500990527402
  0
ELLIPSE
  5
22
100
AcDbEntity
  8
USP-GEO
  6
CONTINUOUS
100
AcDbEllipse
 10
3.720597880291938
 20
3.206389522608372
 30
0.0
 11
0.0165925101609321
 21
-0.0680050630950327
 31
0.0
210
0.0
220
0.0
230
1.0
 40
0.4531577022304377
 41
1.238274559221445
 42
4.139260972970668
1001
ACAD
1000
RTLwPs
1070
   128
  0
LWPOLYLINE
  5
23
100
AcDbEntity
  8
USP-GEO
100
AcDbPolyline
 90
        2
 70
   128
 43
0.0
 10
3.680559861372971
 20
3.241457347557931
 10
3.680559861372971
 20
2.087356050185656
  0
ELLIPSE
  5
24
100
AcDbEntity
  8
USP-GEO
  6
CONTINUOUS
100
AcDbEllipse
 10
3.720608915042532
 20
2.05591373014759
 30
0.0
 11
0.0165925101609321
 21
-0.0680050630950327
 31
0.0
210
0.0
220
0.0
230
1.0
 40
0.4531577022304377
 41
4.189178476118367
 42
7.47015827742477
1001
ACAD
1000
RTLwPs
1070
   128
  0
LWPOLYLINE
  5
25
100
AcDbEntity
  8
USP-GEO
100
AcDbPolyline
 90
        2
 70
   128
 43
0.0
 10
3.758924764280964
 20
2.035544544130784
 10
3.758924764280964
 20
3.189645841503059
  0
ELLIPSE
  5
26
100
AcDbEntity
  8
USP-GEO
  6
CONTINUOUS
100
AcDbEllipse
 10
3.675575594045742
 20
2.044926080078422
 30
0.0
 11
-0.0165925101609321
 21
0.0680050630950327
 31
0.0
210
0.0
220
0.0
230
1.0
 40
0.4531577022304377
 41
4.231601033177288
 42
10.27901574655293
1001
ACAD
1000
RTLwPs
1070
   128
  0
ELLIPSE
  5
27
100
AcDbEntity
  8
USP-GEO
  6
CONTINUOUS
100
AcDbEllipse
 10
3.675564559295146
 20
3.195401872539203
 30
0.0
 11
-0.0165925101609321
 21
0.0680050630950327
 31
0.0
210
0.0
220
0.0
230
1.0
 40
0.4531577022304377
 41
4.276651708639056
 42
5.645775713722804
1001
ACAD
1000
RTLwPs
1070
   128
  0
LWPOLYLINE
  5
28
100
AcDbEntity
  8
USP-GEO
100
AcDbPolyline
 90
        2
 70
   128
 43
0.0
 10
3.706465614400407
 20
3.176045321163655
 10
3.706465614400407
 20
2.022591667617067
  0
LWPOLYLINE
  5
29
100
AcDbEntity
  8
USP-GEO
100
AcDbPolyline
 90
        2
 70
   128
 43
0.0
 10
3.758924764280964
 20
1.736980740489585
 10
3.680559861372971
 20
1.736980740489585
  0
LWPOLYLINE
  5
2A
100
AcDbEntity
  8
USP-GEO
100
AcDbPolyline
 90
        2
 70
   128
 43
0.0
 10
3.771877640794683
 20
1.736980740489585
 10
3.758924764280964
 20
1.736980740489585
  0
LWPOLYLINE
  5
2B
100
AcDbEntity
  8
USP-GEO
100
AcDbPolyline
 90
        2
 70
   128
 43
0.0
 10
3.628748355318099
 20
3.020610802999039
 10
3.628748355318099
 20
3.487562001318572
  0
LWPOLYLINE
  5
2C
100
AcDbEntity
  8
USP-GEO
100
AcDbPolyline
 90
        2
 70
   128
 43
0.0
 10
3.680559861372971
 20
3.487562001318572
 10
3.680559861372971
 20
3.020610802999039
  0
LWPOLYLINE
  5
2D
100
AcDbEntity
  8
USP-GEO
100
AcDbPolyline
 90
        2
 70
   128
 43
0.0
 10
3.680559861372971
 20
1.736980740489585
 10
3.628748355318099
 20
1.736980740489585
  0
LWPOLYLINE
  5
2E
100
AcDbEntity
  8
USP-GEO
100
AcDbPolyline
 90
        2
 70
   128
 43
0.0
 10
3.628748355318099
 20
3.020610802999039
 10
3.628748355318099
 20
1.736980740489585
  0
LWPOLYLINE
  5
2F
100
AcDbEntity
  8
USP-GEO
100
AcDbPolyline
 90
        2
 70
   128
 43
0.0
 10
3.680559861372971
 20
3.020610802999039
 10
3.628748355318099
 20
3.020610802999039
  0
LWPOLYLINE
  5
30
100
AcDbEntity
  8
USP-GEO
100
AcDbPolyline
 90
        2
 70
   128
 43
0.0
 10
3.680559861372971
 20
3.020610802999039
 10
3.680559861372971
 20
1.736980740489585
  0
LWPOLYLINE
  5
31
100
AcDbEntity
  8
USP-GEO
100
AcDbPolyline
 90
        2
 70
   128
 43
0.0
 10
3.758924764280964
 20
3.487562001318572
 10
3.771877640794683
 20
3.487562001318572
  0
LWPOLYLINE
  5
32
100
AcDbEntity
  8
USP-GEO
100
AcDbPolyline
 90
        2
 70
   128
 43
0.0
 10
3.680559861372971
 20
3.487562001318572
 10
3.758924764280964
 20
3.487562001318572
  0
LWPOLYLINE
  5
33
100
AcDbEntity
  8
USP-GEO
100
AcDbPolyline
 90
        2
 70
   128
 43
0.0
 10
3.680559861372971
 20
3.487562001318572
 10
3.628748355318099
 20
3.487562001318572
  0
LWPOLYLINE
  5
34
100
AcDbEntity
  8
USP-GEO
100
AcDbPolyline
 90
        2
 70
   128
 43
0.0
 10
1.814697999571892
 20
3.487562001318572
 10
1.801745123058174
 20
3.487562001318572
  0
LWPOLYLINE
  5
35
100
AcDbEntity
  8
USP-GEO
100
AcDbPolyline
 90
        2
 70
   128
 43
0.0
 10
1.8924152586542
 20
3.487562001318572
 10
1.814697999571892
 20
3.487562001318572
  0
ELLIPSE
  5
36
100
AcDbEntity
  8
USP-GEO
  6
CONTINUOUS
100
AcDbEllipse
 10
1.858997880302579
 20
3.206389522608372
 30
0.0
 11
-0.0165925101609321
 21
-0.0680050630950327
 31
0.0
210
0.0
220
0.0
230
0.9999999999999998
 40
0.4531577022304384
 41
2.238064105063325
 42
5.097589940331988
1001
ACAD
1000
RTLwPs
1070
   128
  0
LWPOLYLINE
  5
37
100
AcDbEntity
  8
USP-GEO
100
AcDbPolyline
 90
        2
 70
   128
 43
0.0
 10
1.8924152586542
 20
3.241457347557931
 10
1.8924152586542
 20
2.087356050185656
  0
ELLIPSE
  5
38
100
AcDbEntity
  8
USP-GEO
  6
CONTINUOUS
100
AcDbEllipse
 10
1.858986845551985
 20
2.05591373014759
 30
0.0
 11
-0.0165925101609321
 21
-0.0680050630950327
 31
0.0
210
0.0
220
0.0
230
0.9999999999999998
 40
0.4531577022304384
 41
5.161122910376199
 42
8.462478563747842
1001
ACAD
1000
RTLwPs
1070
   128
  0
LWPOLYLINE
  5
39
100
AcDbEntity
  8
USP-GEO
100
AcDbPolyline
 90
        2
 70
   128
 43
0.0
 10
1.82765087608561
 20
2.035544544130784
 10
1.82765087608561
 20
3.189645841503059
  0
ELLIPSE
  5
3A
100
AcDbEntity
  8
USP-GEO
  6
CONTINUOUS
100
AcDbEllipse
 10
1.904031201299369
 20
3.195401872539203
 30
0.0
 11
0.0165925101609321
 21
0.0680050630950327
 31
0.0
210
0.0
220
0.0
230
1.0
 40
0.4531577022304383
 41
0.7962311556759858
 42
1.946051332245138
1001
ACAD
1000
RTLwPs
1070
   128
  0
ELLIPSE
  5
3B
100
AcDbEntity
  8
USP-GEO
  6
CONTINUOUS
100
AcDbEllipse
 10
1.904020166548777
 20
2.044926080078422
 30
0.0
 11
0.0165925101609321
 21
0.0680050630950327
 31
0.0
210
0.0
220
0.0
230
1.0
 40
0.4531577022304383
 41
2.179369620304175
 42
8.272698993833667
1001
ACAD
1000
RTLwPs
1070
   128
  0
LWPOLYLINE
  5
3C
100
AcDbEntity
  8
USP-GEO
100
AcDbPolyline
 90
        2
 70
   128
 43
0.0
 10
1.866509505626764
 20
3.176045321163655
 10
1.866509505626764
 20
2.022591667617067
  0
LWPOLYLINE
  5
3D
100
AcDbEntity
  8
USP-GEO
100
AcDbPolyline
 90
        2
 70
   128
 43
0.0
 10
1.8924152586542
 20
3.487562001318572
 10
1.944226764709072
 20
3.487562001318572
  0
LWPOLYLINE
  5
3E
100
AcDbEntity
  8
USP-GEO
100
AcDbPolyline
 90
        2
 70
   128
 43
0.0
 10
1.944226764709072
 20
3.020610802999039
 10
1.944226764709072
 20
3.487562001318572
  0
LWPOLYLINE
  5
3F
100
AcDbEntity
  8
USP-GEO
100
AcDbPolyline
 90
        2
 70
   128
 43
0.0
 10
1.8924152586542
 20
3.020610802999039
 10
1.8924152586542
 20
3.487562001318572
  0
LWPOLYLINE
  5
40
100
AcDbEntity
  8
USP-GEO
100
AcDbPolyline
 90
        2
 70
   128
 43
0.0
 10
1.8924152586542
 20
3.020610802999039
 10
1.944226764709072
 20
3.020610802999039
  0
LWPOLYLINE
  5
41
100
AcDbEntity
  8
USP-GEO
100
AcDbPolyline
 90
        2
 70
   128
 43
0.0
 10
1.944226764709072
 20
3.020610802999039
 10
1.944226764709072
 20
1.736980740489585
  0
LWPOLYLINE
  5
42
100
AcDbEntity
  8
USP-GEO
100
AcDbPolyline
 90
        2
 70
   128
 43
0.0
 10
1.8924152586542
 20
1.736980740489585
 10
1.8924152586542
 20
3.020610802999039
  0
LWPOLYLINE
  5
43
100
AcDbEntity
  8
USP-GEO
100
AcDbPolyline
 90
        2
 70
   128
 43
0.0
 10
1.801745123058174
 20
1.736980740489585
 10
1.814697999571892
 20
1.736980740489585
  0
LWPOLYLINE
  5
44
100
AcDbEntity
  8
USP-GEO
100
AcDbPolyline
 90
        2
 70
   128
 43
0.0
 10
1.814697999571892
 20
1.736980740489585
 10
1.8924152586542
 20
1.736980740489585
  0
LWPOLYLINE
  5
45
100
AcDbEntity
  8
USP-GEO
100
AcDbPolyline
 90
        2
 70
   128
 43
0.0
 10
1.8924152586542
 20
1.736980740489585
 10
1.944226764709072
 20
1.736980740489585
  0
LWPOLYLINE
  5
46
100
AcDbEntity
  8
USP-GEO
100
AcDbPolyline
 90
        2
 70
   128
 43
0.0
 10
2.864528641008736
 20
0.6871500990527402
 10
3.563983972749508
 20
0.6871500990527402
  0
LWPOLYLINE
  5
47
100
AcDbEntity
  8
USP-GEO
100
AcDbPolyline
 90
        2
 70
   128
 43
0.0
 10
2.008991147277662
 20
0.6871500990527402
 10
2.70909412284412
 20
0.6871500990527402
  0
LWPOLYLINE
  5
48
100
AcDbEntity
  8
USP-GEO
100
AcDbPolyline
 90
        2
 70
   128
 43
0.0
 10
3.680559861372971
 20
1.646310604893558
 10
3.628748355318099
 20
1.646310604893558
  0
LWPOLYLINE
  5
49
100
AcDbEntity
  8
USP-GEO
100
AcDbPolyline
 90
        2
 70
   128
 43
0.0
 10
3.628748355318099
 20
1.646310604893558
 10
3.628748355318099
 20
1.736980740489585
  0
LWPOLYLINE
  5
4A
100
AcDbEntity
  8
USP-GEO
100
AcDbPolyline
 90
        2
 70
   128
 43
0.0
 10
3.680559861372971
 20
1.736980740489585
 10
3.680559861372971
 20
1.646310604893558
  0
LWPOLYLINE
  5
4B
100
AcDbEntity
  8
USP-GEO
100
AcDbPolyline
 90
        2
 70
   128
 43
0.0
 10
1.944226764709072
 20
1.736980740489585
 10
1.944226764709072
 20
1.646310604893558
  0
LWPOLYLINE
  5
4C
100
AcDbEntity
  8
USP-GEO
100
AcDbPolyline
 90
        2
 70
   128
 43
0.0
 10
1.8924152586542
 20
1.646310604893558
 10
1.944226764709072
 20
1.646310604893558
  0
LWPOLYLINE
  5
4D
100
AcDbEntity
  8
USP-GEO
100
AcDbPolyline
 90
        2
 70
   128
 43
0.0
 10
1.8924152586542
 20
1.646310604893558
 10
1.8924152586542
 20
1.736980740489585
  0
CIRCLE
  5
4E
100
AcDbEntity
  8
USP-GEO
100
AcDbCircle
 10
2.789797880297243
 20
3.187395102231857
 30
0.0
 40
0.078
  0
CIRCLE
  5
4F
100
AcDbEntity
  8
USP-GEO
100
AcDbCircle
 10
0.3054412618589044
 20
1.228995102231927
 30
0.0
 40
0.078
  0
CIRCLE
  5
50
100
AcDbEntity
  8
USP-GEO
100
AcDbCircle
 10
0.6516264739493379
 20
0.8289797975731083
 30
0.0
 40
0.156
  0
CIRCLE
  5
51
100
AcDbEntity
  8
USP-GEO
100
AcDbCircle
 10
1.120997880297297
 20
0.9889951022318932
 30
0.0
 40
0.078
  0
CIRCLE
  5
52
100
AcDbEntity
  8
USP-GEO
100
AcDbCircle
 10
5.274154498735585
 20
1.22899510223193
 30
0.0
 40
0.078
  0
CIRCLE
  5
53
100
AcDbEntity
  8
USP-GEO
100
AcDbCircle
 10
4.927969286645209
 20
0.8289797975731083
 30
0.0
 40
0.156
  0
CIRCLE
  5
54
100
AcDbEntity
  8
USP-GEO
100
AcDbCircle
 10
4.458597880297192
 20
0.9889951022318932
 30
0.0
 40
0.078
  0
ARC
  5
55
100
AcDbEntity
  8
USP-GEO
100
AcDbCircle
 10
1.914747880299133
 20
0.7373951022318828
 30
0.0
 40
0.0937499999981242
100
AcDbArc
 50
65.29607926668806
 51
132.6920081220154
  0
LWPOLYLINE
  5
56
100
AcDbEntity
  8
USP-GEO
100
AcDbPolyline
 90
        2
 70
   128
 43
0.0
 10
1.52908707244441
 20
0.4928569513469708
 10
1.853556629113046
 20
0.8037259876762021
  0
LWPOLYLINE
  5
57
100
AcDbEntity
  8
USP-GEO
100
AcDbPolyline
 90
        2
 70
   128
 43
0.0
 10
1.52908707244441
 20
0.4928569513469708
 10
1.52908707244441
 20
0.4410454452920974
  0
LWPOLYLINE
  5
58
100
AcDbEntity
  8
USP-GEO
100
AcDbPolyline
 90
        2
 70
   128
 43
0.0
 10
0.0
 20
0.4410454452920974
 10
1.52908707244441
 20
0.4410454452920974
  0
LWPOLYLINE
  5
59
100
AcDbEntity
  8
USP-GEO
100
AcDbPolyline
 90
        2
 70
   128
 43
0.0
 10
0.0
 20
0.4410454452920974
 10
0.0
 20
1.555640469297532
  0
LWPOLYLINE
  5
5A
100
AcDbEntity
  8
USP-GEO
100
AcDbPolyline
 90
        2
 70
   128
 43
0.0
 10
1.82765087608561
 20
1.555640469297532
 10
0.0
 20
1.555640469297532
  0
ARC
  5
5B
100
AcDbEntity
  8
USP-GEO
100
AcDbCircle
 10
1.852247880295054
 20
1.643645102231893
 30
0.0
 40
0.09375
100
AcDbArc
 50
335.3926905659087
 51
1.659938829474414
  0
LWPOLYLINE
  5
5C
100
AcDbEntity
  8
USP-GEO
100
AcDbPolyline
 90
        2
 70
   128
 43
0.0
 10
1.944226764709072
 20
3.487562001318572
 10
3.628748355318099
 20
3.487562001318572
  0
ARC
  5
5D
100
AcDbEntity
  8
USP-GEO
100
AcDbCircle
 10
3.727347880298355
 20
1.643645102231896
 30
0.0
 40
0.09375
100
AcDbArc
 50
178.4514644956336
 51
202.9082684425306
  0
LWPOLYLINE
  5
5E
100
AcDbEntity
  8
USP-GEO
100
AcDbPolyline
 90
        2
 70
   128
 43
0.0
 10
3.758924764280964
 20
1.555640469297532
 10
5.572975120027171
 20
1.555640469297532
  0
LWPOLYLINE
  5
5F
100
AcDbEntity
  8
USP-GEO
100
AcDbPolyline
 90
        2
 70
   128
 43
0.0
 10
5.572975120027171
 20
0.4410454452920974
 10
5.572975120027171
 20
1.555640469297532
  0
LWPOLYLINE
  5
60
100
AcDbEntity
  8
USP-GEO
100
AcDbPolyline
 90
        2
 70
   128
 43
0.0
 10
5.572975120027171
 20
0.4410454452920974
 10
4.043888047582761
 20
0.4410454452920974
  0
LWPOLYLINE
  5
61
100
AcDbEntity
  8
USP-GEO
100
AcDbPolyline
 90
        2
 70
   128
 43
0.0
 10
4.043888047582761
 20
0.4410454452920974
 10
4.043888047582761
 20
0.4928569513469708
  0
LWPOLYLINE
  5
62
100
AcDbEntity
  8
USP-GEO
100
AcDbPolyline
 90
        2
 70
   128
 43
0.0
 10
4.043888047582761
 20
0.4928569513469708
 10
3.732371367427843
 20
0.8037259876762021
  0
ARC
  5
63
100
AcDbEntity
  8
USP-GEO
100
AcDbCircle
 10
3.664847880297658
 20
0.7373951022318828
 30
0.0
 40
0.09375
100
AcDbArc
 50
44.48952556489642
 51
118.0045088029302
  0
ELLIPSE
  5
64
100
AcDbEntity
  8
USP-GEO
  6
CONTINUOUS
100
AcDbEllipse
 10
3.739050254498973
 20
1.164642380315548
 30
0.0
 11
0.0510629719600247
 21
0.0589624702214017
 31
0.0
210
0.0
220
0.0
230
1.0
 40
0.353553912408411
 41
4.171971941644213
 42
5.382948673136498
1001
ACAD
1000
RTLwPs
1070
   128
  0
ELLIPSE
  5
65
100
AcDbEntity
  8
USP-GEO
  6
CONTINUOUS
100
AcDbEllipse
 10
3.777398631628878
 20
1.13143172786588
 30
0.0
 11
0.0510629719600251
 21
0.0589624702214021
 31
0.0
210
0.0
220
0.0
230
1.0
 40
0.3535539124084109
 41
3.642548755356266
 42
9.520259527635214
1001
ACAD
1000
RTLwPs
1070
   128
  0
ELLIPSE
  5
66
100
AcDbEntity
  8
USP-GEO
  6
CONTINUOUS
100
AcDbEllipse
 10
3.777398631628878
 20
1.13143172786588
 30
0.0
 11
0.0510629719600251
 21
0.0589624702214021
 31
0.0
210
0.0
220
0.0
230
1.0
 40
0.3535539124084109
 41
1.046648098739276
 42
3.2568831717846
1001
ACAD
1000
RTLwPs
1070
   128
  0
ELLIPSE
  5
67
100
AcDbEntity
  8
USP-GEO
  6
CONTINUOUS
100
AcDbEllipse
 10
3.777398631628878
 20
1.13143172786588
 30
0.0
 11
0.0510629719600251
 21
0.0589624702214021
 31
0.0
210
0.0
220
0.0
230
1.0
 40
0.3535539124084109
 41
0.5405121440585364
 42
1.059130104410714
1001
ACAD
1000
RTLwPs
1070
   128
  0
ELLIPSE
  5
68
100
AcDbEntity
  8
USP-GEO
  6
CONTINUOUS
100
AcDbEllipse
 10
3.777398631628878
 20
1.13143172786588
 30
0.0
 11
0.0510629719600251
 21
0.0589624702214021
 31
0.0
210
0.0
220
0.0
230
1.0
 40
0.3535539124084109
 41
0.5579611861014056
 42
6.475464593762533
1001
ACAD
1000
RTLwPs
1070
   128
  0
ELLIPSE
  5
69
100
AcDbEntity
  8
USP-GEO
  6
CONTINUOUS
100
AcDbEllipse
 10
3.777398631628878
 20
1.13143172786588
 30
0.0
 11
0.0510629719600251
 21
0.0589624702214021
 31
0.0
210
0.0
220
0.0
230
1.0
 40
0.3535539124084109
 41
3.662180084319881
 42
6.457098577337004
1001
ACAD
1000
RTLwPs
1070
   128
  0
ELLIPSE
  5
6A
100
AcDbEntity
  8
USP-GEO
  6
CONTINUOUS
100
AcDbEllipse
 10
1.840545506095551
 20
1.16464238031552
 30
0.0
 11
-0.0510629719600259
 21
0.0589624702214006
 31
0.0
210
0.0
220
0.0
230
1.0
 40
0.3535539124084228
 41
0.9742545299007636
 42
1.959525312580928
1001
ACAD
1000
RTLwPs
1070
   128
  0
ELLIPSE
  5
6B
100
AcDbEntity
  8
USP-GEO
  6
CONTINUOUS
100
AcDbEllipse
 10
1.802197128965646
 20
1.131431727865852
 30
0.0
 11
-0.0510629719600264
 21
0.058962470221401
 31
0.0
210
0.0
220
0.0
230
1.0
 40
0.3535539124084228
 41
0.0
 42
6.283185307179586
1001
ACAD
1000
RTLwPs
1070
   128
  0
ELLIPSE
  5
6C
100
AcDbEntity
  8
USP-GEO
  6
CONTINUOUS
100
AcDbEllipse
 10
1.802197128965646
 20
1.131431727865852
 30
0.0
 11
-0.0510629719600264
 21
0.058962470221401
 31
0.0
210
0.0
220
0.0
230
1.0
 40
0.3535539124084228
 41
6.256137993827144
 42
11.81680967555389
1001
ACAD
1000
RTLwPs
1070
   128
  0
ELLIPSE
  5
6D
100
AcDbEntity
  8
USP-GEO
  6
CONTINUOUS
100
AcDbEllipse
 10
1.802197128965646
 20
1.131431727865852
 30
0.0
 11
-0.0510629719600264
 21
0.058962470221401
 31
0.0
210
0.0
220
0.0
230
1.0
 40
0.3535539124084228
 41
6.256137993827144
 42
8.529836579537601
1001
ACAD
1000
RTLwPs
1070
   128
  0
ELLIPSE
  5
6E
100
AcDbEntity
  8
USP-GEO
  6
CONTINUOUS
100
AcDbEllipse
 10
1.802197128965646
 20
1.131431727865852
 30
0.0
 11
-0.0510629719600264
 21
0.058962470221401
 31
0.0
210
0.0
220
0.0
230
1.0
 40
0.3535539124084228
 41
2.228578280498278
 42
2.859305609481155
1001
ACAD
1000
RTLwPs
1070
   128
  0
ELLIPSE
  5
6F
100
AcDbEntity
  8
USP-GEO
  6
CONTINUOUS
100
AcDbEllipse
 10
1.802197128965646
 20
1.131431727865852
 30
0.0
 11
-0.0510629719600264
 21
0.058962470221401
 31
0.0
210
0.0
220
0.0
230
1.0
 40
0.3535539124084228
 41
5.548785533355015
 42
10.6487625942859
1001
ACAD
1000
RTLwPs
1070
   128
  0
ELLIPSE
  5
70
100
AcDbEntity
  8
USP-GEO
  6
CONTINUOUS
100
AcDbEllipse
 10
1.802197128965646
 20
1.131431727865852
 30
0.0
 11
-0.0510629719600264
 21
0.058962470221401
 31
0.0
210
0.0
220
0.0
230
1.0
 40
0.3535539124084228
 41
2.838750597621168
 42
3.247153434214836
1001
ACAD
1000
RTLwPs
1070
   128
  0
ELLIPSE
  5
71
100
AcDbEntity
  8
USP-GEO
  6
CONTINUOUS
100
AcDbEllipse
 10
1.802197128965646
 20
1.131431727865852
 30
0.0
 11
-0.0510629719600264
 21
0.058962470221401
 31
0.0
210
0.0
220
0.0
230
1.0
 40
0.3535539124084228
 41
3.229626099902788
 42
4.364688948798308
1001
ACAD
1000
RTLwPs
1070
   128
  0
ELLIPSE
  5
72
100
AcDbEntity
  8
USP-GEO
  6
CONTINUOUS
100
AcDbEllipse
 10
1.802197128965646
 20
1.131431727865852
 30
0.0
 11
-0.0510629719600264
 21
0.058962470221401
 31
0.0
210
0.0
220
0.0
230
1.0
 40
0.3535539124084228
 41
3.576959569536767
 42
3.591571260121276
1001
ACAD
1000
RTLwPs
1070
   128
  0
ARC
  5
73
100
AcDbEntity
  8
USP-GEO
100
AcDbCircle
 10
2.008497880297287
 20
1.310093331442232
 30
0.0
 40
0.3020000000000031
100
AcDbArc
 50
99.79167059093166
 51
260.2649229162012
  0
ARC
  5
74
100
AcDbEntity
  8
USP-GEO
100
AcDbCircle
 10
3.571097880297232
 20
1.310093331442256
 30
0.0
 40
0.3020000000000031
100
AcDbArc
 50
278.498804209293
 51
81.45155894457735
  0
LWPOLYLINE
  5
75
100
AcDbEntity
  8
USP-GEO
100
AcDbPolyline
 90
        2
 70
   128
 43
0.0
 10
1.801745123058174
 20
3.487562001318572
 10
1.801745123058174
 20
1.736980740489585
  0
LWPOLYLINE
  5
76
100
AcDbEntity
  8
USP-GEO
100
AcDbPolyline
 90
        2
 70
   128
 43
0.0
 10
3.771877640794683
 20
1.736980740489585
 10
3.771877640794683
 20
3.487562001318572
  0
TEXT
  5
77
100
AcDbEntity
  8
USP-TXT
100
AcDbText
 10
0.9373933130410208
 20
-0.7231637267002018
 30
0.0
 40
0.25
  1
TMP2 - TOP VIEW
 72
     1
 11
2.812393313041021
 21
-0.7231637267002018
 31
0.0
100
AcDbText
  0
ENDBLK
  5
7E
100
AcDbEntity
  8
0
100
AcDbBlockEnd
  0
BLOCK
  5
F0
100
AcDbEntity
  8
0
100
AcDbBlockBegin
  2
TMP2PR_F
 70
     0
 10
0.0
 20
0.0
 30
0.0
  3
TMP2PR_F
  1

  0
LWPOLYLINE
  5
81
100
AcDbEntity
  8
USP-GEO
100
AcDbPolyline
 90
        2
 70
   128
 43
0.0
 10
1.95717964122279
 20
0.8950437670979152
 10
1.95717964122279
 20
0.8691380140704794
  0
LWPOLYLINE
  5
82
100
AcDbEntity
  8
USP-GEO
100
AcDbPolyline
 90
        2
 70
   128
 43
0.0
 10
3.61579547880438
 20
0.8950437670979152
 10
3.61579547880438
 20
0.8691380140704794
  0
LWPOLYLINE
  5
83
100
AcDbEntity
  8
USP-GEO
100
AcDbPolyline
 90
        2
 70
   128
 43
0.0
 10
3.563983972749508
 20
0.8561851375567606
 10
3.563983972749508
 20
0.8950437670979152
  0
ELLIPSE
  5
84
100
AcDbEntity
  8
USP-GEO
  6
CONTINUOUS
100
AcDbEllipse
 10
2.789797880297246
 20
0.9043008018982394
 30
0.0
 11
-0.078
 21
0.0
 31
0.0
210
0.0
220
0.0
230
1.0
 40
0.8660254037844378
 41
2.999521451382509
 42
6.414867500593834
1001
ACAD
1000
RTLwPs
1070
   128
  0
LWPOLYLINE
  5
85
100
AcDbEntity
  8
USP-GEO
100
AcDbPolyline
 90
        2
 70
   128
 43
0.0
 10
2.70909412284412
 20
0.8561851375567606
 10
2.70909412284412
 20
0.8950437670979152
  0
LWPOLYLINE
  5
86
100
AcDbEntity
  8
USP-GEO
100
AcDbPolyline
 90
        2
 70
   128
 43
0.0
 10
3.61579547880438
 20
0.9727610261802226
 10
3.61579547880438
 20
0.8950437670979152
  0
LWPOLYLINE
  5
87
100
AcDbEntity
  8
USP-GEO
100
AcDbPolyline
 90
        2
 70
   128
 43
0.0
 10
3.563983972749508
 20
0.8950437670979152
 10
3.61579547880438
 20
0.8950437670979152
  0
LWPOLYLINE
  5
88
100
AcDbEntity
  8
USP-GEO
100
AcDbPolyline
 90
        2
 70
   128
 43
0.0
 10
3.563983972749508
 20
0.8950437670979152
 10
3.563983972749508
 20
0.9727610261802226
  0
LWPOLYLINE
  5
89
100
AcDbEntity
  8
USP-GEO
100
AcDbPolyline
 90
        2
 70
   128
 43
0.0
 10
3.61579547880438
 20
3.669549916336311
 10
3.61579547880438
 20
0.9727610261802226
  0
LWPOLYLINE
  5
8A
100
AcDbEntity
  8
USP-GEO
100
AcDbPolyline
 90
        2
 70
   128
 43
0.0
 10
3.563983972749508
 20
0.9727610261802226
 10
3.563983972749508
 20
3.669549916336311
  0
LWPOLYLINE
  5
8B
100
AcDbEntity
  8
USP-GEO
100
AcDbPolyline
 90
        2
 70
   128
 43
0.0
 10
3.61579547880438
 20
5.056802990955509
 10
3.61579547880438
 20
3.669549916336311
  0
LWPOLYLINE
  5
8C
100
AcDbEntity
  8
USP-GEO
100
AcDbPolyline
 90
        2
 70
   128
 43
0.0
 10
3.563983972749508
 20
3.669549916336311
 10
3.61579547880438
 20
3.669549916336311
  0
LWPOLYLINE
  5
8D
100
AcDbEntity
  8
USP-GEO
100
AcDbPolyline
 90
        2
 70
   128
 43
0.0
 10
3.563983972749508
 20
3.669549916336311
 10
3.563983972749508
 20
5.056802990955509
  0
LWPOLYLINE
  5
8E
100
AcDbEntity
  8
USP-GEO
100
AcDbPolyline
 90
        2
 70
   128
 43
0.0
 10
3.563983972749508
 20
5.056802990955509
 10
3.61579547880438
 20
5.056802990955509
  0
LWPOLYLINE
  5
8F
100
AcDbEntity
  8
USP-GEO
100
AcDbPolyline
 90
        2
 70
   128
 43
0.0
 10
3.563983972749508
 20
4.045183335234133
 10
2.008991147277662
 20
4.045183335234133
  0
ELLIPSE
  5
90
100
AcDbEntity
  8
USP-GEO
  6
CONTINUOUS
100
AcDbEllipse
 10
2.789797880297246
 20
0.8783008018982396
 30
0.0
 11
-0.078
 21
0.0
 31
0.0
210
0.0
220
0.0
230
1.0
 40
0.8660254037844378
 41
3.000948800427972
 42
6.413542041330343
1001
ACAD
1000
RTLwPs
1070
   128
  0
LWPOLYLINE
  5
91
100
AcDbEntity
  8
USP-GEO
100
AcDbPolyline
 90
        2
 70
   128
 43
0.0
 10
3.61579547880438
 20
0.8691380140704794
 10
3.563983972749508
 20
0.8691380140704794
  0
LWPOLYLINE
  5
92
100
AcDbEntity
  8
USP-GEO
100
AcDbPolyline
 90
        2
 70
   128
 43
0.0
 10
1.95717964122279
 20
0.8691380140704794
 10
2.008991147277662
 20
0.8691380140704794
  0
LWPOLYLINE
  5
93
100
AcDbEntity
  8
USP-GEO
100
AcDbPolyline
 90
        2
 70
   128
 43
0.0
 10
1.95717964122279
 20
5.056802990955509
 10
1.95717964122279
 20
3.669549916336311
  0
LWPOLYLINE
  5
94
100
AcDbEntity
  8
USP-GEO
100
AcDbPolyline
 90
        2
 70
   128
 43
0.0
 10
1.95717964122279
 20
3.669549916336311
 10
1.95717964122279
 20
0.9727610261802226
  0
LWPOLYLINE
  5
95
100
AcDbEntity
  8
USP-GEO
100
AcDbPolyline
 90
        2
 70
   128
 43
0.0
 10
2.008991147277662
 20
3.669549916336311
 10
1.95717964122279
 20
3.669549916336311
  0
LWPOLYLINE
  5
96
100
AcDbEntity
  8
USP-GEO
100
AcDbPolyline
 90
        2
 70
   128
 43
0.0
 10
1.95717964122279
 20
0.8950437670979152
 10
2.008991147277662
 20
0.8950437670979152
  0
LWPOLYLINE
  5
97
100
AcDbEntity
  8
USP-GEO
100
AcDbPolyline
 90
        2
 70
   128
 43
0.0
 10
1.95717964122279
 20
0.8950437670979152
 10
1.95717964122279
 20
0.9727610261802226
  0
LWPOLYLINE
  5
98
100
AcDbEntity
  8
USP-GEO
100
AcDbPolyline
 90
        2
 70
   128
 43
0.0
 10
2.008991147277662
 20
5.056802990955509
 10
1.95717964122279
 20
5.056802990955509
  0
LWPOLYLINE
  5
99
100
AcDbEntity
  8
USP-GEO
100
AcDbPolyline
 90
        2
 70
   128
 43
0.0
 10
2.008991147277662
 20
0.9727610261802226
 10
2.008991147277662
 20
0.8950437670979152
  0
LWPOLYLINE
  5
9A
100
AcDbEntity
  8
USP-GEO
100
AcDbPolyline
 90
        2
 70
   128
 43
0.0
 10
2.008991147277662
 20
3.669549916336311
 10
2.008991147277662
 20
0.9727610261802226
  0
LWPOLYLINE
  5
9B
100
AcDbEntity
  8
USP-GEO
100
AcDbPolyline
 90
        2
 70
   128
 43
0.0
 10
2.008991147277662
 20
5.056802990955509
 10
2.008991147277662
 20
3.669549916336311
  0
LWPOLYLINE
  5
9C
100
AcDbEntity
  8
USP-GEO
100
AcDbPolyline
 90
        2
 70
   128
 43
0.0
 10
2.864528641008736
 20
0.8950437670979152
 10
2.864528641008736
 20
0.8561851375567606
  0
LWPOLYLINE
  5
9D
100
AcDbEntity
  8
USP-GEO
100
AcDbPolyline
 90
        2
 70
   128
 43
0.0
 10
2.008991147277662
 20
0.8950437670979152
 10
2.008991147277662
 20
0.8561851375567606
  0
LWPOLYLINE
  5
9E
100
AcDbEntity
  8
USP-GEO
100
AcDbPolyline
 90
        2
 70
   128
 43
0.0
 10
3.628748355318099
 20
3.11192858242075
 10
3.628748355318099
 20
2.865823928660109
  0
ELLIPSE
  5
9F
100
AcDbEntity
  8
USP-GEO
  6
CONTINUOUS
100
AcDbEllipse
 10
3.675575594045742
 20
2.886149184467504
 30
0.0
 11
0.0324538122582413
 21
-0.0620221740179014
 31
0.0
210
0.0
220
0.0
230
1.0
 40
0.2113009628685812
 41
1.796098380580423
 42
3.379160972621368
1001
ACAD
1000
RTLwPs
1070
   128
  0
LWPOLYLINE
  5
A0
100
AcDbEntity
  8
USP-GEO
100
AcDbPolyline
 90
        2
 70
   128
 43
0.0
 10
3.641701231831817
 20
2.943541187742416
 10
3.641701231831817
 20
2.878776805173826
  0
LWPOLYLINE
  5
A1
100
AcDbEntity
  8
USP-GEO
100
AcDbPolyline
 90
        2
 70
   128
 43
0.0
 10
3.628748355318099
 20
2.865823928660109
 10
3.628748355318099
 20
0.9468552731527868
  0
LWPOLYLINE
  5
A2
100
AcDbEntity
  8
USP-GEO
100
AcDbPolyline
 90
        2
 70
   128
 43
0.0
 10
3.706465614400407
 20
2.917635434714981
 10
3.628748355318099
 20
2.865823928660109
  0
ELLIPSE
  5
A3
100
AcDbEntity
  8
USP-GEO
  6
CONTINUOUS
100
AcDbEllipse
 10
3.695665335682289
 20
2.94007931739449
 30
0.0
 11
0.0
 21
-0.0255369266439487
 31
0.0
210
0.0
220
0.0
230
1.0
 40
0.9063154044609506
 41
0.488103756014039
 42
2.130340112315454
1001
ACAD
1000
RTLwPs
1070
   128
  0
ELLIPSE
  5
A4
100
AcDbEntity
  8
USP-GEO
  6
CONTINUOUS
100
AcDbEllipse
 10
3.695665335682289
 20
2.94007931739449
 30
0.0
 11
0.0
 21
-0.0255369266439487
 31
0.0
210
0.0
220
0.0
230
1.0
 40
0.9063154044609506
 41
1.702125720152141
 42
7.981863680782451
1001
ACAD
1000
RTLwPs
1070
   128
  0
LWPOLYLINE
  5
A5
100
AcDbEntity
  8
USP-GEO
100
AcDbPolyline
 90
        2
 70
   128
 43
0.0
 10
3.628748355318099
 20
3.11192858242075
 10
3.719418490914124
 20
2.956494064256135
  0
LWPOLYLINE
  5
A6
100
AcDbEntity
  8
USP-GEO
100
AcDbPolyline
 90
        2
 70
   128
 43
0.0
 10
3.628748355318099
 20
3.11192858242075
 10
3.628748355318099
 20
3.17669296498934
  0
LWPOLYLINE
  5
A7
100
AcDbEntity
  8
USP-GEO
100
AcDbPolyline
 90
        2
 70
   128
 43
0.0
 10
3.758924764280964
 20
2.982399817283571
 10
3.680559861372971
 20
3.124881458934469
  0
ELLIPSE
  5
A8
100
AcDbEntity
  8
USP-GEO
  6
CONTINUOUS
100
AcDbEllipse
 10
3.695665335682289
 20
2.94007931739449
 30
0.0
 11
0.0
 21
-0.0829120961975635
 31
0.0
210
0.0
220
0.0
230
1.0
 40
0.9063154044609508
 41
0.4993191670629271
 42
2.115852985746797
1001
ACAD
1000
RTLwPs
1070
   128
  0
LWPOLYLINE
  5
A9
100
AcDbEntity
  8
USP-GEO
100
AcDbPolyline
 90
        2
 70
   128
 43
0.0
 10
3.680559861372971
 20
2.839918175632673
 10
3.732371367427843
 20
2.865823928660109
  0
LWPOLYLINE
  5
AA
100
AcDbEntity
  8
USP-GEO
100
AcDbPolyline
 90
        2
 70
   128
 43
0.0
 10
3.680559861372971
 20
3.17669296498934
 10
3.680559861372971
 20
3.124881458934469
  0
LWPOLYLINE
  5
AB
100
AcDbEntity
  8
USP-GEO
100
AcDbPolyline
 90
        2
 70
   128
 43
0.0
 10
3.680559861372971
 20
3.17669296498934
 10
3.628748355318099
 20
3.17669296498934
  0
LWPOLYLINE
  5
AC
100
AcDbEntity
  8
USP-GEO
100
AcDbPolyline
 90
        2
 70
   128
 43
0.0
 10
3.732371367427843
 20
2.048497420644503
 10
3.680559861372971
 20
2.022591667617067
  0
ELLIPSE
  5
AD
100
AcDbEntity
  8
USP-GEO
  6
CONTINUOUS
100
AcDbEllipse
 10
3.695665335682285
 20
2.124079317394544
 30
0.0
 11
0.0
 21
-0.0829120961975635
 31
0.0
210
0.0
220
0.0
230
1.0
 40
0.9063154044609508
 41
0.4919117957032651
 42
1.603879712210703
1001
ACAD
1000
RTLwPs
1070
   128
  0
LWPOLYLINE
  5
AE
100
AcDbEntity
  8
USP-GEO
100
AcDbPolyline
 90
        2
 70
   128
 43
0.0
 10
1.840603752599328
 20
2.048497420644503
 10
1.8924152586542
 20
2.022591667617067
  0
ELLIPSE
  5
AF
100
AcDbEntity
  8
USP-GEO
  6
CONTINUOUS
100
AcDbEllipse
 10
1.883930424912231
 20
2.124079317394544
 30
0.0
 11
0.0
 21
-0.0829120961975635
 31
0.0
210
0.0
220
0.0
230
1.0
 40
0.9063154044609508
 41
4.681708434827671
 42
5.719213341384974
1001
ACAD
1000
RTLwPs
1070
   128
  0
LWPOLYLINE
  5
B0
100
AcDbEntity
  8
USP-GEO
100
AcDbPolyline
 90
        2
 70
   128
 43
0.0
 10
1.944226764709072
 20
3.11192858242075
 10
1.944226764709072
 20
2.865823928660109
  0
LWPOLYLINE
  5
B1
100
AcDbEntity
  8
USP-GEO
100
AcDbPolyline
 90
        2
 70
   128
 43
0.0
 10
1.944226764709072
 20
2.943541187742416
 10
1.944226764709072
 20
2.878776805173826
  0
ELLIPSE
  5
B2
100
AcDbEntity
  8
USP-GEO
  6
CONTINUOUS
100
AcDbEllipse
 10
1.904020166548777
 20
2.886149184467504
 30
0.0
 11
-0.0324538122582413
 21
-0.0620221740179013
 31
0.0
210
0.0
220
0.0
230
1.0
 40
0.2113009628685805
 41
2.590938687076102
 42
4.589412642990943
1001
ACAD
1000
RTLwPs
1070
   128
  0
LWPOLYLINE
  5
B3
100
AcDbEntity
  8
USP-GEO
100
AcDbPolyline
 90
        2
 70
   128
 43
0.0
 10
1.8924152586542
 20
2.839918175632673
 10
1.840603752599328
 20
2.865823928660109
  0
ELLIPSE
  5
B4
100
AcDbEntity
  8
USP-GEO
  6
CONTINUOUS
100
AcDbEllipse
 10
1.883930424912232
 20
2.94007931739449
 30
0.0
 11
0.0
 21
-0.0829120961975635
 31
0.0
210
0.0
220
0.0
230
1.0
 40
0.9063154044609508
 41
4.206469359716924
 42
5.711184083839059
1001
ACAD
1000
RTLwPs
1070
   128
  0
LWPOLYLINE
  5
B5
100
AcDbEntity
  8
USP-GEO
100
AcDbPolyline
 90
        2
 70
   128
 43
0.0
 10
1.814697999571892
 20
2.982399817283571
 10
1.8924152586542
 20
3.124881458934469
  0
LWPOLYLINE
  5
B6
100
AcDbEntity
  8
USP-GEO
100
AcDbPolyline
 90
        2
 70
   128
 43
0.0
 10
1.8924152586542
 20
3.124881458934469
 10
1.8924152586542
 20
3.17669296498934
  0
LWPOLYLINE
  5
B7
100
AcDbEntity
  8
USP-GEO
100
AcDbPolyline
 90
        2
 70
   128
 43
0.0
 10
1.8924152586542
 20
3.17669296498934
 10
1.944226764709072
 20
3.17669296498934
  0
LWPOLYLINE
  5
B8
100
AcDbEntity
  8
USP-GEO
100
AcDbPolyline
 90
        2
 70
   128
 43
0.0
 10
1.944226764709072
 20
3.17669296498934
 10
1.944226764709072
 20
3.11192858242075
  0
LWPOLYLINE
  5
B9
100
AcDbEntity
  8
USP-GEO
100
AcDbPolyline
 90
        2
 70
   128
 43
0.0
 10
1.944226764709072
 20
3.11192858242075
 10
1.866509505626764
 20
2.956494064256135
  0
ELLIPSE
  5
BA
100
AcDbEntity
  8
USP-GEO
  6
CONTINUOUS
100
AcDbEllipse
 10
1.883930424912232
 20
2.94007931739449
 30
0.0
 11
0.0
 21
-0.0255369266439487
 31
0.0
210
0.0
220
0.0
230
1.0
 40
0.9063154044609506
 41
4.005594786482527
 42
5.593626483558101
1001
ACAD
1000
RTLwPs
1070
   128
  0
LWPOLYLINE
  5
BB
100
AcDbEntity
  8
USP-GEO
100
AcDbPolyline
 90
        2
 70
   128
 43
0.0
 10
1.866509505626764
 20
2.917635434714981
 10
1.944226764709072
 20
2.865823928660109
  0
LWPOLYLINE
  5
BC
100
AcDbEntity
  8
USP-GEO
100
AcDbPolyline
 90
        2
 70
   128
 43
0.0
 10
1.944226764709072
 20
2.865823928660109
 10
1.944226764709072
 20
0.9468552731527868
  0
LWPOLYLINE
  5
BD
100
AcDbEntity
  8
USP-GEO
100
AcDbPolyline
 90
        2
 70
   128
 43
0.0
 10
0.0
 20
0.0
 10
0.0
 20
0.8561851375567606
  0
LWPOLYLINE
  5
BE
100
AcDbEntity
  8
USP-GEO
100
AcDbPolyline
 90
        2
 70
   128
 43
0.0
 10
3.680559861372971
 20
2.839918175632673
 10
3.680559861372971
 20
0.9468552731527868
  0
LWPOLYLINE
  5
BF
100
AcDbEntity
  8
USP-GEO
100
AcDbPolyline
 90
        2
 70
   128
 43
0.0
 10
5.572975120027171
 20
0.0
 10
5.572975120027171
 20
0.8561851375567606
  0
LWPOLYLINE
  5
C0
100
AcDbEntity
  8
USP-GEO
100
AcDbPolyline
 90
        2
 70
   128
 43
0.0
 10
4.043888047582761
 20
0.804373631501889
 10
4.043888047582761
 20
0.8561851375567606
  0
LWPOLYLINE
  5
C1
100
AcDbEntity
  8
USP-GEO
100
AcDbPolyline
 90
        2
 70
   128
 43
0.0
 10
2.864528641008736
 20
0.804373631501889
 10
2.864528641008736
 20
0.8561851375567606
  0
LWPOLYLINE
  5
C2
100
AcDbEntity
  8
USP-GEO
100
AcDbPolyline
 90
        2
 70
   128
 43
0.0
 10
2.864528641008736
 20
0.8561851375567606
 10
3.563983972749508
 20
0.8561851375567606
  0
LWPOLYLINE
  5
C3
100
AcDbEntity
  8
USP-GEO
100
AcDbPolyline
 90
        2
 70
   128
 43
0.0
 10
3.563983972749508
 20
0.804373631501889
 10
3.563983972749508
 20
0.8561851375567606
  0
LWPOLYLINE
  5
C4
100
AcDbEntity
  8
USP-GEO
100
AcDbPolyline
 90
        2
 70
   128
 43
0.0
 10
2.008991147277662
 20
0.804373631501889
 10
2.008991147277662
 20
0.8561851375567606
  0
LWPOLYLINE
  5
C5
100
AcDbEntity
  8
USP-GEO
100
AcDbPolyline
 90
        2
 70
   128
 43
0.0
 10
2.008991147277662
 20
0.8561851375567606
 10
2.70909412284412
 20
0.8561851375567606
  0
LWPOLYLINE
  5
C6
100
AcDbEntity
  8
USP-GEO
100
AcDbPolyline
 90
        2
 70
   128
 43
0.0
 10
2.70909412284412
 20
0.804373631501889
 10
2.70909412284412
 20
0.8561851375567606
  0
LWPOLYLINE
  5
C7
100
AcDbEntity
  8
USP-GEO
100
AcDbPolyline
 90
        2
 70
   128
 43
0.0
 10
1.52908707244441
 20
0.804373631501889
 10
1.52908707244441
 20
0.8561851375567606
  0
LWPOLYLINE
  5
C8
100
AcDbEntity
  8
USP-GEO
100
AcDbPolyline
 90
        2
 70
   128
 43
0.0
 10
1.853556629113046
 20
0.804373631501889
 10
1.52908707244441
 20
0.804373631501889
  0
LWPOLYLINE
  5
C9
100
AcDbEntity
  8
USP-GEO
100
AcDbPolyline
 90
        2
 70
   128
 43
0.0
 10
2.008991147277662
 20
0.804373631501889
 10
1.853556629113046
 20
0.804373631501889
  0
LWPOLYLINE
  5
CA
100
AcDbEntity
  8
USP-GEO
100
AcDbPolyline
 90
        2
 70
   128
 43
0.0
 10
2.70909412284412
 20
0.804373631501889
 10
2.008991147277662
 20
0.804373631501889
  0
LWPOLYLINE
  5
CB
100
AcDbEntity
  8
USP-GEO
100
AcDbPolyline
 90
        2
 70
   128
 43
0.0
 10
2.864528641008736
 20
0.804373631501889
 10
2.70909412284412
 20
0.804373631501889
  0
LWPOLYLINE
  5
CC
100
AcDbEntity
  8
USP-GEO
100
AcDbPolyline
 90
        2
 70
   128
 43
0.0
 10
3.563983972749508
 20
0.804373631501889
 10
2.864528641008736
 20
0.804373631501889
  0
LWPOLYLINE
  5
CD
100
AcDbEntity
  8
USP-GEO
100
AcDbPolyline
 90
        2
 70
   128
 43
0.0
 10
3.732371367427843
 20
0.804373631501889
 10
3.563983972749508
 20
0.804373631501889
  0
LWPOLYLINE
  5
CE
100
AcDbEntity
  8
USP-GEO
100
AcDbPolyline
 90
        2
 70
   128
 43
0.0
 10
4.043888047582761
 20
0.804373631501889
 10
3.732371367427843
 20
0.804373631501889
  0
LWPOLYLINE
  5
CF
100
AcDbEntity
  8
USP-GEO
100
AcDbPolyline
 90
        2
 70
   128
 43
0.0
 10
5.572975120027171
 20
0.0
 10
4.847614035258963
 20
0.0
  0
LWPOLYLINE
  5
D0
100
AcDbEntity
  8
USP-GEO
100
AcDbPolyline
 90
        2
 70
   128
 43
0.0
 10
4.043888047582761
 20
0.804373631501889
 10
4.847614035258963
 20
0.0
  0
CIRCLE
  5
D1
100
AcDbEntity
  8
USP-GEO
100
AcDbCircle
 10
5.105694126808316
 20
0.3072674809014746
 30
0.0
 40
0.078
  0
LWPOLYLINE
  5
D2
100
AcDbEntity
  8
USP-GEO
100
AcDbPolyline
 90
        2
 70
   128
 43
0.0
 10
0.7260087285938939
 20
0.0
 10
1.52908707244441
 20
0.804373631501889
  0
LWPOLYLINE
  5
D3
100
AcDbEntity
  8
USP-GEO
100
AcDbPolyline
 90
        2
 70
   128
 43
0.0
 10
0.0
 20
0.0
 10
0.7260087285938939
 20
0.0
  0
CIRCLE
  5
D4
100
AcDbEntity
  8
USP-GEO
100
AcDbCircle
 10
0.4739016337861717
 20
0.3072674809014799
 30
0.0
 40
0.078
  0
LWPOLYLINE
  5
D5
100
AcDbEntity
  8
USP-GEO
100
AcDbPolyline
 90
        2
 70
   128
 43
0.0
 10
3.628748355318099
 20
0.8561851375567606
 10
3.628748355318099
 20
0.9468552731527868
  0
LWPOLYLINE
  5
D6
100
AcDbEntity
  8
USP-GEO
100
AcDbPolyline
 90
        2
 70
   128
 43
0.0
 10
3.680559861372971
 20
0.9468552731527868
 10
3.680559861372971
 20
0.8561851375567606
  0
LWPOLYLINE
  5
D7
100
AcDbEntity
  8
USP-GEO
100
AcDbPolyline
 90
        2
 70
   128
 43
0.0
 10
1.944226764709072
 20
0.9468552731527868
 10
1.944226764709072
 20
0.8561851375567606
  0
LWPOLYLINE
  5
D8
100
AcDbEntity
  8
USP-GEO
100
AcDbPolyline
 90
        2
 70
   128
 43
0.0
 10
1.8924152586542
 20
0.9468552731527868
 10
1.8924152586542
 20
2.839918175632673
  0
LWPOLYLINE
  5
D9
100
AcDbEntity
  8
USP-GEO
100
AcDbPolyline
 90
        2
 70
   128
 43
0.0
 10
1.8924152586542
 20
0.8561851375567606
 10
1.8924152586542
 20
0.9468552731527868
  0
LWPOLYLINE
  5
DA
100
AcDbEntity
  8
USP-GEO
100
AcDbPolyline
 90
        2
 70
   128
 43
0.0
 10
1.853556629113046
 20
0.8561851375567606
 10
2.008991147277662
 20
0.8561851375567606
  0
LWPOLYLINE
  5
DB
100
AcDbEntity
  8
USP-GEO
100
AcDbPolyline
 90
        2
 70
   128
 43
0.0
 10
1.52908707244441
 20
0.8561851375567606
 10
1.853556629113046
 20
0.8561851375567606
  0
LWPOLYLINE
  5
DC
100
AcDbEntity
  8
USP-GEO
100
AcDbPolyline
 90
        2
 70
   128
 43
0.0
 10
0.0
 20
0.8561851375567606
 10
1.52908707244441
 20
0.8561851375567606
  0
LWPOLYLINE
  5
DD
100
AcDbEntity
  8
USP-GEO
100
AcDbPolyline
 90
        2
 70
   128
 43
0.0
 10
5.572975120027171
 20
0.8561851375567606
 10
4.043888047582761
 20
0.8561851375567606
  0
LWPOLYLINE
  5
DE
100
AcDbEntity
  8
USP-GEO
100
AcDbPolyline
 90
        2
 70
   128
 43
0.0
 10
4.043888047582761
 20
0.8561851375567606
 10
3.732371367427843
 20
0.8561851375567606
  0
LWPOLYLINE
  5
DF
100
AcDbEntity
  8
USP-GEO
100
AcDbPolyline
 90
        2
 70
   128
 43
0.0
 10
3.563983972749508
 20
0.8561851375567606
 10
3.732371367427843
 20
0.8561851375567606
  0
LWPOLYLINE
  5
E0
100
AcDbEntity
  8
USP-GEO
100
AcDbPolyline
 90
        2
 70
   128
 43
0.0
 10
2.70909412284412
 20
0.8561851375567606
 10
2.864528641008736
 20
0.8561851375567606
  0
ELLIPSE
  5
E1
100
AcDbEntity
  8
USP-GEO
  6
CONTINUOUS
100
AcDbEllipse
 10
3.739050254498973
 20
4.455247462366864
 30
0.0
 11
-0.0348827016360818
 21
0.0697653003044353
 31
0.0
210
0.0
220
0.0
230
1.0
 40
0.6123721344253771
 41
3.625550413820014
 42
5.979463599017004
1001
ACAD
1000
RTLwPs
1070
   128
  0
ELLIPSE
  5
E2
100
AcDbEntity
  8
USP-GEO
  6
CONTINUOUS
100
AcDbEllipse
 10
3.777398631628878
 20
4.47442167923131
 30
0.0
 11
0.034882701636082
 21
-0.0697653003044359
 31
0.0
210
0.0
220
0.0
230
1.0
 40
0.6123721344253777
 41
3.387136222189094
 42
5.259230718918388
1001
ACAD
1000
RTLwPs
1070
   128
  0
ELLIPSE
  5
E3
100
AcDbEntity
  8
USP-GEO
  6
CONTINUOUS
100
AcDbEllipse
 10
3.777398631628878
 20
4.47442167923131
 30
0.0
 11
0.034882701636082
 21
-0.0697653003044359
 31
0.0
210
0.0
220
0.0
230
1.0
 40
0.6123721344253777
 41
5.958892885109591
 42
11.53274198569833
1001
ACAD
1000
RTLwPs
1070
   128
  0
ELLIPSE
  5
E4
100
AcDbEntity
  8
USP-GEO
  6
CONTINUOUS
100
AcDbEllipse
 10
3.777398631628878
 20
4.47442167923131
 30
0.0
 11
0.034882701636082
 21
-0.0697653003044359
 31
0.0
210
0.0
220
0.0
230
1.0
 40
0.6123721344253777
 41
0.4019709705335162
 42
5.947171570945603
1001
ACAD
1000
RTLwPs
1070
   128
  0
ELLIPSE
  5
E5
100
AcDbEntity
  8
USP-GEO
  6
CONTINUOUS
100
AcDbEllipse
 10
3.777398631628878
 20
4.47442167923131
 30
0.0
 11
0.034882701636082
 21
-0.0697653003044359
 31
0.0
210
0.0
220
0.0
230
1.0
 40
0.6123721344253777
 41
0.4121211099508949
 42
3.376400835611363
1001
ACAD
1000
RTLwPs
1070
   128
  0
ELLIPSE
  5
E6
100
AcDbEntity
  8
USP-GEO
  6
CONTINUOUS
100
AcDbEllipse
 10
1.840545506095551
 20
4.455247462366886
 30
0.0
 11
0.0348827016360833
 21
0.0697653003044345
 31
0.0
210
0.0
220
0.0
230
1.0
 40
0.6123721344253896
 41
0.4382307071521272
 42
2.573444127354969
1001
ACAD
1000
RTLwPs
1070
   128
  0
ELLIPSE
  5
E7
100
AcDbEntity
  8
USP-GEO
  6
CONTINUOUS
100
AcDbEllipse
 10
1.802197128965646
 20
4.474421679231332
 30
0.0
 11
-0.0348827016360836
 21
-0.0697653003044351
 31
0.0
210
0.0
220
0.0
230
1.0
 40
0.61237213442539
 41
6.162481824184953
 42
12.07714561704933
1001
ACAD
1000
RTLwPs
1070
   128
  0
ELLIPSE
  5
E8
100
AcDbEntity
  8
USP-GEO
  6
CONTINUOUS
100
AcDbEllipse
 10
1.802197128965646
 20
4.474421679231332
 30
0.0
 11
-0.0348827016360836
 21
-0.0697653003044351
 31
0.0
210
0.0
220
0.0
230
1.0
 40
0.61237213442539
 41
3.360059776127375
 42
5.802757568735004
1001
ACAD
1000
RTLwPs
1070
   128
  0
ELLIPSE
  5
E9
100
AcDbEntity
  8
USP-GEO
  6
CONTINUOUS
100
AcDbEllipse
 10
1.802197128965646
 20
4.474421679231332
 30
0.0
 11
-0.0348827016360836
 21
-0.0697653003044351
 31
0.0
210
0.0
220
0.0
230
1.0
 40
0.61237213442539
 41
3.372081379399734
 42
9.295426328273354
1001
ACAD
1000
RTLwPs
1070
   128
  0
ELLIPSE
  5
EA
100
AcDbEntity
  8
USP-GEO
  6
CONTINUOUS
100
AcDbEllipse
 10
1.802197128965646
 20
4.474421679231332
 30
0.0
 11
-0.0348827016360836
 21
-0.0697653003044351
 31
0.0
210
0.0
220
0.0
230
1.0
 40
0.61237213442539
 41
6.174271188549781
 42
9.283435643620126
1001
ACAD
1000
RTLwPs
1070
   128
  0
ARC
  5
EB
100
AcDbEntity
  8
USP-GEO
100
AcDbCircle
 10
2.008497880297287
 20
4.37127115132421
 30
0.0
 40
0.3020000000000031
100
AcDbArc
 50
99.82604256568606
 51
260.2986685816253
  0
ARC
  5
EC
100
AcDbEntity
  8
USP-GEO
100
AcDbCircle
 10
3.571097880297232
 20
4.371271151324188
 30
0.0
 40
0.3020000000000031
100
AcDbArc
 50
278.4692085643686
 51
81.42141013821227
  0
LWPOLYLINE
  5
ED
100
AcDbEntity
  8
USP-GEO
100
AcDbPolyline
 90
        2
 70
   128
 43
0.0
 10
1.801745123058174
 20
2.126862323552497
 10
1.801745123058174
 20
2.943541187742416
  0
LWPOLYLINE
  5
EE
100
AcDbEntity
  8
USP-GEO
100
AcDbPolyline
 90
        2
 70
   128
 43
0.0
 10
3.771877640794683
 20
2.943541187742416
 10
3.771877640794683
 20
2.126862323552497
  0
TEXT
  5
EF
100
AcDbEntity
  8
USP-TXT
100
AcDbText
 10
0.6873933130410213
 20
-0.6884140535522434
 30
0.0
 40
0.25
  1
TMP2 - FRONT VIEW
 72
     1
 11
2.812393313041021
 21
-0.6884140535522434
 31
0.0
100
AcDbText
  0
ENDBLK
  5
F1
100
AcDbEntity
  8
0
100
AcDbBlockEnd
  0
BLOCK
  5
12D
100
AcDbEntity
  8
0
100
AcDbBlockBegin
  2
TMP2PR_S
 70
     0
 10
0.0
 20
0.0
 30
0.0
  3
TMP2PR_S
  1

  0
LWPOLYLINE
  5
F4
100
AcDbEntity
  8
USP-GEO
100
AcDbPolyline
 90
        2
 70
   128
 43
0.0
 10
0.7130558520801778
 20
0.9171092587719096
 10
0.7648673581350494
 20
0.8912035057444738
  0
LWPOLYLINE
  5
F5
100
AcDbEntity
  8
USP-GEO
100
AcDbPolyline
 90
        2
 70
   128
 43
0.0
 10
0.6871500990527402
 20
0.878250629230755
 10
0.7130558520801778
 20
0.9171092587719096
  0
ARC
  5
F6
100
AcDbEntity
  8
USP-GEO
100
AcDbCircle
 10
0.6344828806641907
 20
0.9732405877130263
 30
0.0
 40
0.0937500000000001
100
AcDbArc
 50
324.4585667968429
 51
13.27043350364905
  0
LWPOLYLINE
  5
F7
100
AcDbEntity
  8
USP-GEO
100
AcDbPolyline
 90
        2
 70
   128
 43
0.0
 10
0.0
 20
3.691615408010306
 10
0.7260087285938948
 20
0.994826517854217
  0
LWPOLYLINE
  5
F8
100
AcDbEntity
  8
USP-GEO
100
AcDbPolyline
 90
        2
 70
   128
 43
0.0
 10
0.8037259876762021
 20
5.078868482629504
 10
0.0
 20
3.691615408010306
  0
LWPOLYLINE
  5
F9
100
AcDbEntity
  8
USP-GEO
100
AcDbPolyline
 90
        2
 70
   128
 43
0.0
 10
0.8166788641899209
 20
2.952653802902694
 10
1.218218036115178
 20
3.639803901955433
  0
ARC
  5
FA
100
AcDbEntity
  8
USP-GEO
100
AcDbCircle
 10
0.7531936052289901
 20
2.991350436531779
 30
0.0
 40
0.078
100
AcDbArc
 50
149.4240415439128
 51
328.6361340269593
  0
LWPOLYLINE
  5
FB
100
AcDbEntity
  8
USP-GEO
100
AcDbPolyline
 90
        2
 70
   128
 43
0.0
 10
1.088689270977999
 20
3.717521161037741
 10
0.6871500990527402
 20
3.030371061985001
  0
ARC
  5
FC
100
AcDbEntity
  8
USP-GEO
100
AcDbCircle
 10
1.150556599732464
 20
3.679602280623552
 30
0.0
 40
0.078
100
AcDbArc
 50
329.5360066668769
 51
148.4956019715476
  0
LWPOLYLINE
  5
FD
100
AcDbEntity
  8
USP-GEO
100
AcDbPolyline
 90
        2
 70
   128
 43
0.0
 10
0.8037259876762021
 20
5.078868482629504
 10
2.527753851652068
 20
4.067248826908127
  0
LWPOLYLINE
  5
FE
100
AcDbEntity
  8
USP-GEO
100
AcDbPolyline
 90
        2
 70
   128
 43
0.0
 10
2.527753851652068
 20
4.067248826908127
 10
2.579565357706941
 20
4.041343073880692
  0
LWPOLYLINE
  5
FF
100
AcDbEntity
  8
USP-GEO
100
AcDbPolyline
 90
        2
 70
   128
 43
0.0
 10
0.7519144816213306
 20
0.878250629230755
 10
0.7648673581350494
 20
0.8912035057444738
  0
LWPOLYLINE
  5
100
100
AcDbEntity
  8
USP-GEO
100
AcDbPolyline
 90
        2
 70
   128
 43
0.0
 10
2.086708406359971
 20
3.198758456663335
 10
2.579565357706941
 20
4.041343073880692
  0
LWPOLYLINE
  5
101
100
AcDbEntity
  8
USP-GEO
100
AcDbPolyline
 90
        2
 70
   128
 43
0.0
 10
0.7648673581350494
 20
0.8912035057444738
 10
1.736980740489585
 20
2.602278493206621
  0
ELLIPSE
  5
102
100
AcDbEntity
  8
USP-GEO
  6
CONTINUOUS
100
AcDbEllipse
 10
3.210667590173969
 20
2.395349538409125
 30
0.0
 11
-0.0634420783122664
 21
0.0295821348016038
 31
0.0
210
0.0
220
0.0
230
1.0
 40
0.8660254037844623
 41
1.598345174039268
 42
3.222369090069805
1001
ACAD
1000
RTLwPs
1070
   128
  0
ELLIPSE
  5
103
100
AcDbEntity
  8
USP-GEO
  6
CONTINUOUS
100
AcDbEllipse
 10
3.210667590173969
 20
2.395349538409125
 30
0.0
 11
-0.0634420783122664
 21
0.0295821348016038
 31
0.0
210
0.0
220
0.0
230
1.0
 40
0.8660254037844623
 41
3.225991724758574
 42
4.639736733845535
1001
ACAD
1000
RTLwPs
1070
   128
  0
LWPOLYLINE
  5
104
100
AcDbEntity
  8
USP-GEO
100
AcDbPolyline
 90
        2
 70
   128
 43
0.0
 10
3.240162059906559
 20
2.446843975042004
 10
2.086708406359971
 20
2.991512432443847
  0
ELLIPSE
  5
105
100
AcDbEntity
  8
USP-GEO
  6
CONTINUOUS
100
AcDbEllipse
 10
2.060191797713187
 20
2.931778876657479
 30
0.0
 11
-0.0634420783122664
 21
0.0295821348016038
 31
0.0
210
0.0
220
0.0
230
1.0
 40
0.8660254037844623
 41
5.935627812296352
 42
7.869245957320513
1001
ACAD
1000
RTLwPs
1070
   128
  0
ELLIPSE
  5
106
100
AcDbEntity
  8
USP-GEO
  6
CONTINUOUS
100
AcDbEllipse
 10
2.060191797713187
 20
2.931778876657479
 30
0.0
 11
-0.0634420783122664
 21
0.0295821348016038
 31
0.0
210
0.0
220
0.0
230
1.0
 40
0.8660254037844623
 41
4.728438914845042
 42
5.928520699191206
1001
ACAD
1000
RTLwPs
1070
   128
  0
LWPOLYLINE
  5
107
100
AcDbEntity
  8
USP-GEO
100
AcDbPolyline
 90
        2
 70
   128
 43
0.0
 10
2.034896900305099
 20
2.874936543820385
 10
3.188350553851687
 20
2.343220962932261
  0
ELLIPSE
  5
108
100
AcDbEntity
  8
USP-GEO
  6
CONTINUOUS
100
AcDbEllipse
 10
2.049204147644022
 20
2.908214676141494
 30
0.0
 11
0.0634420783122664
 21
-0.0295821348016038
 31
0.0
210
0.0
220
0.0
230
1.0
 40
0.8660254037844623
 41
1.598587657384543
 42
2.84366542290265
1001
ACAD
1000
RTLwPs
1070
   128
  0
LWPOLYLINE
  5
109
100
AcDbEntity
  8
USP-GEO
100
AcDbPolyline
 90
        2
 70
   128
 43
0.0
 10
2.073755529846252
 20
2.965606679416411
 10
3.227209183392842
 20
2.420938222014568
  0
ELLIPSE
  5
10A
100
AcDbEntity
  8
USP-GEO
  6
CONTINUOUS
100
AcDbEllipse
 10
3.199679940104804
 20
2.371785337893148
 30
0.0
 11
0.0634420783122664
 21
-0.0295821348016038
 31
0.0
210
0.0
220
0.0
230
1.0
 40
0.8660254037844623
 41
0.236030444018287
 42
1.506481556788845
1001
ACAD
1000
RTLwPs
1070
   128
  0
LWPOLYLINE
  5
10B
100
AcDbEntity
  8
USP-GEO
100
AcDbPolyline
 90
        2
 70
   128
 43
0.0
 10
1.736980740489585
 20
3.004465308957565
 10
1.736980740489585
 20
3.146946950608463
  0
LWPOLYLINE
  5
10C
100
AcDbEntity
  8
USP-GEO
100
AcDbPolyline
 90
        2
 70
   128
 43
0.0
 10
1.736980740489585
 20
2.887889420334103
 10
1.736980740489585
 20
3.004465308957565
  0
LWPOLYLINE
  5
10D
100
AcDbEntity
  8
USP-GEO
100
AcDbPolyline
 90
        2
 70
   128
 43
0.0
 10
1.736980740489585
 20
2.861983667306668
 10
1.736980740489585
 20
2.887889420334103
  0
LWPOLYLINE
  5
10E
100
AcDbEntity
  8
USP-GEO
100
AcDbPolyline
 90
        2
 70
   128
 43
0.0
 10
3.240162059906559
 20
2.446843975042004
 10
3.486914357492887
 20
2.330268086418542
  0
LWPOLYLINE
  5
10F
100
AcDbEntity
  8
USP-GEO
100
AcDbPolyline
 90
        2
 70
   128
 43
0.0
 10
3.240162059906559
 20
2.446843975042004
 10
3.240809703732246
 20
2.446843975042004
  0
LWPOLYLINE
  5
110
100
AcDbEntity
  8
USP-GEO
100
AcDbPolyline
 90
        2
 70
   128
 43
0.0
 10
1.736980740489585
 20
3.146946950608463
 10
3.240162059906559
 20
2.446843975042004
  0
LWPOLYLINE
  5
111
100
AcDbEntity
  8
USP-GEO
100
AcDbPolyline
 90
        2
 70
   128
 43
0.0
 10
1.736980740489585
 20
3.198758456663335
 10
1.736980740489585
 20
3.146946950608463
  0
LWPOLYLINE
  5
112
100
AcDbEntity
  8
USP-GEO
100
AcDbPolyline
 90
        2
 70
   128
 43
0.0
 10
3.486914357492887
 20
2.641137122747776
 10
3.019963159173354
 20
3.198758456663335
  0
LWPOLYLINE
  5
113
100
AcDbEntity
  8
USP-GEO
100
AcDbPolyline
 90
        2
 70
   128
 43
0.0
 10
3.019963159173354
 20
3.198758456663335
 10
1.736980740489585
 20
3.198758456663335
  0
LWPOLYLINE
  5
114
100
AcDbEntity
  8
USP-GEO
100
AcDbPolyline
 90
        2
 70
   128
 43
0.0
 10
3.486914357492887
 20
2.070562912318497
 10
3.486914357492887
 20
2.044657159291062
  0
LWPOLYLINE
  5
115
100
AcDbEntity
  8
USP-GEO
100
AcDbPolyline
 90
        2
 70
   128
 43
0.0
 10
3.486914357492887
 20
2.187786444767644
 10
3.486914357492887
 20
2.070562912318497
  0
LWPOLYLINE
  5
116
100
AcDbEntity
  8
USP-GEO
100
AcDbPolyline
 90
        2
 70
   128
 43
0.0
 10
3.486914357492887
 20
2.330268086418542
 10
3.486914357492887
 20
2.187786444767644
  0
LWPOLYLINE
  5
117
100
AcDbEntity
  8
USP-GEO
100
AcDbPolyline
 90
        2
 70
   128
 43
0.0
 10
3.486914357492887
 20
2.330268086418542
 10
3.486914357492887
 20
2.641137122747776
  0
LWPOLYLINE
  5
118
100
AcDbEntity
  8
USP-GEO
100
AcDbPolyline
 90
        2
 70
   128
 43
0.0
 10
3.486914357492887
 20
0.8264391231758834
 10
3.486914357492887
 20
2.044657159291062
  0
LWPOLYLINE
  5
119
100
AcDbEntity
  8
USP-GEO
100
AcDbPolyline
 90
        2
 70
   128
 43
0.0
 10
1.736980740489585
 20
2.861983667306668
 10
1.736980740489585
 20
0.9689207648267812
  0
LWPOLYLINE
  5
11A
100
AcDbEntity
  8
USP-GEO
100
AcDbPolyline
 90
        2
 70
   128
 43
0.0
 10
1.736980740489585
 20
2.861983667306668
 10
3.486914357492887
 20
2.044657159291062
  0
LWPOLYLINE
  5
11B
100
AcDbEntity
  8
USP-GEO
100
AcDbPolyline
 90
        2
 70
   128
 43
0.0
 10
1.646310604893558
 20
0.8264391231758834
 10
1.646310604893558
 20
0.878250629230755
  0
LWPOLYLINE
  5
11C
100
AcDbEntity
  8
USP-GEO
100
AcDbPolyline
 90
        2
 70
   128
 43
0.0
 10
1.555640469297532
 20
0.8264391231758834
 10
1.555640469297532
 20
0.878250629230755
  0
LWPOLYLINE
  5
11D
100
AcDbEntity
  8
USP-GEO
100
AcDbPolyline
 90
        2
 70
   128
 43
0.0
 10
0.4410454452920991
 20
0.0220654916739944
 10
0.4410454452920991
 20
0.878250629230755
  0
LWPOLYLINE
  5
11E
100
AcDbEntity
  8
USP-GEO
100
AcDbPolyline
 90
        2
 70
   128
 43
0.0
 10
1.555640469297532
 20
0.8264391231758834
 10
0.4928569513469708
 20
0.8264391231758834
  0
LWPOLYLINE
  5
11F
100
AcDbEntity
  8
USP-GEO
100
AcDbPolyline
 90
        2
 70
   128
 43
0.0
 10
1.646310604893558
 20
0.8264391231758834
 10
1.555640469297532
 20
0.8264391231758834
  0
LWPOLYLINE
  5
120
100
AcDbEntity
  8
USP-GEO
100
AcDbPolyline
 90
        2
 70
   128
 43
0.0
 10
3.486914357492887
 20
0.8264391231758834
 10
1.646310604893558
 20
0.8264391231758834
  0
LWPOLYLINE
  5
121
100
AcDbEntity
  8
USP-GEO
100
AcDbPolyline
 90
        2
 70
   128
 43
0.0
 10
0.4928569513469708
 20
0.8264391231758834
 10
0.4928569513469708
 20
0.0220654916739944
  0
LWPOLYLINE
  5
122
100
AcDbEntity
  8
USP-GEO
100
AcDbPolyline
 90
        2
 70
   128
 43
0.0
 10
0.4928569513469708
 20
0.0220654916739944
 10
0.4410454452920991
 20
0.0220654916739944
  0
ARC
  5
123
100
AcDbEntity
  8
USP-GEO
100
AcDbCircle
 10
1.647923169797525
 20
0.9750829725754401
 30
0.0
 40
0.09375
100
AcDbArc
 50
269.0459321715083
 51
356.0418116102134
  0
LWPOLYLINE
  5
124
100
AcDbEntity
  8
USP-GEO
100
AcDbPolyline
 90
        2
 70
   128
 43
0.0
 10
1.555640469297532
 20
0.878250629230755
 10
1.646310604893558
 20
0.878250629230755
  0
LWPOLYLINE
  5
125
100
AcDbEntity
  8
USP-GEO
100
AcDbPolyline
 90
        2
 70
   128
 43
0.0
 10
0.4410454452920991
 20
0.878250629230755
 10
1.555640469297532
 20
0.878250629230755
  0
ELLIPSE
  5
126
100
AcDbEntity
  8
USP-GEO
  6
CONTINUOUS
100
AcDbEllipse
 10
1.168920447881149
 20
4.477312954040859
 30
0.0
 11
0.0390000575607278
 21
0.0675499482624514
 31
0.0
210
0.0
220
0.0
230
1.0
 40
0.7071067811865573
 41
2.842337193679997
 42
8.362526117300864
1001
ACAD
1000
RTLwPs
1070
   128
  0
ELLIPSE
  5
127
100
AcDbEntity
  8
USP-GEO
  6
CONTINUOUS
100
AcDbEllipse
 10
1.168920447881149
 20
4.477312954040859
 30
0.0
 11
0.0390000575607278
 21
0.0675499482624514
 31
0.0
210
0.0
220
0.0
230
1.0
 40
0.7071067811865573
 41
0.2797434457379763
 42
2.079340810121278
1001
ACAD
1000
RTLwPs
1070
   128
  0
CIRCLE
  5
128
100
AcDbEntity
  8
USP-GEO
100
AcDbCircle
 10
1.314371399007857
 20
4.393336642998183
 30
0.0
 40
0.2974894956128735
  0
ELLIPSE
  5
129
100
AcDbEntity
  8
USP-GEO
  6
CONTINUOUS
100
AcDbEllipse
 10
1.13570979543148
 20
4.496487170905305
 30
0.0
 11
-0.0390000575607281
 21
-0.067549948262452
 31
0.0
210
0.0
220
0.0
230
1.0
 40
0.7071067811865568
 41
3.538159748494898
 42
6.348954414620159
1001
ACAD
1000
RTLwPs
1070
   128
  0
ELLIPSE
  5
12A
100
AcDbEntity
  8
USP-GEO
  6
CONTINUOUS
100
AcDbEllipse
 10
1.13570979543148
 20
4.496487170905305
 30
0.0
 11
-0.0390000575607281
 21
-0.067549948262452
 31
0.0
210
0.0
220
0.0
230
1.0
 40
0.7071067811865568
 41
2.707085154319242
 42
3.548623814562655
1001
ACAD
1000
RTLwPs
1070
   128
  0
ELLIPSE
  5
12B
100
AcDbEntity
  8
USP-GEO
  6
CONTINUOUS
100
AcDbEllipse
 10
1.13570979543148
 20
4.496487170905305
 30
0.0
 11
-0.0390000575607281
 21
-0.067549948262452
 31
0.0
210
0.0
220
0.0
230
1.0
 40
0.7071067811865568
 41
0.0767514939866582
 42
2.699813856233469
1001
ACAD
1000
RTLwPs
1070
   128
  0
TEXT
  5
12C
100
AcDbEntity
  8
USP-TXT
100
AcDbText
 10
-0.2148761545868913
 20
-0.666348561878249
 30
0.0
 40
0.25
  1
TMP2 - SIDE VIEW
 72
     1
 11
1.743457178746442
 21
-0.666348561878249
 31
0.0
100
AcDbText
  0
ENDBLK
  5
12E
100
AcDbEntity
  8
0
100
AcDbBlockEnd
  0
ENDSEC
  0
SECTION
  2
ENTITIES
  0
INSERT
  5
3
100
AcDbEntity
  8
USP
100
AcDbBlockReference
  2
TMP2PR_T
 10
-0.0046290949427252
 20
9.504006351761717
 30
0.0
  0
INSERT
  5
7F
100
AcDbEntity
  8
USP
100
AcDbBlockReference
  2
TMP2PR_F
 10
-0.0046290949427252
 20
1.633838582026656
 30
0.0
  0
INSERT
  5
F2
100
AcDbEntity
  8
USP
100
AcDbBlockReference
  2
TMP2PR_S
 10
7.88820620869134
 20
1.611773090352662
 30
0.0
  0
ENDSEC
  0
SECTION
  2
OBJECTS
  0
DICTIONARY
  5
146
100
AcDbDictionary
  3
ACAD_GROUP
350
144
  3
ACAD_MLINESTYLE
350
145
  0
DICTIONARY
  5
9
100
AcDbDictionary
280
     1
  3
ACAD_XREC_ROUNDTRIP
360
A
  0
DICTIONARY
  5
79
100
AcDbDictionary
280
     1
  3
ACAD_XREC_ROUNDTRIP
360
7A
  0
DICTIONARY
  5
149
100
AcDbDictionary
280
     1
  3
ACAD_XREC_ROUNDTRIP
360
14A
  0
DICTIONARY
  5
12F
100
AcDbDictionary
280
     1
  3
ACAD_LAYOUTSELFREF
360
130
  0
DICTIONARY
  5
134
100
AcDbDictionary
280
     1
  3
ACAD_LAYOUTSELFREF
360
135
  0
DICTIONARY
  5
144
102
{ACAD_REACTORS
330
146
102
}
100
AcDbDictionary
  0
DICTIONARY
  5
145
102
{ACAD_REACTORS
330
146
102
}
100
AcDbDictionary
  3
STANDARD
350
147
  0
XRECORD
  5
A
102
{ACAD_REACTORS
330
9
102
}
100
AcDbXrecord
102
EXTNAMES
  1
USP-GEO
  2
USP-Geo
  0
XRECORD
  5
7A
102
{ACAD_REACTORS
330
79
102
}
100
AcDbXrecord
102
EXTNAMES
  1
USP-TXT
  2
USP-Txt
  0
XRECORD
  5
14A
102
{ACAD_REACTORS
330
149
102
}
100
AcDbXrecord
102
ACADR14ROUNDTRIP
1000
DSTYLE
1002
{
1070
   276
 70
     2
1070
   277
 70
     5
1002
}
  0
XRECORD
  5
130
102
{ACAD_REACTORS
330
12F
102
}
100
AcDbXrecord
340
2
  0
XRECORD
  5
135
102
{ACAD_REACTORS
330
134
102
}
100
AcDbXrecord
340
0
  0
MLINESTYLE
  5
147
102
{ACAD_REACTORS
330
145
102
}
100
AcDbMlineStyle
  2
STANDARD
 70
     0
  3

 62
     0
 51
90.0
 52
90.0
 71
     2
 49
0.5
 62
   256
  6
BYLAYER
 49
-0.5
 62
   256
  6
BYLAYER
  0
ENDSEC
  0
EOF
