  0
SECTION
  2
HEADER
  9
$ACADVER
  1
AC1014
  9
$ACADMAINTVER
 70
     8
  9
$DWGCODEPAGE
  3
ANSI_1252
  9
$INSBASE
 10
0.0
 20
0.0
 30
0.0
  9
$EXTMIN
 10
-0.0105151265909607
 20
0.6318144829104372
 30
0.0
  9
$EXTMAX
 10
14.37663650586578
 20
17.73374774659286
 30
0.0
  9
$LIMMIN
 10
0.0
 20
0.0
  9
$LIMMAX
 10
12.0
 20
9.0
  9
$ORTHOMODE
 70
     0
  9
$REGENMODE
 70
     1
  9
$FILLMODE
 70
     1
  9
$QTEXTMODE
 70
     0
  9
$MIRRTEXT
 70
     0
  9
$DRAGMODE
 70
     2
  9
$LTSCALE
 40
1.5
  9
$OSMODE
 70
     0
  9
$ATTMODE
 70
     1
  9
$TEXTSIZE
 40
0.25
  9
$TRACEWID
 40
0.05
  9
$TEXTSTYLE
  7
STANDARD
  9
$CLAYER
  8
USP
  9
$CELTYPE
  6
BYLAYER
  9
$CECOLOR
 62
   256
  9
$CELTSCALE
 40
1.0
  9
$DELOBJ
 70
     1
  9
$DISPSILH
 70
     1
  9
$DIMSCALE
 40
5.0
  9
$DIMASZ
 40
0.125
  9
$DIMEXO
 40
0.0625
  9
$DIMDLI
 40
0.38
  9
$DIMRND
 40
0.0
  9
$DIMDLE
 40
0.0
  9
$DIMEXE
 40
0.09375
  9
$DIMTP
 40
0.0
  9
$DIMTM
 40
0.0
  9
$DIMTXT
 40
0.109375
  9
$DIMCEN
 40
0.0
  9
$DIMTSZ
 40
0.0
  9
$DIMTOL
 70
     0
  9
$DIMLIM
 70
     0
  9
$DIMTIH
 70
     1
  9
$DIMTOH
 70
     1
  9
$DIMSE1
 70
     0
  9
$DIMSE2
 70
     0
  9
$DIMTAD
 70
     0
  9
$DIMZIN
 70
     8
  9
$DIMBLK
  1

  9
$DIMASO
 70
     1
  9
$DIMSHO
 70
     1
  9
$DIMPOST
  1

  9
$DIMAPOST
  1

  9
$DIMALT
 70
     0
  9
$DIMALTD
 70
     2
  9
$DIMALTF
 40
25.4
  9
$DIMLFAC
 40
1.0
  9
$DIMTOFL
 70
     0
  9
$DIMTVP
 40
0.0
  9
$DIMTIX
 70
     0
  9
$DIMSOXD
 70
     0
  9
$DIMSAH
 70
     0
  9
$DIMBLK1
  1

  9
$DIMBLK2
  1

  9
$DIMSTYLE
  2
STANDARD
  9
$DIMCLRD
 70
   256
  9
$DIMCLRE
 70
   256
  9
$DIMCLRT
 70
   256
  9
$DIMTFAC
 40
1.0
  9
$DIMGAP
 40
0.09
  9
$DIMJUST
 70
     0
  9
$DIMSD1
 70
     0
  9
$DIMSD2
 70
     0
  9
$DIMTOLJ
 70
     1
  9
$DIMTZIN
 70
     0
  9
$DIMALTZ
 70
     0
  9
$DIMALTTZ
 70
     0
  9
$DIMFIT
 70
     3
  9
$DIMUPT
 70
     1
  9
$DIMUNIT
 70
     7
  9
$DIMDEC
 70
     4
  9
$DIMTDEC
 70
     4
  9
$DIMALTU
 70
     2
  9
$DIMALTTD
 70
     2
  9
$DIMTXSTY
  7
STANDARD
  9
$DIMAUNIT
 70
     0
  9
$LUNITS
 70
     5
  9
$LUPREC
 70
     6
  9
$SKETCHINC
 40
0.1
  9
$FILLETRAD
 40
0.0
  9
$AUNITS
 70
     0
  9
$AUPREC
 70
     1
  9
$MENU
  1
CUSTOM
  9
$ELEVATION
 40
0.0
  9
$PELEVATION
 40
0.0
  9
$THICKNESS
 40
0.0
  9
$LIMCHECK
 70
     0
  9
$BLIPMODE
 70
     0
  9
$CHAMFERA
 40
0.0
  9
$CHAMFERB
 40
0.0
  9
$CHAMFERC
 40
0.0
  9
$CHAMFERD
 40
0.0
  9
$SKPOLY
 70
     0
  9
$TDCREATE
 40
2451263.621564698
  9
$TDUPDATE
 40
2453025.979688032
  9
$TDINDWG
 40
1.0264319444
  9
$TDUSRTIMER
 40
1.0264319444
  9
$USRTIMER
 70
     1
  9
$ANGBASE
 50
0.0
  9
$ANGDIR
 70
     0
  9
$PDMODE
 70
     0
  9
$PDSIZE
 40
0.0
  9
$PLINEWID
 40
0.0
  9
$COORDS
 70
     2
  9
$SPLFRAME
 70
     0
  9
$SPLINETYPE
 70
     6
  9
$SPLINESEGS
 70
     8
  9
$ATTDIA
 70
     0
  9
$ATTREQ
 70
     0
  9
$HANDLING
 70
     1
  9
$HANDSEED
  5
171
  9
$SURFTAB1
 70
     6
  9
$SURFTAB2
 70
     6
  9
$SURFTYPE
 70
     6
  9
$SURFU
 70
     6
  9
$SURFV
 70
     6
  9
$UCSNAME
  2

  9
$UCSORG
 10
0.0
 20
0.0
 30
0.0
  9
$UCSXDIR
 10
1.0
 20
0.0
 30
0.0
  9
$UCSYDIR
 10
0.0
 20
1.0
 30
0.0
  9
$PUCSNAME
  2

  9
$PUCSORG
 10
0.0
 20
0.0
 30
0.0
  9
$PUCSXDIR
 10
1.0
 20
0.0
 30
0.0
  9
$PUCSYDIR
 10
0.0
 20
1.0
 30
0.0
  9
$USERI1
 70
     0
  9
$USERI2
 70
     0
  9
$USERI3
 70
     0
  9
$USERI4
 70
     0
  9
$USERI5
 70
     0
  9
$USERR1
 40
0.0
  9
$USERR2
 40
0.0
  9
$USERR3
 40
0.0
  9
$USERR4
 40
0.0
  9
$USERR5
 40
0.0
  9
$WORLDVIEW
 70
     1
  9
$SHADEDGE
 70
     3
  9
$SHADEDIF
 70
    70
  9
$TILEMODE
 70
     1
  9
$MAXACTVP
 70
    16
  9
$PINSBASE
 10
0.0
 20
0.0
 30
0.0
  9
$PLIMCHECK
 70
     0
  9
$PEXTMIN
 10
1.000000000000000E+20
 20
1.000000000000000E+20
 30
1.000000000000000E+20
  9
$PEXTMAX
 10
-1.000000000000000E+20
 20
-1.000000000000000E+20
 30
-1.000000000000000E+20
  9
$PLIMMIN
 10
0.0
 20
0.0
  9
$PLIMMAX
 10
12.0
 20
9.0
  9
$UNITMODE
 70
     0
  9
$VISRETAIN
 70
     0
  9
$PLINEGEN
 70
     0
  9
$PSLTSCALE
 70
     0
  9
$TREEDEPTH
 70
  3020
  9
$PICKSTYLE
 70
     1
  9
$CMLSTYLE
  2
STANDARD
  9
$CMLJUST
 70
     0
  9
$CMLSCALE
 40
1.0
  9
$PROXYGRAPHICS
 70
     1
  9
$MEASUREMENT
 70
     0
  0
ENDSEC
  0
SECTION
  2
CLASSES
  0
CLASS
  1
ACDBDICTIONARYWDFLT
  2
AcDbDictionaryWithDefault
  3
AutoCAD 2000
 90
        0
280
     0
281
     0
  0
CLASS
  1
ACDBPLACEHOLDER
  2
AcDbPlaceHolder
  3
AutoCAD 2000
 90
        0
280
     0
281
     0
  0
CLASS
  1
LAYOUT
  2
AcDbLayout
  3
AutoCAD 2000
 90
        0
280
     0
281
     0
  0
CLASS
  1
DICTIONARYVAR
  2
AcDbDictionaryVar
  3
"AutoCAD"
 90
        0
280
     0
281
     0
  0
CLASS
  1
SORTENTSTABLE
  2
AcDbSortentsTable
  3
"AutoCAD"
 90
        0
280
     0
281
     0
  0
CLASS
  1
LONG_TRANSACTION
  2
AcDbLongTransaction
  3
AutoCAD 2000
 90
        0
280
     0
281
     0
  0
CLASS
  1
LWPOLYLINE
  2
AcDbPolyline
  3
"AutoCAD"
 90
        0
280
     0
281
     1
  0
CLASS
  1
HATCH
  2
AcDbHatch
  3
"ACAD_SEDONA"
 90
        0
280
     0
281
     1
  0
CLASS
  1
XRECORD
  2
AcDbXrecord
  3
"<Built In>"
 90
        0
280
     0
281
     0
  0
CLASS
  1
LONG_TRANSACTION
  2
AcDbLongTransaction
  3
AutoCAD 2000
 90
        0
280
     0
281
     0
  0
CLASS
  1
LWPOLYLINE
  2
AcDbPolyline
  3
"AutoCAD"
 90
        0
280
     0
281
     1
  0
CLASS
  1
HATCH
  2
AcDbHatch
  3
"ACAD_SEDONA"
 90
        0
280
     0
281
     1
  0
CLASS
  1
XRECORD
  2
AcDbXrecord
  3
"<Built In>"
 90
        0
280
     0
281
     0
  0
CLASS
  1
LONG_TRANSACTION
  2
AcDbLongTransaction
  3
AutoCAD 2000
 90
        0
280
     0
281
     0
  0
CLASS
  1
LWPOLYLINE
  2
AcDbPolyline
  3
"AutoCAD"
 90
        0
280
     0
281
     1
  0
CLASS
  1
HATCH
  2
AcDbHatch
  3
"ACAD_SEDONA"
 90
        0
280
     0
281
     1
  0
CLASS
  1
XRECORD
  2
AcDbXrecord
  3
"<Built In>"
 90
        0
280
     0
281
     0
  0
CLASS
  1
LONG_TRANSACTION
  2
AcDbLongTransaction
  3
AutoCAD 2000
 90
        0
280
     0
281
     0
  0
CLASS
  1
LWPOLYLINE
  2
AcDbPolyline
  3
"AutoCAD"
 90
        0
280
     0
281
     1
  0
CLASS
  1
HATCH
  2
AcDbHatch
  3
"ACAD_SEDONA"
 90
        0
280
     0
281
     1
  0
CLASS
  1
XRECORD
  2
AcDbXrecord
  3
"<Built In>"
 90
        0
280
     0
281
     0
  0
CLASS
  1
LONG_TRANSACTION
  2
AcDbLongTransaction
  3
AutoCAD 2000
 90
        0
280
     0
281
     0
  0
CLASS
  1
LWPOLYLINE
  2
AcDbPolyline
  3
"AutoCAD"
 90
        0
280
     0
281
     1
  0
CLASS
  1
HATCH
  2
AcDbHatch
  3
"ACAD_SEDONA"
 90
        0
280
     0
281
     1
  0
CLASS
  1
XRECORD
  2
AcDbXrecord
  3
"<Built In>"
 90
        0
280
     0
281
     0
  0
ENDSEC
  0
SECTION
  2
TABLES
  0
TABLE
  2
VPORT
  5
162
100
AcDbSymbolTable
 70
     1
  0
VPORT
  5
163
100
AcDbSymbolTableRecord
100
AcDbViewportTableRecord
  2
*ACTIVE
 70
     0
 10
0.0
 20
0.0
 11
1.0
 21
1.0
 12
0.2389607046047981
 22
11.52893570331553
 13
0.0
 23
0.0
 14
1.0
 24
1.0
 15
0.0
 25
0.0
 16
0.0
 26
0.0
 36
1.0
 17
6.94410001853031
 27
-1.509366118534131
 37
-1.179885437549653
 40
18.89973120856861
 41
1.379227053140096
 42
50.0
 43
0.0
 44
0.0
 50
0.0
 51
0.0
 71
     0
 72
   100
 73
     1
 74
     1
 75
     0
 76
     0
 77
     0
 78
     0
  0
ENDTAB
  0
TABLE
  2
LTYPE
  5
15D
100
AcDbSymbolTable
 70
     1
  0
LTYPE
  5
15E
100
AcDbSymbolTableRecord
100
AcDbLinetypeTableRecord
  2
BYBLOCK
 70
     0
  3

 72
    65
 73
     0
 40
0.0
  0
LTYPE
  5
15F
100
AcDbSymbolTableRecord
100
AcDbLinetypeTableRecord
  2
BYLAYER
 70
     0
  3

 72
    65
 73
     0
 40
0.0
  0
LTYPE
  5
5
100
AcDbSymbolTableRecord
100
AcDbLinetypeTableRecord
  2
CONTINUOUS
 70
     0
  3
Solid line
 72
    65
 73
     0
 40
0.0
  0
ENDTAB
  0
TABLE
  2
LAYER
  5
15B
100
AcDbSymbolTable
 70
     4
  0
LAYER
  5
89
100
AcDbSymbolTableRecord
100
AcDbLayerTableRecord
  2
0
 70
     0
 62
     7
  6
CONTINUOUS
  0
LAYER
  5
8
102
{ACAD_XDICTIONARY
360
9
102
}
100
AcDbSymbolTableRecord
100
AcDbLayerTableRecord
  2
USP-GEO
 70
     0
 62
     7
  6
CONTINUOUS
  0
LAYER
  5
84
102
{ACAD_XDICTIONARY
360
85
102
}
100
AcDbSymbolTableRecord
100
AcDbLayerTableRecord
  2
USP-TXT
 70
     0
 62
     7
  6
CONTINUOUS
  0
LAYER
  5
4
100
AcDbSymbolTableRecord
100
AcDbLayerTableRecord
  2
USP
 70
     0
 62
     7
  6
CONTINUOUS
  0
ENDTAB
  0
TABLE
  2
STYLE
  5
15C
100
AcDbSymbolTable
 70
     1
  0
STYLE
  5
87
100
AcDbSymbolTableRecord
100
AcDbTextStyleTableRecord
  2
STANDARD
 70
     0
 40
0.0
 41
1.0
 50
0.0
 71
     0
 42
0.25
  3
txt
  4

  0
ENDTAB
  0
TABLE
  2
VIEW
  5
160
100
AcDbSymbolTable
 70
     0
  0
ENDTAB
  0
TABLE
  2
UCS
  5
161
100
AcDbSymbolTable
 70
     0
  0
ENDTAB
  0
TABLE
  2
APPID
  5
164
100
AcDbSymbolTable
 70
     1
  0
APPID
  5
65
100
AcDbSymbolTableRecord
100
AcDbRegAppTableRecord
  2
ACAD
 70
     0
  0
ENDTAB
  0
TABLE
  2
DIMSTYLE
  5
165
100
AcDbSymbolTable
 70
     1
  0
DIMSTYLE
105
16B
102
{ACAD_XDICTIONARY
360
16C
102
}
100
AcDbSymbolTableRecord
100
AcDbDimStyleTableRecord
  2
STANDARD
 70
     0
  3

  4

  5

  6

  7

 40
1.0
 41
0.125
 42
0.0625
 43
0.38
 44
0.09375
 45
0.0
 46
0.0
 47
0.0
 48
0.0
140
0.109375
141
0.0
142
0.0
143
25.4
144
1.0
145
0.0
146
1.0
147
0.09
 71
     0
 72
     0
 73
     1
 74
     1
 75
     0
 76
     0
 77
     0
 78
     8
170
     0
171
     2
172
     0
173
     0
174
     0
175
     0
176
     0
177
     0
178
     0
270
     7
271
     4
272
     4
273
     2
274
     2
340
87
275
     0
280
     0
281
     0
282
     0
283
     1
284
     0
285
     0
286
     0
287
     3
288
     0
  0
ENDTAB
  0
TABLE
  2
BLOCK_RECORD
  5
1
100
AcDbSymbolTable
 70
     3
  0
BLOCK_RECORD
  5
2
102
{ACAD_XDICTIONARY
360
152
102
}
100
AcDbSymbolTableRecord
100
AcDbBlockTableRecord
  2
*MODEL_SPACE
  0
BLOCK_RECORD
  5
156
102
{ACAD_XDICTIONARY
360
157
102
}
100
AcDbSymbolTableRecord
100
AcDbBlockTableRecord
  2
*PAPER_SPACE
  0
BLOCK_RECORD
  5
6
100
AcDbSymbolTableRecord
100
AcDbBlockTableRecord
  2
TFL2595PR_T
  0
BLOCK_RECORD
  5
8C
100
AcDbSymbolTableRecord
100
AcDbBlockTableRecord
  2
TFL2595PR_F
  0
BLOCK_RECORD
  5
107
100
AcDbSymbolTableRecord
100
AcDbBlockTableRecord
  2
TFL2595PR_S
  0
ENDTAB
  0
ENDSEC
  0
SECTION
  2
BLOCKS
  0
BLOCK
  5
154
100
AcDbEntity
  8
0
100
AcDbBlockBegin
  2
*MODEL_SPACE
 70
     0
 10
0.0
 20
0.0
 30
0.0
  3
*MODEL_SPACE
  1

  0
ENDBLK
  5
155
100
AcDbEntity
  8
0
100
AcDbBlockEnd
  0
BLOCK
  5
159
100
AcDbEntity
 67
     1
  8
0
100
AcDbBlockBegin
  2
*PAPER_SPACE
 70
     0
 10
0.0
 20
0.0
 30
0.0
  3
*PAPER_SPACE
  1

  0
ENDBLK
  5
15A
100
AcDbEntity
 67
     1
  8
0
100
AcDbBlockEnd
  0
BLOCK
  5
88
100
AcDbEntity
  8
0
100
AcDbBlockBegin
  2
TFL2595PR_T
 70
     0
 10
0.0
 20
0.0
 30
0.0
  3
TFL2595PR_T
  1

  0
LWPOLYLINE
  5
7
100
AcDbEntity
  8
USP-GEO
100
AcDbPolyline
 90
        2
 70
   128
 43
0.0
 10
6.574488820242863
 20
2.20974892910366
 10
4.665908710013842
 20
2.20974892910366
  0
LWPOLYLINE
  5
B
100
AcDbEntity
  8
USP-GEO
100
AcDbPolyline
 90
        2
 70
   128
 43
0.0
 10
1.90858011022902
 20
2.20974892910366
 10
0.0
 20
2.20974892910366
  0
LWPOLYLINE
  5
C
100
AcDbEntity
  8
USP-GEO
100
AcDbPolyline
 90
        2
 70
   128
 43
0.0
 10
4.595253268635627
 20
2.156757348069998
 10
4.665908710013842
 20
2.156757348069998
  0
LWPOLYLINE
  5
D
100
AcDbEntity
  8
USP-GEO
100
AcDbPolyline
 90
        2
 70
   128
 43
0.0
 10
4.595253268635627
 20
2.192085068759105
 10
4.595253268635627
 20
2.156757348069998
  0
LWPOLYLINE
  5
E
100
AcDbEntity
  8
USP-GEO
100
AcDbPolyline
 90
        2
 70
   128
 43
0.0
 10
0.0
 20
3.712943444425174
 10
0.0
 20
2.245076649792768
  0
CIRCLE
  5
F
100
AcDbEntity
  8
USP-GEO
100
AcDbCircle
 10
1.616996376460069
 20
3.39559266980153
 30
0.0
 40
0.09
  0
CIRCLE
  5
10
100
AcDbEntity
  8
USP-GEO
100
AcDbCircle
 10
0.216996376460064
 20
3.195592669801541
 30
0.0
 40
0.09
  0
LWPOLYLINE
  5
11
100
AcDbEntity
  8
USP-GEO
100
AcDbPolyline
 90
        2
 70
   128
 43
0.0
 10
0.0
 20
3.712943444425174
 10
1.90858011022902
 20
3.712943444425174
  0
LWPOLYLINE
  5
12
100
AcDbEntity
  8
USP-GEO
100
AcDbPolyline
 90
        2
 70
   128
 43
0.0
 10
4.542261687601967
 20
0.2649579051683055
 10
4.595253268635627
 20
0.2649579051683055
  0
LWPOLYLINE
  5
13
100
AcDbEntity
  8
USP-GEO
100
AcDbPolyline
 90
        2
 70
   128
 43
0.0
 10
4.542261687601967
 20
0.9017400705894633
 10
4.595253268635627
 20
0.9017400705894633
  0
LWPOLYLINE
  5
14
100
AcDbEntity
  8
USP-GEO
100
AcDbPolyline
 90
        2
 70
   128
 43
0.0
 10
4.542261687601967
 20
2.156757348069998
 10
4.595253268635627
 20
2.156757348069998
  0
LWPOLYLINE
  5
15
100
AcDbEntity
  8
USP-GEO
100
AcDbPolyline
 90
        2
 70
   128
 43
0.0
 10
2.032227132640895
 20
1.927127163590801
 10
2.032227132640895
 20
1.025387093001338
  0
LWPOLYLINE
  5
16
100
AcDbEntity
  8
USP-GEO
100
AcDbPolyline
 90
        2
 70
   128
 43
0.0
 10
2.032227132640895
 20
1.025387093001338
 10
2.032227132640895
 20
0.9017400705894633
  0
LWPOLYLINE
  5
17
100
AcDbEntity
  8
USP-GEO
100
AcDbPolyline
 90
        2
 70
   128
 43
0.0
 10
2.032227132640895
 20
0.9017400705894633
 10
1.979235551607234
 20
0.9017400705894633
  0
LWPOLYLINE
  5
18
100
AcDbEntity
  8
USP-GEO
100
AcDbPolyline
 90
        2
 70
   128
 43
0.0
 10
2.032227132640895
 20
0.9017400705894633
 10
2.032227132640895
 20
0.8840762102449097
  0
LWPOLYLINE
  5
19
100
AcDbEntity
  8
USP-GEO
100
AcDbPolyline
 90
        2
 70
   128
 43
0.0
 10
2.032227132640895
 20
0.8840762102449097
 10
2.032227132640895
 20
0.2649579051683055
  0
LWPOLYLINE
  5
1A
100
AcDbEntity
  8
USP-GEO
100
AcDbPolyline
 90
        2
 70
   128
 43
0.0
 10
2.032227132640895
 20
0.2649579051683055
 10
1.979235551607234
 20
0.2649579051683055
  0
LWPOLYLINE
  5
1B
100
AcDbEntity
  8
USP-GEO
100
AcDbPolyline
 90
        2
 70
   128
 43
0.0
 10
2.032227132640895
 20
0.2649579051683055
 10
2.032227132640895
 20
0.1413108827564304
  0
LWPOLYLINE
  5
1C
100
AcDbEntity
  8
USP-GEO
100
AcDbPolyline
 90
        2
 70
   128
 43
0.0
 10
2.032227132640895
 20
0.1413108827564304
 10
2.032227132640895
 20
0.1236470224118769
  0
LWPOLYLINE
  5
1D
100
AcDbEntity
  8
USP-GEO
100
AcDbPolyline
 90
        2
 70
   128
 43
0.0
 10
2.032227132640895
 20
0.1236470224118769
 10
2.032227132640895
 20
0.0
  0
LWPOLYLINE
  5
1E
100
AcDbEntity
  8
USP-GEO
100
AcDbPolyline
 90
        2
 70
   128
 43
0.0
 10
2.032227132640895
 20
0.0
 10
1.979235551607234
 20
0.0
  0
LWPOLYLINE
  5
1F
100
AcDbEntity
  8
USP-GEO
100
AcDbPolyline
 90
        2
 70
   128
 43
0.0
 10
4.542261687601967
 20
0.0
 10
4.595253268635627
 20
0.0
  0
LWPOLYLINE
  5
20
100
AcDbEntity
  8
USP-GEO
100
AcDbPolyline
 90
        2
 70
   128
 43
0.0
 10
2.067554853330002
 20
0.0
 10
2.032227132640895
 20
0.0
  0
LWPOLYLINE
  5
21
100
AcDbEntity
  8
USP-GEO
100
AcDbPolyline
 90
        2
 70
   128
 43
0.0
 10
2.032227132640895
 20
1.997782604969017
 10
2.067554853330002
 20
1.997782604969017
  0
LWPOLYLINE
  5
22
100
AcDbEntity
  8
USP-GEO
100
AcDbPolyline
 90
        2
 70
   128
 43
0.0
 10
2.067554853330002
 20
0.0
 10
4.50693396691286
 20
0.0
  0
LWPOLYLINE
  5
23
100
AcDbEntity
  8
USP-GEO
100
AcDbPolyline
 90
        2
 70
   128
 43
0.0
 10
4.50693396691286
 20
1.997782604969017
 10
2.067554853330002
 20
1.997782604969017
  0
LWPOLYLINE
  5
24
100
AcDbEntity
  8
USP-GEO
100
AcDbPolyline
 90
        2
 70
   128
 43
0.0
 10
2.916303342885805
 20
0.5131351430092828
 10
3.03995036529768
 20
0.370941067235627
  0
LWPOLYLINE
  5
25
100
AcDbEntity
  8
USP-GEO
100
AcDbPolyline
 90
        2
 70
   128
 43
0.0
 10
2.79265632047393
 20
0.370941067235627
 10
2.916303342885805
 20
0.5131351430092828
  0
LWPOLYLINE
  5
26
100
AcDbEntity
  8
USP-GEO
100
AcDbPolyline
 90
        2
 70
   128
 43
0.0
 10
2.916303342885805
 20
0.2472940448237519
 10
2.79265632047393
 20
0.370941067235627
  0
LWPOLYLINE
  5
27
100
AcDbEntity
  8
USP-GEO
100
AcDbPolyline
 90
        2
 70
   128
 43
0.0
 10
3.03995036529768
 20
0.370941067235627
 10
2.916303342885805
 20
0.2472940448237519
  0
LWPOLYLINE
  5
28
100
AcDbEntity
  8
USP-GEO
100
AcDbPolyline
 90
        2
 70
   128
 43
0.0
 10
3.534538454945182
 20
0.370941067235627
 10
3.658185477357057
 20
0.5131351430092828
  0
LWPOLYLINE
  5
29
100
AcDbEntity
  8
USP-GEO
100
AcDbPolyline
 90
        2
 70
   128
 43
0.0
 10
3.658185477357057
 20
0.2472940448237519
 10
3.534538454945182
 20
0.370941067235627
  0
LWPOLYLINE
  5
2A
100
AcDbEntity
  8
USP-GEO
100
AcDbPolyline
 90
        2
 70
   128
 43
0.0
 10
3.799496360113486
 20
0.370941067235627
 10
3.658185477357057
 20
0.2472940448237519
  0
LWPOLYLINE
  5
2B
100
AcDbEntity
  8
USP-GEO
100
AcDbPolyline
 90
        2
 70
   128
 43
0.0
 10
3.658185477357057
 20
0.5131351430092828
 10
3.799496360113486
 20
0.370941067235627
  0
LWPOLYLINE
  5
2C
100
AcDbEntity
  8
USP-GEO
100
AcDbPolyline
 90
        2
 70
   128
 43
0.0
 10
4.542261687601967
 20
0.0
 10
4.50693396691286
 20
0.0
  0
LWPOLYLINE
  5
2D
100
AcDbEntity
  8
USP-GEO
100
AcDbPolyline
 90
        2
 70
   128
 43
0.0
 10
4.50693396691286
 20
1.997782604969017
 10
4.542261687601967
 20
1.997782604969017
  0
LWPOLYLINE
  5
2E
100
AcDbEntity
  8
USP-GEO
100
AcDbPolyline
 90
        2
 70
   128
 43
0.0
 10
4.595253268635627
 20
0.1236470224118769
 10
4.595253268635627
 20
0.0
  0
LWPOLYLINE
  5
2F
100
AcDbEntity
  8
USP-GEO
100
AcDbPolyline
 90
        2
 70
   128
 43
0.0
 10
4.595253268635627
 20
0.1413108827564304
 10
4.595253268635627
 20
0.1236470224118769
  0
LWPOLYLINE
  5
30
100
AcDbEntity
  8
USP-GEO
100
AcDbPolyline
 90
        2
 70
   128
 43
0.0
 10
4.595253268635627
 20
0.1413108827564304
 10
4.595253268635627
 20
0.2649579051683055
  0
LWPOLYLINE
  5
31
100
AcDbEntity
  8
USP-GEO
100
AcDbPolyline
 90
        2
 70
   128
 43
0.0
 10
4.595253268635627
 20
0.2649579051683055
 10
4.595253268635627
 20
0.8840762102449097
  0
LWPOLYLINE
  5
32
100
AcDbEntity
  8
USP-GEO
100
AcDbPolyline
 90
        2
 70
   128
 43
0.0
 10
4.595253268635627
 20
0.8840762102449097
 10
4.595253268635627
 20
0.9017400705894633
  0
LWPOLYLINE
  5
33
100
AcDbEntity
  8
USP-GEO
100
AcDbPolyline
 90
        2
 70
   128
 43
0.0
 10
4.595253268635627
 20
1.025387093001338
 10
4.595253268635627
 20
0.9017400705894633
  0
LWPOLYLINE
  5
34
100
AcDbEntity
  8
USP-GEO
100
AcDbPolyline
 90
        2
 70
   128
 43
0.0
 10
4.595253268635627
 20
1.025387093001338
 10
4.595253268635627
 20
1.927127163590801
  0
LWPOLYLINE
  5
35
100
AcDbEntity
  8
USP-GEO
100
AcDbPolyline
 90
        2
 70
   128
 43
0.0
 10
4.595253268635627
 20
2.121429627380891
 10
4.595253268635627
 20
1.927127163590801
  0
LWPOLYLINE
  5
36
100
AcDbEntity
  8
USP-GEO
100
AcDbPolyline
 90
        2
 70
   128
 43
0.0
 10
4.595253268635627
 20
2.121429627380891
 10
4.596136461652855
 20
2.121429627380891
  0
LWPOLYLINE
  5
37
100
AcDbEntity
  8
USP-GEO
100
AcDbPolyline
 90
        3
 70
   128
 43
0.0
 10
4.630580989324735
 20
2.156757348069998
 10
4.595253268635627
 20
2.139093487725446
 10
4.595253268635627
 20
2.121429627380891
  0
CIRCLE
  5
38
100
AcDbEntity
  8
USP-GEO
100
AcDbCircle
 10
4.96312957562471
 20
3.395592669801587
 30
0.0
 40
0.09
  0
CIRCLE
  5
39
100
AcDbEntity
  8
USP-GEO
100
AcDbCircle
 10
6.363129575624715
 20
3.195592669801598
 30
0.0
 40
0.09
  0
LWPOLYLINE
  5
3A
100
AcDbEntity
  8
USP-GEO
100
AcDbPolyline
 90
        2
 70
   128
 43
0.0
 10
4.665908710013842
 20
3.712943444425174
 10
4.665908710013842
 20
2.245076649792768
  0
LWPOLYLINE
  5
3B
100
AcDbEntity
  8
USP-GEO
100
AcDbPolyline
 90
        2
 70
   128
 43
0.0
 10
6.574488820242863
 20
3.712943444425174
 10
4.665908710013842
 20
3.712943444425174
  0
LWPOLYLINE
  5
3C
100
AcDbEntity
  8
USP-GEO
100
AcDbPolyline
 90
        2
 70
   128
 43
0.0
 10
6.574488820242863
 20
3.712943444425174
 10
6.574488820242863
 20
2.245076649792768
  0
LWPOLYLINE
  5
3D
100
AcDbEntity
  8
USP-GEO
100
AcDbPolyline
 90
        2
 70
   128
 43
0.0
 10
6.574488820242863
 20
2.156757348069998
 10
4.665908710013842
 20
2.156757348069998
  0
LWPOLYLINE
  5
3E
100
AcDbEntity
  8
USP-GEO
100
AcDbPolyline
 90
        2
 70
   128
 43
0.0
 10
4.665908710013842
 20
2.156757348069998
 10
4.665908710013842
 20
2.245076649792768
  0
LWPOLYLINE
  5
3F
100
AcDbEntity
  8
USP-GEO
100
AcDbPolyline
 90
        2
 70
   128
 43
0.0
 10
6.574488820242863
 20
2.245076649792768
 10
6.574488820242863
 20
2.156757348069998
  0
LWPOLYLINE
  5
40
100
AcDbEntity
  8
USP-GEO
100
AcDbPolyline
 90
        2
 70
   128
 43
0.0
 10
4.630580989324735
 20
2.20974892910366
 10
4.665908710013842
 20
2.20974892910366
  0
LWPOLYLINE
  5
41
100
AcDbEntity
  8
USP-GEO
100
AcDbPolyline
 90
        2
 70
   128
 43
0.0
 10
4.542261687601967
 20
1.927127163590801
 10
4.542261687601967
 20
2.121429627380891
  0
LWPOLYLINE
  5
42
100
AcDbEntity
  8
USP-GEO
100
AcDbPolyline
 90
        2
 70
   128
 43
0.0
 10
4.542261687601967
 20
1.025387093001338
 10
4.542261687601967
 20
1.927127163590801
  0
LWPOLYLINE
  5
43
100
AcDbEntity
  8
USP-GEO
100
AcDbPolyline
 90
        2
 70
   128
 43
0.0
 10
4.542261687601967
 20
0.9017400705894633
 10
4.542261687601967
 20
1.025387093001338
  0
LWPOLYLINE
  5
44
100
AcDbEntity
  8
USP-GEO
100
AcDbPolyline
 90
        2
 70
   128
 43
0.0
 10
4.542261687601967
 20
0.8840762102449097
 10
4.542261687601967
 20
0.9017400705894633
  0
LWPOLYLINE
  5
45
100
AcDbEntity
  8
USP-GEO
100
AcDbPolyline
 90
        2
 70
   128
 43
0.0
 10
4.542261687601967
 20
0.2649579051683055
 10
4.542261687601967
 20
0.8840762102449097
  0
LWPOLYLINE
  5
46
100
AcDbEntity
  8
USP-GEO
100
AcDbPolyline
 90
        2
 70
   128
 43
0.0
 10
4.542261687601967
 20
0.1413108827564304
 10
4.542261687601967
 20
0.2649579051683055
  0
LWPOLYLINE
  5
47
100
AcDbEntity
  8
USP-GEO
100
AcDbPolyline
 90
        2
 70
   128
 43
0.0
 10
4.542261687601967
 20
0.1236470224118769
 10
4.542261687601967
 20
0.1413108827564304
  0
LWPOLYLINE
  5
48
100
AcDbEntity
  8
USP-GEO
100
AcDbPolyline
 90
        2
 70
   128
 43
0.0
 10
4.542261687601967
 20
0.0
 10
4.542261687601967
 20
0.1236470224118769
  0
LWPOLYLINE
  5
49
100
AcDbEntity
  8
USP-GEO
100
AcDbPolyline
 90
        2
 70
   128
 43
0.0
 10
4.630580989324735
 20
2.20974892910366
 10
4.595253268635627
 20
2.192085068759105
  0
ARC
  5
4A
100
AcDbEntity
  8
USP-GEO
100
AcDbCircle
 10
4.630062976042258
 20
2.105592669801595
 30
0.0
 40
0.09
100
AcDbArc
 50
111.9227995032181
 51
149.7692478903776
  0
LWPOLYLINE
  5
4B
100
AcDbEntity
  8
USP-GEO
100
AcDbPolyline
 90
        2
 70
   128
 43
0.0
 10
4.542261687601967
 20
2.156757348069998
 10
4.542261687601967
 20
2.121429627380891
  0
LWPOLYLINE
  5
4C
100
AcDbEntity
  8
USP-GEO
100
AcDbPolyline
 90
        2
 70
   128
 43
0.0
 10
4.542261687601967
 20
2.121429627380891
 10
4.543144880619194
 20
2.121429627380891
  0
LWPOLYLINE
  5
4D
100
AcDbEntity
  8
USP-GEO
100
AcDbPolyline
 90
        2
 70
   128
 43
0.0
 10
1.90858011022902
 20
2.20974892910366
 10
1.943907830918127
 20
2.20974892910366
  0
LWPOLYLINE
  5
4E
100
AcDbEntity
  8
USP-GEO
100
AcDbPolyline
 90
        2
 70
   128
 43
0.0
 10
1.979235551607234
 20
2.192085068759105
 10
1.979235551607234
 20
2.156757348069998
  0
LWPOLYLINE
  5
4F
100
AcDbEntity
  8
USP-GEO
100
AcDbPolyline
 90
        2
 70
   128
 43
0.0
 10
2.032227132640895
 20
2.156757348069998
 10
1.979235551607234
 20
2.156757348069998
  0
LWPOLYLINE
  5
50
100
AcDbEntity
  8
USP-GEO
100
AcDbPolyline
 90
        2
 70
   128
 43
0.0
 10
2.032227132640895
 20
2.121429627380891
 10
2.032227132640895
 20
1.927127163590801
  0
LWPOLYLINE
  5
51
100
AcDbEntity
  8
USP-GEO
100
AcDbPolyline
 90
        2
 70
   128
 43
0.0
 10
2.032227132640895
 20
2.121429627380891
 10
2.032227132640895
 20
2.156757348069998
  0
ARC
  5
52
100
AcDbEntity
  8
USP-GEO
100
AcDbCircle
 10
1.950062976042265
 20
2.105592669801566
 30
0.0
 40
0.09
100
AcDbArc
 50
31.91105348745541
 51
71.36152874091158
  0
LWPOLYLINE
  5
53
100
AcDbEntity
  8
USP-GEO
100
AcDbPolyline
 90
        2
 70
   128
 43
0.0
 10
1.979235551607234
 20
2.192085068759105
 10
1.943907830918127
 20
2.20974892910366
  0
LWPOLYLINE
  5
54
100
AcDbEntity
  8
USP-GEO
100
AcDbPolyline
 90
        2
 70
   128
 43
0.0
 10
2.032227132640895
 20
2.121429627380891
 10
2.033110325658122
 20
2.121429627380891
  0
LWPOLYLINE
  5
55
100
AcDbEntity
  8
USP-GEO
100
AcDbPolyline
 90
        2
 70
   128
 43
0.0
 10
1.979235551607234
 20
1.927127163590801
 10
1.979235551607234
 20
2.121429627380891
  0
LWPOLYLINE
  5
56
100
AcDbEntity
  8
USP-GEO
100
AcDbPolyline
 90
        2
 70
   128
 43
0.0
 10
1.979235551607234
 20
1.025387093001338
 10
1.979235551607234
 20
1.927127163590801
  0
LWPOLYLINE
  5
57
100
AcDbEntity
  8
USP-GEO
100
AcDbPolyline
 90
        2
 70
   128
 43
0.0
 10
1.979235551607234
 20
0.9017400705894633
 10
1.979235551607234
 20
1.025387093001338
  0
LWPOLYLINE
  5
58
100
AcDbEntity
  8
USP-GEO
100
AcDbPolyline
 90
        2
 70
   128
 43
0.0
 10
1.979235551607234
 20
0.9017400705894633
 10
1.979235551607234
 20
0.8840762102449097
  0
LWPOLYLINE
  5
59
100
AcDbEntity
  8
USP-GEO
100
AcDbPolyline
 90
        2
 70
   128
 43
0.0
 10
1.979235551607234
 20
0.2649579051683055
 10
1.979235551607234
 20
0.8840762102449097
  0
LWPOLYLINE
  5
5A
100
AcDbEntity
  8
USP-GEO
100
AcDbPolyline
 90
        2
 70
   128
 43
0.0
 10
1.979235551607234
 20
0.2649579051683055
 10
1.979235551607234
 20
0.1413108827564304
  0
LWPOLYLINE
  5
5B
100
AcDbEntity
  8
USP-GEO
100
AcDbPolyline
 90
        2
 70
   128
 43
0.0
 10
1.979235551607234
 20
0.1413108827564304
 10
1.979235551607234
 20
0.1236470224118769
  0
LWPOLYLINE
  5
5C
100
AcDbEntity
  8
USP-GEO
100
AcDbPolyline
 90
        2
 70
   128
 43
0.0
 10
1.979235551607234
 20
0.0
 10
1.979235551607234
 20
0.1236470224118769
  0
LWPOLYLINE
  5
5D
100
AcDbEntity
  8
USP-GEO
100
AcDbPolyline
 90
        2
 70
   128
 43
0.0
 10
1.979235551607234
 20
2.121429627380891
 10
1.980118744624461
 20
2.121429627380891
  0
LWPOLYLINE
  5
5E
100
AcDbEntity
  8
USP-GEO
100
AcDbPolyline
 90
        3
 70
   128
 43
0.0
 10
1.979235551607234
 20
2.121429627380891
 10
1.979235551607234
 20
2.139093487725446
 10
1.943907830918127
 20
2.156757348069998
  0
LWPOLYLINE
  5
5F
100
AcDbEntity
  8
USP-GEO
100
AcDbPolyline
 90
        2
 70
   128
 43
0.0
 10
1.90858011022902
 20
2.156757348069998
 10
1.979235551607234
 20
2.156757348069998
  0
LWPOLYLINE
  5
60
100
AcDbEntity
  8
USP-GEO
100
AcDbPolyline
 90
        2
 70
   128
 43
0.0
 10
1.90858011022902
 20
3.712943444425174
 10
1.90858011022902
 20
2.245076649792768
  0
LWPOLYLINE
  5
61
100
AcDbEntity
  8
USP-GEO
100
AcDbPolyline
 90
        2
 70
   128
 43
0.0
 10
1.90858011022902
 20
2.245076649792768
 10
1.90858011022902
 20
2.156757348069998
  0
LWPOLYLINE
  5
62
100
AcDbEntity
  8
USP-GEO
100
AcDbPolyline
 90
        2
 70
   128
 43
0.0
 10
1.90858011022902
 20
2.156757348069998
 10
0.0
 20
2.156757348069998
  0
LWPOLYLINE
  5
63
100
AcDbEntity
  8
USP-GEO
100
AcDbPolyline
 90
        2
 70
   128
 43
0.0
 10
0.0
 20
2.156757348069998
 10
0.0
 20
2.245076649792768
  0
ELLIPSE
  5
64
100
AcDbEntity
  8
USP-GEO
  6
CONTINUOUS
100
AcDbEllipse
 10
1.872110601840536
 20
0.310628133829498
 30
0.0
 11
0.0
 21
-0.078000000000003
 31
0.0
210
0.0
220
0.0
230
1.0
 40
0.7071067811865475
 41
3.432728233451699
 42
5.929748347943075
1001
ACAD
1000
RTLwPs
1070
   128
  0
ELLIPSE
  5
66
100
AcDbEntity
  8
USP-GEO
  6
CONTINUOUS
100
AcDbEllipse
 10
1.833762224710629
 20
0.310628133829498
 30
0.0
 11
0.0
 21
-0.078000000000003
 31
0.0
210
0.0
220
0.0
230
1.0
 40
0.7071067811865475
 41
3.366566999845952
 42
6.008547505826281
1001
ACAD
1000
RTLwPs
1070
   128
  0
ELLIPSE
  5
67
100
AcDbEntity
  8
USP-GEO
  6
CONTINUOUS
100
AcDbEllipse
 10
1.833762224710629
 20
0.310628133829498
 30
0.0
 11
0.0
 21
-0.078000000000003
 31
0.0
210
0.0
220
0.0
230
1.0
 40
0.7071067811865475
 41
3.381733756300539
 42
9.034083332372839
1001
ACAD
1000
RTLwPs
1070
   128
  0
ELLIPSE
  5
68
100
AcDbEntity
  8
USP-GEO
  6
CONTINUOUS
100
AcDbEllipse
 10
1.833762224710629
 20
0.310628133829498
 30
0.0
 11
0.0
 21
-0.078000000000003
 31
0.0
210
0.0
220
0.0
230
1.0
 40
0.7071067811865475
 41
5.990372357322292
 42
6.752488767440245
1001
ACAD
1000
RTLwPs
1070
   128
  0
ELLIPSE
  5
69
100
AcDbEntity
  8
USP-GEO
  6
CONTINUOUS
100
AcDbEllipse
 10
1.833762224710629
 20
0.310628133829498
 30
0.0
 11
0.0
 21
-0.078000000000003
 31
0.0
210
0.0
220
0.0
230
1.0
 40
0.7071067811865475
 41
0.8853157295778984
 42
6.736676950941818
1001
ACAD
1000
RTLwPs
1070
   128
  0
ELLIPSE
  5
6A
100
AcDbEntity
  8
USP-GEO
  6
CONTINUOUS
100
AcDbEllipse
 10
1.833762224710629
 20
0.310628133829498
 30
0.0
 11
0.0
 21
-0.078000000000003
 31
0.0
210
0.0
220
0.0
230
1.0
 40
0.7071067811865475
 41
2.764669617249507
 42
8.666767524935735
1001
ACAD
1000
RTLwPs
1070
   128
  0
ELLIPSE
  5
6B
100
AcDbEntity
  8
USP-GEO
  6
CONTINUOUS
100
AcDbEllipse
 10
1.833762224710629
 20
0.310628133829498
 30
0.0
 11
0.0
 21
-0.078000000000003
 31
0.0
210
0.0
220
0.0
230
1.0
 40
0.7071067811865475
 41
2.394617281060331
 42
8.153780442187553
1001
ACAD
1000
RTLwPs
1070
   128
  0
ELLIPSE
  5
6C
100
AcDbEntity
  8
USP-GEO
  6
CONTINUOUS
100
AcDbEllipse
 10
1.833762224710629
 20
0.310628133829498
 30
0.0
 11
0.0
 21
-0.078000000000003
 31
0.0
210
0.0
220
0.0
230
1.0
 40
0.7071067811865475
 41
0.8961302677731895
 42
1.866295702140313
1001
ACAD
1000
RTLwPs
1070
   128
  0
ELLIPSE
  5
6D
100
AcDbEntity
  8
USP-GEO
  6
CONTINUOUS
100
AcDbEllipse
 10
4.708015350243987
 20
0.4981281338295265
 30
0.0
 11
0.0
 21
-0.078000000000003
 31
0.0
210
0.0
220
0.0
230
1.0
 40
0.7071067811865475
 41
0.6346625616739205
 42
6.487756925725554
1001
ACAD
1000
RTLwPs
1070
   128
  0
ELLIPSE
  5
6E
100
AcDbEntity
  8
USP-GEO
  6
CONTINUOUS
100
AcDbEllipse
 10
4.708015350243987
 20
0.4981281338295265
 30
0.0
 11
0.0
 21
-0.078000000000003
 31
0.0
210
0.0
220
0.0
230
1.0
 40
0.7071067811865475
 41
2.963789314283038
 42
8.875496163335224
1001
ACAD
1000
RTLwPs
1070
   128
  0
ELLIPSE
  5
6F
100
AcDbEntity
  8
USP-GEO
  6
CONTINUOUS
100
AcDbEllipse
 10
4.708015350243987
 20
0.4981281338295265
 30
0.0
 11
0.0
 21
-0.078000000000003
 31
0.0
210
0.0
220
0.0
230
1.0
 40
0.7071067811865475
 41
0.6201835318296846
 42
1.269342218656934
1001
ACAD
1000
RTLwPs
1070
   128
  0
ELLIPSE
  5
70
100
AcDbEntity
  8
USP-GEO
  6
CONTINUOUS
100
AcDbEllipse
 10
4.708015350243987
 20
0.4981281338295265
 30
0.0
 11
0.0
 21
-0.078000000000003
 31
0.0
210
0.0
220
0.0
230
1.0
 40
0.7071067811865475
 41
2.034365385260677
 42
2.605782080690226
1001
ACAD
1000
RTLwPs
1070
   128
  0
ELLIPSE
  5
71
100
AcDbEntity
  8
USP-GEO
  6
CONTINUOUS
100
AcDbEllipse
 10
4.708015350243987
 20
0.4981281338295265
 30
0.0
 11
0.0
 21
-0.078000000000003
 31
0.0
210
0.0
220
0.0
230
1.0
 40
0.7071067811865475
 41
2.026836945596557
 42
7.557853160348209
1001
ACAD
1000
RTLwPs
1070
   128
  0
ELLIPSE
  5
72
100
AcDbEntity
  8
USP-GEO
  6
CONTINUOUS
100
AcDbEllipse
 10
4.746363727373894
 20
0.4981281338295265
 30
0.0
 11
0.0
 21
-0.078000000000003
 31
0.0
210
0.0
220
0.0
230
1.0
 40
0.7071067811865475
 41
4.034942433553879
 42
6.098526998062713
1001
ACAD
1000
RTLwPs
1070
   128
  0
ELLIPSE
  5
73
100
AcDbEntity
  8
USP-GEO
  6
CONTINUOUS
100
AcDbEllipse
 10
4.746363727373894
 20
0.4981281338295265
 30
0.0
 11
0.0
 21
-0.078000000000003
 31
0.0
210
0.0
220
0.0
230
1.0
 40
0.7071067811865475
 41
3.646588890871978
 42
4.044574586988449
1001
ACAD
1000
RTLwPs
1070
   128
  0
ELLIPSE
  5
74
100
AcDbEntity
  8
USP-GEO
  6
CONTINUOUS
100
AcDbEllipse
 10
4.746363727373894
 20
0.4981281338295265
 30
0.0
 11
0.0
 21
-0.078000000000003
 31
0.0
210
0.0
220
0.0
230
1.0
 40
0.7071067811865475
 41
3.287744890301188
 42
3.660548362183756
1001
ACAD
1000
RTLwPs
1070
   128
  0
ELLIPSE
  5
75
100
AcDbEntity
  8
USP-GEO
  6
CONTINUOUS
100
AcDbEllipse
 10
4.746363727373894
 20
0.4981281338295265
 30
0.0
 11
0.0
 21
-0.078000000000003
 31
0.0
210
0.0
220
0.0
230
1.0
 40
0.7071067811865475
 41
3.301985527195272
 42
9.281356160053563
1001
ACAD
1000
RTLwPs
1070
   128
  0
ELLIPSE
  5
76
100
AcDbEntity
  8
USP-GEO
  6
CONTINUOUS
100
AcDbEllipse
 10
4.746363727373894
 20
0.4981281338295265
 30
0.0
 11
0.0
 21
-0.078000000000003
 31
0.0
210
0.0
220
0.0
230
1.0
 40
0.7071067811865475
 41
3.012482283351707
 42
8.922476331419979
1001
ACAD
1000
RTLwPs
1070
   128
  0
ELLIPSE
  5
77
100
AcDbEntity
  8
USP-GEO
  6
CONTINUOUS
100
AcDbEllipse
 10
4.746363727373894
 20
0.4981281338295265
 30
0.0
 11
0.0
 21
-0.078000000000003
 31
0.0
210
0.0
220
0.0
230
1.0
 40
0.7071067811865475
 41
2.653511089671833
 42
8.543211420293662
1001
ACAD
1000
RTLwPs
1070
   128
  0
ELLIPSE
  5
78
100
AcDbEntity
  8
USP-GEO
  6
CONTINUOUS
100
AcDbEllipse
 10
4.746363727373894
 20
0.4981281338295265
 30
0.0
 11
0.0
 21
-0.078000000000003
 31
0.0
210
0.0
220
0.0
230
1.0
 40
0.7071067811865475
 41
6.114841821108881
 42
8.533296986150634
1001
ACAD
1000
RTLwPs
1070
   128
  0
LWPOLYLINE
  5
79
100
AcDbEntity
  8
USP-GEO
100
AcDbPolyline
 90
        2
 70
   128
 43
0.0
 10
2.085218713674556
 20
0.9900593723122312
 10
2.191201875741877
 20
1.131370255068661
  0
LWPOLYLINE
  5
7A
100
AcDbEntity
  8
USP-GEO
100
AcDbPolyline
 90
        2
 70
   128
 43
0.0
 10
2.032227132640895
 20
0.9900593723122312
 10
2.085218713674556
 20
0.9900593723122312
  0
LWPOLYLINE
  5
7B
100
AcDbEntity
  8
USP-GEO
100
AcDbPolyline
 90
        2
 70
   128
 43
0.0
 10
2.191201875741877
 20
1.131370255068661
 10
2.085218713674556
 20
1.255017277480536
  0
LWPOLYLINE
  5
7C
100
AcDbEntity
  8
USP-GEO
100
AcDbPolyline
 90
        2
 70
   128
 43
0.0
 10
2.085218713674556
 20
1.255017277480536
 10
2.032227132640895
 20
1.255017277480536
  0
LWPOLYLINE
  5
7D
100
AcDbEntity
  8
USP-GEO
100
AcDbPolyline
 90
        2
 70
   128
 43
0.0
 10
4.489270106568306
 20
0.9900593723122312
 10
4.383286944500984
 20
1.131370255068661
  0
LWPOLYLINE
  5
7E
100
AcDbEntity
  8
USP-GEO
100
AcDbPolyline
 90
        2
 70
   128
 43
0.0
 10
4.383286944500984
 20
1.131370255068661
 10
4.489270106568306
 20
1.255017277480536
  0
LWPOLYLINE
  5
7F
100
AcDbEntity
  8
USP-GEO
100
AcDbPolyline
 90
        2
 70
   128
 43
0.0
 10
4.489270106568306
 20
1.255017277480536
 10
4.542261687601967
 20
1.255017277480536
  0
LWPOLYLINE
  5
80
100
AcDbEntity
  8
USP-GEO
100
AcDbPolyline
 90
        2
 70
   128
 43
0.0
 10
4.542261687601967
 20
0.9900593723122312
 10
4.489270106568306
 20
0.9900593723122312
  0
ARC
  5
81
100
AcDbEntity
  8
USP-GEO
100
AcDbCircle
 10
4.540062976042254
 20
0.4981281338295265
 30
0.0
 40
0.3020000000000021
100
AcDbArc
 50
280.9162576232557
 51
79.49477776530845
  0
ARC
  5
82
100
AcDbEntity
  8
USP-GEO
100
AcDbCircle
 10
2.040062976042269
 20
0.310628133829498
 30
0.0
 40
0.3020000000000021
100
AcDbArc
 50
101.1543695065798
 51
258.2704784077565
  0
TEXT
  5
83
100
AcDbEntity
  8
USP-TXT
100
AcDbText
 10
1.037244410121431
 20
-0.8283148073475654
 30
0.0
 40
0.25
  1
TFL2595 - TOP VIEW
 72
     1
 11
3.287244410121431
 21
-0.8283148073475654
 31
0.0
100
AcDbText
  0
ENDBLK
  5
8A
100
AcDbEntity
  8
0
100
AcDbBlockEnd
  0
BLOCK
  5
104
100
AcDbEntity
  8
0
100
AcDbBlockBegin
  2
TFL2595PR_F
 70
     0
 10
0.0
 20
0.0
 30
0.0
  3
TFL2595PR_F
  1

  0
LWPOLYLINE
  5
8D
100
AcDbEntity
  8
USP-GEO
100
AcDbPolyline
 90
        2
 70
   128
 43
0.0
 10
1.90858011022902
 20
9.564980376575793
 10
0.0
 20
9.564980376575793
  0
LWPOLYLINE
  5
8E
100
AcDbEntity
  8
USP-GEO
100
AcDbPolyline
 90
        2
 70
   128
 43
0.0
 10
6.574488820242863
 20
9.564980376575793
 10
4.665908710013842
 20
9.564980376575793
  0
CIRCLE
  5
8F
100
AcDbEntity
  8
USP-GEO
100
AcDbCircle
 10
5.038129575624684
 20
8.555188479494967
 30
0.0
 40
0.09
  0
LWPOLYLINE
  5
90
100
AcDbEntity
  8
USP-GEO
100
AcDbPolyline
 90
        2
 70
   128
 43
0.0
 10
4.789555732425717
 20
4.720666677081958
 10
4.895538894493038
 20
4.844313699493833
  0
LWPOLYLINE
  5
91
100
AcDbEntity
  8
USP-GEO
100
AcDbPolyline
 90
        2
 70
   128
 43
0.0
 10
4.895538894493038
 20
4.613800321997407
 10
4.789555732425717
 20
4.720666677081958
  0
LWPOLYLINE
  5
92
100
AcDbEntity
  8
USP-GEO
100
AcDbPolyline
 90
        2
 70
   128
 43
0.0
 10
5.019185916904915
 20
4.720666677081958
 10
4.895538894493038
 20
4.613800321997407
  0
LWPOLYLINE
  5
93
100
AcDbEntity
  8
USP-GEO
100
AcDbPolyline
 90
        2
 70
   128
 43
0.0
 10
4.895538894493038
 20
4.844313699493833
 10
5.019185916904915
 20
4.720666677081958
  0
ARC
  5
94
100
AcDbEntity
  8
USP-GEO
100
AcDbCircle
 10
4.557245637121245
 20
9.286072417998406
 30
0.0
 40
0.1058839385034389
100
AcDbArc
 50
292.2471310653786
 51
357.5775419692307
  0
LWPOLYLINE
  5
95
100
AcDbEntity
  8
USP-GEO
100
AcDbPolyline
 90
        2
 70
   128
 43
0.0
 10
4.665908710013842
 20
9.51198879554213
 10
4.665908710013842
 20
9.281475418045705
  0
ARC
  5
96
100
AcDbEntity
  8
USP-GEO
100
AcDbCircle
 10
6.557245637121245
 20
9.286072417998406
 30
0.0
 40
0.1058839385034389
100
AcDbArc
 50
269.7820322135971
 51
278.8629722556116
  0
ARC
  5
97
100
AcDbEntity
  8
USP-GEO
100
AcDbCircle
 10
6.557245637121245
 20
8.930188479494967
 30
0.0
 40
0.25
100
AcDbArc
 50
90.09825778521824
 51
138.1108822821633
  0
LWPOLYLINE
  5
98
100
AcDbEntity
  8
USP-GEO
100
AcDbPolyline
 90
        2
 70
   128
 43
0.0
 10
5.460782425518755
 20
8.07944972159883
 10
6.362522496108218
 20
9.104836814600169
  0
ARC
  5
99
100
AcDbEntity
  8
USP-GEO
100
AcDbCircle
 10
5.842062976042432
 20
7.747411334568818
 30
0.0
 40
0.5
100
AcDbArc
 50
138.9490037900749
 51
180.4056555448824
  0
LWPOLYLINE
  5
9A
100
AcDbEntity
  8
USP-GEO
100
AcDbPolyline
 90
        2
 70
   128
 43
0.0
 10
5.33713540310688
 20
7.743836375052312
 10
5.33713540310688
 20
5.46254881155321
  0
ARC
  5
9B
100
AcDbEntity
  8
USP-GEO
100
AcDbCircle
 10
4.592062976042432
 20
5.458350328193555
 30
0.0
 40
0.75
100
AcDbArc
 50
349.3253179171794
 51
0.3228583182494065
  0
LWPOLYLINE
  5
9C
100
AcDbEntity
  8
USP-GEO
100
AcDbPolyline
 90
        2
 70
   128
 43
0.0
 10
4.718900291047503
 20
2.17442120841455
 10
5.319471542762326
 20
5.321237928796781
  0
LWPOLYLINE
  5
9D
100
AcDbEntity
  8
USP-GEO
100
AcDbPolyline
 90
        2
 70
   128
 43
0.0
 10
4.542261687601967
 20
2.068438046347228
 10
4.595253268635627
 20
2.068438046347228
  0
LWPOLYLINE
  5
9E
100
AcDbEntity
  8
USP-GEO
100
AcDbPolyline
 90
        2
 70
   128
 43
0.0
 10
4.542261687601967
 20
2.17442120841455
 10
4.595253268635627
 20
2.17442120841455
  0
LWPOLYLINE
  5
9F
100
AcDbEntity
  8
USP-GEO
100
AcDbPolyline
 90
        2
 70
   128
 43
0.0
 10
4.542261687601967
 20
9.193156116322938
 10
4.595253268635627
 20
9.193156116322938
  0
LWPOLYLINE
  5
A0
100
AcDbEntity
  8
USP-GEO
100
AcDbPolyline
 90
        2
 70
   128
 43
0.0
 10
4.630580989324735
 20
9.193156116322938
 10
4.595253268635627
 20
9.193156116322938
  0
LWPOLYLINE
  5
A1
100
AcDbEntity
  8
USP-GEO
100
AcDbPolyline
 90
        2
 70
   128
 43
0.0
 10
2.032227132640895
 20
9.104836814600169
 10
2.032227132640895
 20
8.07944972159883
  0
LWPOLYLINE
  5
A2
100
AcDbEntity
  8
USP-GEO
100
AcDbPolyline
 90
        2
 70
   128
 43
0.0
 10
2.032227132640895
 20
8.07944972159883
 10
2.032227132640895
 20
7.743836375052312
  0
LWPOLYLINE
  5
A3
100
AcDbEntity
  8
USP-GEO
100
AcDbPolyline
 90
        2
 70
   128
 43
0.0
 10
2.032227132640895
 20
7.743836375052312
 10
2.032227132640895
 20
5.46254881155321
  0
LWPOLYLINE
  5
A4
100
AcDbEntity
  8
USP-GEO
100
AcDbPolyline
 90
        2
 70
   128
 43
0.0
 10
2.032227132640895
 20
5.46254881155321
 10
2.032227132640895
 20
5.321237928796781
  0
LWPOLYLINE
  5
A5
100
AcDbEntity
  8
USP-GEO
100
AcDbPolyline
 90
        2
 70
   128
 43
0.0
 10
2.032227132640895
 20
5.321237928796781
 10
2.032227132640895
 20
2.17442120841455
  0
LWPOLYLINE
  5
A6
100
AcDbEntity
  8
USP-GEO
100
AcDbPolyline
 90
        2
 70
   128
 43
0.0
 10
2.032227132640895
 20
2.17442120841455
 10
1.979235551607234
 20
2.17442120841455
  0
LWPOLYLINE
  5
A7
100
AcDbEntity
  8
USP-GEO
100
AcDbPolyline
 90
        2
 70
   128
 43
0.0
 10
2.032227132640895
 20
2.17442120841455
 10
2.032227132640895
 20
2.068438046347228
  0
LWPOLYLINE
  5
A8
100
AcDbEntity
  8
USP-GEO
100
AcDbPolyline
 90
        2
 70
   128
 43
0.0
 10
2.032227132640895
 20
2.068438046347228
 10
1.979235551607234
 20
2.068438046347228
  0
LWPOLYLINE
  5
A9
100
AcDbEntity
  8
USP-GEO
100
AcDbPolyline
 90
        2
 70
   128
 43
0.0
 10
2.032227132640895
 20
2.068438046347228
 10
2.032227132640895
 20
1.944791023935353
  0
ARC
  5
AA
100
AcDbEntity
  8
USP-GEO
100
AcDbCircle
 10
2.078062976042251
 20
0.0931884794948648
 30
0.0
 40
0.09
100
AcDbArc
 50
182.820653511555
 51
263.5663877654639
  0
LWPOLYLINE
  5
AB
100
AcDbEntity
  8
USP-GEO
100
AcDbPolyline
 90
        2
 70
   128
 43
0.0
 10
2.032227132640895
 20
1.944791023935353
 10
2.032227132640895
 20
0.0883193017227662
  0
LWPOLYLINE
  5
AC
100
AcDbEntity
  8
USP-GEO
100
AcDbPolyline
 90
        2
 70
   128
 43
0.0
 10
2.067554853330002
 20
0.0
 10
4.50693396691286
 20
0.0
  0
ARC
  5
AD
100
AcDbEntity
  8
USP-GEO
100
AcDbCircle
 10
4.502062976042243
 20
0.0931884794948648
 30
0.0
 40
0.09
100
AcDbArc
 50
272.9921452052685
 51
357.009024607038
  0
ARC
  5
AE
100
AcDbEntity
  8
USP-GEO
100
AcDbCircle
 10
2.078062976042251
 20
0.0931884794948648
 30
0.0
 40
0.038
100
AcDbArc
 50
186.0638339756736
 51
255.3498026431051
  0
LWPOLYLINE
  5
AF
100
AcDbEntity
  8
USP-GEO
100
AcDbPolyline
 90
        2
 70
   128
 43
0.0
 10
2.067554853330002
 20
0.052991581033659
 10
4.50693396691286
 20
0.052991581033659
  0
ARC
  5
B0
100
AcDbEntity
  8
USP-GEO
100
AcDbCircle
 10
4.502062976042243
 20
0.0931884794948648
 30
0.0
 40
0.038
100
AcDbArc
 50
276.9093160226502
 51
353.093539452017
  0
LWPOLYLINE
  5
B1
100
AcDbEntity
  8
USP-GEO
100
AcDbPolyline
 90
        2
 70
   128
 43
0.0
 10
4.595253268635627
 20
0.0883193017227662
 10
4.595253268635627
 20
1.944791023935353
  0
LWPOLYLINE
  5
B2
100
AcDbEntity
  8
USP-GEO
100
AcDbPolyline
 90
        2
 70
   128
 43
0.0
 10
4.595253268635627
 20
2.068438046347228
 10
4.595253268635627
 20
1.944791023935353
  0
LWPOLYLINE
  5
B3
100
AcDbEntity
  8
USP-GEO
100
AcDbPolyline
 90
        2
 70
   128
 43
0.0
 10
4.595253268635627
 20
2.068438046347228
 10
4.595253268635627
 20
2.17442120841455
  0
LWPOLYLINE
  5
B4
100
AcDbEntity
  8
USP-GEO
100
AcDbPolyline
 90
        2
 70
   128
 43
0.0
 10
4.595253268635627
 20
2.17442120841455
 10
4.595253268635627
 20
5.321237928796781
  0
LWPOLYLINE
  5
B5
100
AcDbEntity
  8
USP-GEO
100
AcDbPolyline
 90
        2
 70
   128
 43
0.0
 10
4.595253268635627
 20
5.321237928796781
 10
4.595253268635627
 20
5.46254881155321
  0
LWPOLYLINE
  5
B6
100
AcDbEntity
  8
USP-GEO
100
AcDbPolyline
 90
        2
 70
   128
 43
0.0
 10
4.595253268635627
 20
7.743836375052312
 10
4.595253268635627
 20
5.46254881155321
  0
LWPOLYLINE
  5
B7
100
AcDbEntity
  8
USP-GEO
100
AcDbPolyline
 90
        2
 70
   128
 43
0.0
 10
4.595253268635627
 20
8.07944972159883
 10
4.595253268635627
 20
7.743836375052312
  0
LWPOLYLINE
  5
B8
100
AcDbEntity
  8
USP-GEO
100
AcDbPolyline
 90
        2
 70
   128
 43
0.0
 10
4.595253268635627
 20
8.07944972159883
 10
4.595253268635627
 20
9.104836814600169
  0
LWPOLYLINE
  5
B9
100
AcDbEntity
  8
USP-GEO
100
AcDbPolyline
 90
        2
 70
   128
 43
0.0
 10
4.595253268635627
 20
9.175492255978383
 10
4.595253268635627
 20
9.104836814600169
  0
LWPOLYLINE
  5
BA
100
AcDbEntity
  8
USP-GEO
100
AcDbPolyline
 90
        2
 70
   128
 43
0.0
 10
4.595253268635627
 20
9.175492255978383
 10
4.596136461652855
 20
9.175492255978383
  0
LWPOLYLINE
  5
BB
100
AcDbEntity
  8
USP-GEO
100
AcDbPolyline
 90
        2
 70
   128
 43
0.0
 10
4.595253268635627
 20
9.175492255978383
 10
4.630580989324735
 20
9.193156116322938
  0
LWPOLYLINE
  5
BC
100
AcDbEntity
  8
USP-GEO
100
AcDbPolyline
 90
        2
 70
   128
 43
0.0
 10
6.574488820242863
 20
9.51198879554213
 10
6.574488820242863
 20
9.175492255978383
  0
LWPOLYLINE
  5
BD
100
AcDbEntity
  8
USP-GEO
100
AcDbPolyline
 90
        2
 70
   128
 43
0.0
 10
4.665908710013842
 20
9.51198879554213
 10
4.665908710013842
 20
9.617971957609452
  0
LWPOLYLINE
  5
BE
100
AcDbEntity
  8
USP-GEO
100
AcDbPolyline
 90
        2
 70
   128
 43
0.0
 10
4.665908710013842
 20
9.617971957609452
 10
6.574488820242863
 20
9.617971957609452
  0
LWPOLYLINE
  5
BF
100
AcDbEntity
  8
USP-GEO
100
AcDbPolyline
 90
        2
 70
   128
 43
0.0
 10
6.574488820242863
 20
9.617971957609452
 10
6.574488820242863
 20
9.51198879554213
  0
LWPOLYLINE
  5
C0
100
AcDbEntity
  8
USP-GEO
100
AcDbPolyline
 90
        2
 70
   128
 43
0.0
 10
4.630580989324735
 20
2.068438046347228
 10
4.595253268635627
 20
2.068438046347228
  0
ARC
  5
C1
100
AcDbEntity
  8
USP-GEO
100
AcDbCircle
 10
4.59206297604246
 20
2.195813479494953
 30
0.0
 40
0.125
100
AcDbArc
 50
286.8251856634117
 51
350.4266395189505
  0
LWPOLYLINE
  5
C2
100
AcDbEntity
  8
USP-GEO
100
AcDbPolyline
 90
        2
 70
   128
 43
0.0
 10
4.542261687601967
 20
9.104836814600169
 10
4.542261687601967
 20
9.175492255978383
  0
LWPOLYLINE
  5
C3
100
AcDbEntity
  8
USP-GEO
100
AcDbPolyline
 90
        2
 70
   128
 43
0.0
 10
4.542261687601967
 20
8.07944972159883
 10
4.542261687601967
 20
9.104836814600169
  0
LWPOLYLINE
  5
C4
100
AcDbEntity
  8
USP-GEO
100
AcDbPolyline
 90
        2
 70
   128
 43
0.0
 10
4.542261687601967
 20
7.743836375052312
 10
4.542261687601967
 20
8.07944972159883
  0
LWPOLYLINE
  5
C5
100
AcDbEntity
  8
USP-GEO
100
AcDbPolyline
 90
        2
 70
   128
 43
0.0
 10
4.542261687601967
 20
5.46254881155321
 10
4.542261687601967
 20
7.743836375052312
  0
LWPOLYLINE
  5
C6
100
AcDbEntity
  8
USP-GEO
100
AcDbPolyline
 90
        2
 70
   128
 43
0.0
 10
4.542261687601967
 20
5.321237928796781
 10
4.542261687601967
 20
5.46254881155321
  0
LWPOLYLINE
  5
C7
100
AcDbEntity
  8
USP-GEO
100
AcDbPolyline
 90
        2
 70
   128
 43
0.0
 10
4.542261687601967
 20
2.17442120841455
 10
4.542261687601967
 20
5.321237928796781
  0
LWPOLYLINE
  5
C8
100
AcDbEntity
  8
USP-GEO
100
AcDbPolyline
 90
        2
 70
   128
 43
0.0
 10
4.542261687601967
 20
2.068438046347228
 10
4.542261687601967
 20
2.17442120841455
  0
LWPOLYLINE
  5
C9
100
AcDbEntity
  8
USP-GEO
100
AcDbPolyline
 90
        2
 70
   128
 43
0.0
 10
4.542261687601967
 20
1.944791023935353
 10
4.542261687601967
 20
2.068438046347228
  0
LWPOLYLINE
  5
CA
100
AcDbEntity
  8
USP-GEO
100
AcDbPolyline
 90
        2
 70
   128
 43
0.0
 10
4.542261687601967
 20
0.0883193017227662
 10
4.542261687601967
 20
1.944791023935353
  0
LWPOLYLINE
  5
CB
100
AcDbEntity
  8
USP-GEO
100
AcDbPolyline
 90
        2
 70
   128
 43
0.0
 10
4.542261687601967
 20
9.193156116322938
 10
4.542261687601967
 20
9.175492255978383
  0
LWPOLYLINE
  5
CC
100
AcDbEntity
  8
USP-GEO
100
AcDbPolyline
 90
        2
 70
   128
 43
0.0
 10
4.542261687601967
 20
9.175492255978383
 10
4.543144880619194
 20
9.175492255978383
  0
LWPOLYLINE
  5
CD
100
AcDbEntity
  8
USP-GEO
100
AcDbPolyline
 90
        2
 70
   128
 43
0.0
 10
2.032227132640895
 20
9.193156116322938
 10
1.979235551607234
 20
9.193156116322938
  0
LWPOLYLINE
  5
CE
100
AcDbEntity
  8
USP-GEO
100
AcDbPolyline
 90
        2
 70
   128
 43
0.0
 10
2.032227132640895
 20
9.175492255978383
 10
2.032227132640895
 20
9.104836814600169
  0
LWPOLYLINE
  5
CF
100
AcDbEntity
  8
USP-GEO
100
AcDbPolyline
 90
        2
 70
   128
 43
0.0
 10
2.032227132640895
 20
9.175492255978383
 10
2.032227132640895
 20
9.193156116322938
  0
LWPOLYLINE
  5
D0
100
AcDbEntity
  8
USP-GEO
100
AcDbPolyline
 90
        2
 70
   128
 43
0.0
 10
2.032227132640895
 20
9.175492255978383
 10
2.033110325658122
 20
9.175492255978383
  0
LWPOLYLINE
  5
D1
100
AcDbEntity
  8
USP-GEO
100
AcDbPolyline
 90
        2
 70
   128
 43
0.0
 10
1.979235551607234
 20
9.104836814600169
 10
1.979235551607234
 20
9.175492255978383
  0
LWPOLYLINE
  5
D2
100
AcDbEntity
  8
USP-GEO
100
AcDbPolyline
 90
        2
 70
   128
 43
0.0
 10
1.979235551607234
 20
8.07944972159883
 10
1.979235551607234
 20
9.104836814600169
  0
LWPOLYLINE
  5
D3
100
AcDbEntity
  8
USP-GEO
100
AcDbPolyline
 90
        2
 70
   128
 43
0.0
 10
1.979235551607234
 20
7.743836375052312
 10
1.979235551607234
 20
8.07944972159883
  0
LWPOLYLINE
  5
D4
100
AcDbEntity
  8
USP-GEO
100
AcDbPolyline
 90
        2
 70
   128
 43
0.0
 10
1.979235551607234
 20
7.743836375052312
 10
1.979235551607234
 20
5.46254881155321
  0
LWPOLYLINE
  5
D5
100
AcDbEntity
  8
USP-GEO
100
AcDbPolyline
 90
        2
 70
   128
 43
0.0
 10
1.979235551607234
 20
5.46254881155321
 10
1.979235551607234
 20
5.321237928796781
  0
LWPOLYLINE
  5
D6
100
AcDbEntity
  8
USP-GEO
100
AcDbPolyline
 90
        2
 70
   128
 43
0.0
 10
1.979235551607234
 20
2.17442120841455
 10
1.979235551607234
 20
5.321237928796781
  0
LWPOLYLINE
  5
D7
100
AcDbEntity
  8
USP-GEO
100
AcDbPolyline
 90
        2
 70
   128
 43
0.0
 10
1.979235551607234
 20
2.17442120841455
 10
1.979235551607234
 20
2.068438046347228
  0
LWPOLYLINE
  5
D8
100
AcDbEntity
  8
USP-GEO
100
AcDbPolyline
 90
        2
 70
   128
 43
0.0
 10
1.979235551607234
 20
1.944791023935353
 10
1.979235551607234
 20
2.068438046347228
  0
LWPOLYLINE
  5
D9
100
AcDbEntity
  8
USP-GEO
100
AcDbPolyline
 90
        2
 70
   128
 43
0.0
 10
1.979235551607234
 20
1.944791023935353
 10
1.979235551607234
 20
0.0883193017227662
  0
LWPOLYLINE
  5
DA
100
AcDbEntity
  8
USP-GEO
100
AcDbPolyline
 90
        2
 70
   128
 43
0.0
 10
1.979235551607234
 20
9.175492255978383
 10
1.980118744624461
 20
9.175492255978383
  0
LWPOLYLINE
  5
DB
100
AcDbEntity
  8
USP-GEO
100
AcDbPolyline
 90
        2
 70
   128
 43
0.0
 10
1.979235551607234
 20
2.068438046347228
 10
1.943907830918127
 20
2.068438046347228
  0
LWPOLYLINE
  5
DC
100
AcDbEntity
  8
USP-GEO
100
AcDbPolyline
 90
        2
 70
   128
 43
0.0
 10
1.943907830918127
 20
9.193156116322938
 10
1.979235551607234
 20
9.175492255978383
  0
ARC
  5
DD
100
AcDbEntity
  8
USP-GEO
100
AcDbCircle
 10
2.022880314963477
 20
9.286072417998321
 30
0.0
 40
0.1058839385034389
100
AcDbArc
 50
182.3031176548251
 51
244.8395573709592
  0
LWPOLYLINE
  5
DE
100
AcDbEntity
  8
USP-GEO
100
AcDbPolyline
 90
        2
 70
   128
 43
0.0
 10
1.979235551607234
 20
9.193156116322938
 10
1.943907830918127
 20
9.193156116322938
  0
ARC
  5
DF
100
AcDbEntity
  8
USP-GEO
100
AcDbCircle
 10
1.988062976042262
 20
2.195813479494882
 30
0.0
 40
0.125
100
AcDbArc
 50
189.1730642542034
 51
250.880944960122
  0
LWPOLYLINE
  5
E0
100
AcDbEntity
  8
USP-GEO
100
AcDbPolyline
 90
        2
 70
   128
 43
0.0
 10
1.855588529195359
 20
2.17442120841455
 10
1.255017277480535
 20
5.321237928796781
  0
ARC
  5
E1
100
AcDbEntity
  8
USP-GEO
100
AcDbCircle
 10
1.98806297604229
 20
5.458350328193512
 30
0.0
 40
0.75
100
AcDbArc
 50
179.6795659972384
 51
190.5944589383145
  0
LWPOLYLINE
  5
E2
100
AcDbEntity
  8
USP-GEO
100
AcDbPolyline
 90
        2
 70
   128
 43
0.0
 10
1.237353417135982
 20
7.743836375052312
 10
1.237353417135982
 20
5.46254881155321
  0
ARC
  5
E3
100
AcDbEntity
  8
USP-GEO
100
AcDbCircle
 10
0.7380629760422908
 20
7.747411334568733
 30
0.0
 40
0.5
100
AcDbArc
 50
359.5897646436893
 51
41.47407968287853
  0
LWPOLYLINE
  5
E4
100
AcDbEntity
  8
USP-GEO
100
AcDbPolyline
 90
        2
 70
   128
 43
0.0
 10
1.113706394724105
 20
8.07944972159883
 10
0.211966324134643
 20
9.104836814600169
  0
ARC
  5
E5
100
AcDbEntity
  8
USP-GEO
100
AcDbCircle
 10
0.0228803149634773
 20
8.930188479494882
 30
0.0
 40
0.25
100
AcDbArc
 50
42.7269571088481
 51
91.2182274470339
  0
ARC
  5
E6
100
AcDbEntity
  8
USP-GEO
100
AcDbCircle
 10
0.0228803149634773
 20
9.286072417998321
 30
0.0
 40
0.1058839385034389
100
AcDbArc
 50
258.3098056507763
 51
267.2991590902859
  0
LWPOLYLINE
  5
E7
100
AcDbEntity
  8
USP-GEO
100
AcDbPolyline
 90
        2
 70
   128
 43
0.0
 10
0.0
 20
9.51198879554213
 10
0.0
 20
9.175492255978383
  0
LWPOLYLINE
  5
E8
100
AcDbEntity
  8
USP-GEO
100
AcDbPolyline
 90
        2
 70
   128
 43
0.0
 10
1.5729667636825
 20
4.720666677081958
 10
1.678949925749821
 20
4.844313699493833
  0
LWPOLYLINE
  5
E9
100
AcDbEntity
  8
USP-GEO
100
AcDbPolyline
 90
        2
 70
   128
 43
0.0
 10
1.678949925749821
 20
4.613800321997407
 10
1.5729667636825
 20
4.720666677081958
  0
LWPOLYLINE
  5
EA
100
AcDbEntity
  8
USP-GEO
100
AcDbPolyline
 90
        2
 70
   128
 43
0.0
 10
1.784933087817145
 20
4.720666677081958
 10
1.678949925749821
 20
4.613800321997407
  0
LWPOLYLINE
  5
EB
100
AcDbEntity
  8
USP-GEO
100
AcDbPolyline
 90
        2
 70
   128
 43
0.0
 10
1.678949925749821
 20
4.844313699493833
 10
1.784933087817145
 20
4.720666677081958
  0
CIRCLE
  5
EC
100
AcDbEntity
  8
USP-GEO
100
AcDbCircle
 10
1.541996376460038
 20
8.555188479494882
 30
0.0
 40
0.09
  0
LWPOLYLINE
  5
ED
100
AcDbEntity
  8
USP-GEO
100
AcDbPolyline
 90
        2
 70
   128
 43
0.0
 10
1.90858011022902
 20
9.51198879554213
 10
1.90858011022902
 20
9.281475418045705
  0
LWPOLYLINE
  5
EE
100
AcDbEntity
  8
USP-GEO
100
AcDbPolyline
 90
        2
 70
   128
 43
0.0
 10
0.0
 20
9.617971957609452
 10
1.90858011022902
 20
9.617971957609452
  0
LWPOLYLINE
  5
EF
100
AcDbEntity
  8
USP-GEO
100
AcDbPolyline
 90
        2
 70
   128
 43
0.0
 10
1.90858011022902
 20
9.617971957609452
 10
1.90858011022902
 20
9.51198879554213
  0
LWPOLYLINE
  5
F0
100
AcDbEntity
  8
USP-GEO
100
AcDbPolyline
 90
        2
 70
   128
 43
0.0
 10
0.0
 20
9.51198879554213
 10
0.0
 20
9.617971957609452
  0
LWPOLYLINE
  5
F1
100
AcDbEntity
  8
USP-GEO
100
AcDbPolyline
 90
        2
 70
   128
 43
0.0
 10
1.890916249884466
 20
1.484647461959731
 10
1.784933087817145
 20
1.37866429989241
  0
LWPOLYLINE
  5
F2
100
AcDbEntity
  8
USP-GEO
100
AcDbPolyline
 90
        2
 70
   128
 43
0.0
 10
4.683572570358395
 20
1.484647461959731
 10
4.80721959277027
 20
1.37866429989241
  0
LWPOLYLINE
  5
F3
100
AcDbEntity
  8
USP-GEO
100
AcDbPolyline
 90
        2
 70
   128
 43
0.0
 10
2.085218713674556
 20
0.8655291568831273
 10
2.191201875741877
 20
0.7948737155049113
  0
LWPOLYLINE
  5
F4
100
AcDbEntity
  8
USP-GEO
100
AcDbPolyline
 90
        2
 70
   128
 43
0.0
 10
2.032227132640895
 20
0.8831930172276809
 10
2.085218713674556
 20
0.8655291568831273
  0
LWPOLYLINE
  5
F5
100
AcDbEntity
  8
USP-GEO
100
AcDbPolyline
 90
        2
 70
   128
 43
0.0
 10
2.049890992985448
 20
0.8125375758494648
 10
2.085218713674556
 20
0.8655291568831273
  0
LWPOLYLINE
  5
F6
100
AcDbEntity
  8
USP-GEO
100
AcDbPolyline
 90
        2
 70
   128
 43
0.0
 10
2.173538015397324
 20
0.7418821344712505
 10
2.191201875741877
 20
0.7948737155049113
  0
LWPOLYLINE
  5
F7
100
AcDbEntity
  8
USP-GEO
100
AcDbPolyline
 90
        2
 70
   128
 43
0.0
 10
2.049890992985448
 20
0.8125375758494648
 10
2.032227132640895
 20
0.8302014361940184
  0
LWPOLYLINE
  5
F8
100
AcDbEntity
  8
USP-GEO
100
AcDbPolyline
 90
        2
 70
   128
 43
0.0
 10
2.173538015397324
 20
0.7418821344712505
 10
2.049890992985448
 20
0.8125375758494648
  0
LWPOLYLINE
  5
F9
100
AcDbEntity
  8
USP-GEO
100
AcDbPolyline
 90
        2
 70
   128
 43
0.0
 10
4.489270106568306
 20
0.8655291568831273
 10
4.383286944500984
 20
0.7948737155049113
  0
LWPOLYLINE
  5
FA
100
AcDbEntity
  8
USP-GEO
100
AcDbPolyline
 90
        2
 70
   128
 43
0.0
 10
4.418614665190092
 20
0.7418821344712505
 10
4.524597827257413
 20
0.8125375758494648
  0
LWPOLYLINE
  5
FB
100
AcDbEntity
  8
USP-GEO
100
AcDbPolyline
 90
        2
 70
   128
 43
0.0
 10
4.418614665190092
 20
0.7418821344712505
 10
4.383286944500984
 20
0.7948737155049113
  0
LWPOLYLINE
  5
FC
100
AcDbEntity
  8
USP-GEO
100
AcDbPolyline
 90
        2
 70
   128
 43
0.0
 10
4.524597827257413
 20
0.8125375758494648
 10
4.542261687601967
 20
0.8302014361940184
  0
LWPOLYLINE
  5
FD
100
AcDbEntity
  8
USP-GEO
100
AcDbPolyline
 90
        2
 70
   128
 43
0.0
 10
4.524597827257413
 20
0.8125375758494648
 10
4.489270106568306
 20
0.8655291568831273
  0
LWPOLYLINE
  5
FE
100
AcDbEntity
  8
USP-GEO
100
AcDbPolyline
 90
        2
 70
   128
 43
0.0
 10
4.542261687601967
 20
0.8831930172276809
 10
4.489270106568306
 20
0.8655291568831273
  0
ARC
  5
FF
100
AcDbEntity
  8
USP-GEO
100
AcDbCircle
 10
4.54006297604224
 20
1.226438479494882
 30
0.0
 40
0.3020000000000022
100
AcDbArc
 50
60.93519608067119
 51
79.3516556752709
  0
ARC
  5
100
100
AcDbEntity
  8
USP-GEO
100
AcDbCircle
 10
4.54006297604224
 20
1.226438479494882
 30
0.0
 40
0.3020000000000021
100
AcDbArc
 50
280.1902491920293
 51
29.67448715469835
  0
ARC
  5
101
100
AcDbEntity
  8
USP-GEO
100
AcDbCircle
 10
2.040062976042254
 20
1.226438479494996
 30
0.0
 40
0.3020000000000022
100
AcDbArc
 50
101.7072796686724
 51
120.0115984099
  0
ARC
  5
102
100
AcDbEntity
  8
USP-GEO
100
AcDbCircle
 10
2.040062976042254
 20
1.226438479494996
 30
0.0
 40
0.3020000000000021
100
AcDbArc
 50
149.1771590005908
 51
258.7940838816109
  0
TEXT
  5
103
100
AcDbEntity
  8
USP-TXT
100
AcDbText
 10
0.7872444101214322
 20
-0.7655120240219997
 30
0.0
 40
0.25
  1
TFL2595 - FRONT VIEW
 72
     1
 11
3.287244410121431
 21
-0.7655120240219997
 31
0.0
100
AcDbText
  0
ENDBLK
  5
105
100
AcDbEntity
  8
0
100
AcDbBlockEnd
  0
BLOCK
  5
150
100
AcDbEntity
  8
0
100
AcDbBlockBegin
  2
TFL2595PR_S
 70
     0
 10
0.0
 20
0.0
 30
0.0
  3
TFL2595PR_S
  1

  0
LWPOLYLINE
  5
108
100
AcDbEntity
  8
USP-GEO
100
AcDbPolyline
 90
        2
 70
   128
 43
0.0
 10
1.996899411951787
 20
0.052991581033659
 10
0.0
 20
0.052991581033659
  0
LWPOLYLINE
  5
109
100
AcDbEntity
  8
USP-GEO
100
AcDbPolyline
 90
        2
 70
   128
 43
0.0
 10
2.155874155052771
 20
9.175492255978383
 10
2.156757348069998
 20
9.175492255978383
  0
LWPOLYLINE
  5
10A
100
AcDbEntity
  8
USP-GEO
100
AcDbPolyline
 90
        2
 70
   128
 43
0.0
 10
2.155874155052771
 20
9.175492255978383
 10
2.155874155052771
 20
9.104836814600169
  0
LWPOLYLINE
  5
10B
100
AcDbEntity
  8
USP-GEO
100
AcDbPolyline
 90
        2
 70
   128
 43
0.0
 10
2.155874155052771
 20
8.07944972159883
 10
2.155874155052771
 20
9.104836814600169
  0
LWPOLYLINE
  5
10C
100
AcDbEntity
  8
USP-GEO
100
AcDbPolyline
 90
        2
 70
   128
 43
0.0
 10
2.155874155052771
 20
8.07944972159883
 10
2.155874155052771
 20
7.743836375052312
  0
LWPOLYLINE
  5
10D
100
AcDbEntity
  8
USP-GEO
100
AcDbPolyline
 90
        2
 70
   128
 43
0.0
 10
2.155874155052771
 20
7.743836375052312
 10
2.155874155052771
 20
5.46254881155321
  0
LWPOLYLINE
  5
10E
100
AcDbEntity
  8
USP-GEO
100
AcDbPolyline
 90
        2
 70
   128
 43
0.0
 10
2.155874155052771
 20
5.321237928796781
 10
2.155874155052771
 20
5.46254881155321
  0
LWPOLYLINE
  5
10F
100
AcDbEntity
  8
USP-GEO
100
AcDbPolyline
 90
        2
 70
   128
 43
0.0
 10
2.155874155052771
 20
2.17442120841455
 10
2.155874155052771
 20
5.321237928796781
  0
LWPOLYLINE
  5
110
100
AcDbEntity
  8
USP-GEO
100
AcDbPolyline
 90
        2
 70
   128
 43
0.0
 10
1.996899411951787
 20
0.0
 10
0.0
 20
0.0
  0
LWPOLYLINE
  5
111
100
AcDbEntity
  8
USP-GEO
100
AcDbPolyline
 90
        2
 70
   128
 43
0.0
 10
0.0
 20
0.0
 10
0.0
 20
0.0883193017227662
  0
LWPOLYLINE
  5
112
100
AcDbEntity
  8
USP-GEO
100
AcDbPolyline
 90
        2
 70
   128
 43
0.0
 10
1.996899411951787
 20
0.0883193017227662
 10
1.996899411951787
 20
0.0
  0
CIRCLE
  5
113
100
AcDbEntity
  8
USP-GEO
100
AcDbCircle
 10
1.399332958690902
 20
7.55518847949491
 30
0.0
 40
0.15625
  0
LWPOLYLINE
  5
114
100
AcDbEntity
  8
USP-GEO
100
AcDbPolyline
 90
        2
 70
   128
 43
0.0
 10
1.502311322304286
 20
3.606077089340622
 10
1.608294484371608
 20
3.730607304769726
  0
LWPOLYLINE
  5
115
100
AcDbEntity
  8
USP-GEO
100
AcDbPolyline
 90
        2
 70
   128
 43
0.0
 10
1.608294484371608
 20
3.500093927273301
 10
1.502311322304286
 20
3.606077089340622
  0
LWPOLYLINE
  5
116
100
AcDbEntity
  8
USP-GEO
100
AcDbPolyline
 90
        2
 70
   128
 43
0.0
 10
1.714277646438929
 20
3.606077089340622
 10
1.608294484371608
 20
3.500093927273301
  0
LWPOLYLINE
  5
117
100
AcDbEntity
  8
USP-GEO
100
AcDbPolyline
 90
        2
 70
   128
 43
0.0
 10
1.608294484371608
 20
3.730607304769726
 10
1.714277646438929
 20
3.606077089340622
  0
LWPOLYLINE
  5
118
100
AcDbEntity
  8
USP-GEO
100
AcDbPolyline
 90
        2
 70
   128
 43
0.0
 10
0.9891761792950042
 20
0.8831930172276809
 10
1.255017277480533
 20
0.8831930172276809
  0
LWPOLYLINE
  5
119
100
AcDbEntity
  8
USP-GEO
100
AcDbPolyline
 90
        2
 70
   128
 43
0.0
 10
1.996899411951787
 20
0.0883193017227662
 10
1.996899411951787
 20
1.944791023935353
  0
LWPOLYLINE
  5
11A
100
AcDbEntity
  8
USP-GEO
100
AcDbPolyline
 90
        2
 70
   128
 43
0.0
 10
0.0
 20
0.0883193017227662
 10
0.0
 20
1.944791023935353
  0
ARC
  5
11B
100
AcDbEntity
  8
USP-GEO
100
AcDbCircle
 10
0.126649558273126
 20
1.945813479494896
 30
0.0
 40
0.125
100
AcDbArc
 50
91.40264115957087
 51
180.4625449661745
  0
LWPOLYLINE
  5
11C
100
AcDbEntity
  8
USP-GEO
100
AcDbPolyline
 90
        2
 70
   128
 43
0.0
 10
0.1413108827564287
 20
2.068438046347228
 10
0.1236470224118733
 20
2.068438046347228
  0
ARC
  5
11D
100
AcDbEntity
  8
USP-GEO
100
AcDbCircle
 10
0.149332958690902
 20
2.195813479494896
 30
0.0
 40
0.125
100
AcDbArc
 50
266.3962844069402
 51
349.5179884223155
  0
LWPOLYLINE
  5
11E
100
AcDbEntity
  8
USP-GEO
100
AcDbPolyline
 90
        2
 70
   128
 43
0.0
 10
0.264957905168302
 20
2.17442120841455
 10
0.8831930172276791
 20
5.321237928796781
  0
ARC
  5
11F
100
AcDbEntity
  8
USP-GEO
100
AcDbCircle
 10
0.1493329586908736
 20
5.458350328193498
 30
0.0
 40
0.75
100
AcDbArc
 50
349.4170319444009
 51
0.3200867840147068
  0
LWPOLYLINE
  5
120
100
AcDbEntity
  8
USP-GEO
100
AcDbPolyline
 90
        2
 70
   128
 43
0.0
 10
0.9008568775722345
 20
7.743836375052312
 10
0.9008568775722345
 20
5.46254881155321
  0
ARC
  5
121
100
AcDbEntity
  8
USP-GEO
100
AcDbCircle
 10
1.399332958690902
 20
7.747411334568761
 30
0.0
 40
0.5
100
AcDbArc
 50
138.4642090794244
 51
180.4109055345263
  0
LWPOLYLINE
  5
122
100
AcDbEntity
  8
USP-GEO
100
AcDbPolyline
 90
        2
 70
   128
 43
0.0
 10
1.024503899984111
 20
8.07944972159883
 10
1.926243970573572
 20
9.104836814600169
  0
ARC
  5
123
100
AcDbEntity
  8
USP-GEO
100
AcDbCircle
 10
2.114515619769687
 20
8.93018847949491
 30
0.0
 40
0.25
100
AcDbArc
 50
88.59166199737222
 51
137.1497633469169
  0
LWPOLYLINE
  5
124
100
AcDbEntity
  8
USP-GEO
100
AcDbPolyline
 90
        2
 70
   128
 43
0.0
 10
2.120546434363664
 20
9.175492255978383
 10
2.121429627380891
 20
9.175492255978383
  0
LWPOLYLINE
  5
125
100
AcDbEntity
  8
USP-GEO
100
AcDbPolyline
 90
        2
 70
   128
 43
0.0
 10
2.120546434363664
 20
9.175492255978383
 10
2.155874155052771
 20
9.193156116322938
  0
LWPOLYLINE
  5
126
100
AcDbEntity
  8
USP-GEO
100
AcDbPolyline
 90
        2
 70
   128
 43
0.0
 10
3.711177058390717
 20
9.564980376575793
 10
3.711177058390717
 20
9.617971957609452
  0
LWPOLYLINE
  5
127
100
AcDbEntity
  8
USP-GEO
100
AcDbPolyline
 90
        2
 70
   128
 43
0.0
 10
3.711177058390717
 20
9.564980376575793
 10
2.244193456775537
 20
9.564980376575793
  0
ARC
  5
128
100
AcDbEntity
  8
USP-GEO
100
AcDbCircle
 10
2.239332958690905
 20
9.517188479494985
 30
0.0
 40
0.038
100
AcDbArc
 50
84.19291099407599
 51
189.6850643331817
  0
LWPOLYLINE
  5
129
100
AcDbEntity
  8
USP-GEO
100
AcDbPolyline
 90
        2
 70
   128
 43
0.0
 10
2.20886573608643
 20
9.175492255978383
 10
2.155874155052771
 20
9.175492255978383
  0
LWPOLYLINE
  5
12A
100
AcDbEntity
  8
USP-GEO
100
AcDbPolyline
 90
        2
 70
   128
 43
0.0
 10
2.155874155052771
 20
9.51198879554213
 10
2.155874155052771
 20
9.175492255978383
  0
LWPOLYLINE
  5
12B
100
AcDbEntity
  8
USP-GEO
100
AcDbPolyline
 90
        2
 70
   128
 43
0.0
 10
3.711177058390717
 20
9.617971957609452
 10
2.244193456775537
 20
9.617971957609452
  0
ARC
  5
12C
100
AcDbEntity
  8
USP-GEO
100
AcDbCircle
 10
2.239332958690905
 20
9.51718847949497
 30
0.0
 40
0.09
100
AcDbArc
 50
87.23892818115968
 51
183.5650567700231
  0
LWPOLYLINE
  5
12D
100
AcDbEntity
  8
USP-GEO
100
AcDbPolyline
 90
        2
 70
   128
 43
0.0
 10
2.20886573608643
 20
5.321237928796781
 10
2.20886573608643
 20
2.17442120841455
  0
LWPOLYLINE
  5
12E
100
AcDbEntity
  8
USP-GEO
100
AcDbPolyline
 90
        2
 70
   128
 43
0.0
 10
2.20886573608643
 20
5.46254881155321
 10
2.20886573608643
 20
5.321237928796781
  0
LWPOLYLINE
  5
12F
100
AcDbEntity
  8
USP-GEO
100
AcDbPolyline
 90
        2
 70
   128
 43
0.0
 10
2.20886573608643
 20
7.743836375052312
 10
2.20886573608643
 20
5.46254881155321
  0
LWPOLYLINE
  5
130
100
AcDbEntity
  8
USP-GEO
100
AcDbPolyline
 90
        2
 70
   128
 43
0.0
 10
2.20886573608643
 20
8.07944972159883
 10
2.20886573608643
 20
7.743836375052312
  0
LWPOLYLINE
  5
131
100
AcDbEntity
  8
USP-GEO
100
AcDbPolyline
 90
        2
 70
   128
 43
0.0
 10
2.20886573608643
 20
9.104836814600169
 10
2.20886573608643
 20
8.07944972159883
  0
LWPOLYLINE
  5
132
100
AcDbEntity
  8
USP-GEO
100
AcDbPolyline
 90
        2
 70
   128
 43
0.0
 10
2.20886573608643
 20
9.175492255978383
 10
2.20886573608643
 20
9.104836814600169
  0
LWPOLYLINE
  5
133
100
AcDbEntity
  8
USP-GEO
100
AcDbPolyline
 90
        2
 70
   128
 43
0.0
 10
2.20886573608643
 20
9.175492255978383
 10
2.209748929103657
 20
9.175492255978383
  0
LWPOLYLINE
  5
134
100
AcDbEntity
  8
USP-GEO
100
AcDbPolyline
 90
        2
 70
   128
 43
0.0
 10
2.20886573608643
 20
9.51198879554213
 10
2.20886573608643
 20
9.175492255978383
  0
LWPOLYLINE
  5
135
100
AcDbEntity
  8
USP-GEO
100
AcDbPolyline
 90
        2
 70
   128
 43
0.0
 10
2.120546434363664
 20
2.068438046347228
 10
2.121429627380891
 20
2.068438046347228
  0
LWPOLYLINE
  5
136
100
AcDbEntity
  8
USP-GEO
100
AcDbPolyline
 90
        2
 70
   128
 43
0.0
 10
2.155874155052771
 20
2.068438046347228
 10
2.120546434363664
 20
2.068438046347228
  0
LWPOLYLINE
  5
137
100
AcDbEntity
  8
USP-GEO
100
AcDbPolyline
 90
        2
 70
   128
 43
0.0
 10
2.155874155052771
 20
2.068438046347228
 10
2.155874155052771
 20
2.17442120841455
  0
LWPOLYLINE
  5
138
100
AcDbEntity
  8
USP-GEO
100
AcDbPolyline
 90
        2
 70
   128
 43
0.0
 10
2.20886573608643
 20
2.17442120841455
 10
2.155874155052771
 20
2.17442120841455
  0
LWPOLYLINE
  5
139
100
AcDbEntity
  8
USP-GEO
100
AcDbPolyline
 90
        2
 70
   128
 43
0.0
 10
2.20886573608643
 20
2.17442120841455
 10
2.20886573608643
 20
2.068438046347228
  0
LWPOLYLINE
  5
13A
100
AcDbEntity
  8
USP-GEO
100
AcDbPolyline
 90
        2
 70
   128
 43
0.0
 10
2.191201875741878
 20
2.068438046347228
 10
2.120546434363664
 20
2.068438046347228
  0
ARC
  5
13B
100
AcDbEntity
  8
USP-GEO
100
AcDbCircle
 10
2.126649558273125
 20
1.945813479494896
 30
0.0
 40
0.125
100
AcDbArc
 50
92.84930615342696
 51
180.4514921747957
  0
LWPOLYLINE
  5
13C
100
AcDbEntity
  8
USP-GEO
100
AcDbPolyline
 90
        2
 70
   128
 43
0.0
 10
2.191201875741878
 20
2.068438046347228
 10
2.20886573608643
 20
2.068438046347228
  0
ARC
  5
13D
100
AcDbEntity
  8
USP-GEO
100
AcDbCircle
 10
0.3163684227187922
 20
1.226438479494996
 30
0.0
 40
0.25
100
AcDbArc
 50
37.85164209724162
 51
55.1506803044902
  0
ELLIPSE
  5
13E
100
AcDbEntity
  8
USP-GEO
  6
CONTINUOUS
100
AcDbEllipse
 10
0.5038684227188206
 20
1.394390853696615
 30
0.0
 11
-0.078000000000003
 21
0.0000000000000032
 31
0.0
210
0.0
220
0.0
230
1.0
 40
0.7071067811865476
 41
3.478905250087362
 42
5.949380751677516
1001
ACAD
1000
RTLwPs
1070
   128
  0
CIRCLE
  5
13F
100
AcDbEntity
  8
USP-GEO
100
AcDbCircle
 10
0.5038684227188206
 20
1.226438479494882
 30
0.0
 40
0.2974894956128713
  0
ELLIPSE
  5
140
100
AcDbEntity
  8
USP-GEO
  6
CONTINUOUS
100
AcDbEllipse
 10
0.5038684227188206
 20
1.432739230826522
 30
0.0
 11
-0.078000000000003
 21
0.0000000000000028
 31
0.0
210
0.0
220
0.0
230
1.0
 40
0.7071067811865476
 41
4.826281875967445
 42
6.606775640154964
1001
ACAD
1000
RTLwPs
1070
   128
  0
ELLIPSE
  5
141
100
AcDbEntity
  8
USP-GEO
  6
CONTINUOUS
100
AcDbEllipse
 10
0.5038684227188206
 20
1.432739230826522
 30
0.0
 11
-0.078000000000003
 21
0.0000000000000028
 31
0.0
210
0.0
220
0.0
230
1.0
 40
0.7071067811865476
 41
0.320255745995232
 42
0.697957475330226
1001
ACAD
1000
RTLwPs
1070
   128
  0
ELLIPSE
  5
142
100
AcDbEntity
  8
USP-GEO
  6
CONTINUOUS
100
AcDbEllipse
 10
0.5038684227188206
 20
1.432739230826522
 30
0.0
 11
-0.078000000000003
 21
0.0000000000000028
 31
0.0
210
0.0
220
0.0
230
1.0
 40
0.7071067811865476
 41
0.690933185634301
 42
1.461429895206033
1001
ACAD
1000
RTLwPs
1070
   128
  0
ELLIPSE
  5
143
100
AcDbEntity
  8
USP-GEO
  6
CONTINUOUS
100
AcDbEllipse
 10
0.5038684227188206
 20
1.432739230826522
 30
0.0
 11
-0.078000000000003
 21
0.0000000000000028
 31
0.0
210
0.0
220
0.0
230
1.0
 40
0.7071067811865476
 41
3.97814649915226
 42
4.83814089501524
1001
ACAD
1000
RTLwPs
1070
   128
  0
ELLIPSE
  5
144
100
AcDbEntity
  8
USP-GEO
  6
CONTINUOUS
100
AcDbEllipse
 10
0.5038684227188206
 20
1.432739230826522
 30
0.0
 11
-0.078000000000003
 21
0.0000000000000028
 31
0.0
210
0.0
220
0.0
230
1.0
 40
0.7071067811865476
 41
1.450033250250766
 42
2.098723428600891
1001
ACAD
1000
RTLwPs
1070
   128
  0
ELLIPSE
  5
145
100
AcDbEntity
  8
USP-GEO
  6
CONTINUOUS
100
AcDbEllipse
 10
0.5038684227188206
 20
1.432739230826522
 30
0.0
 11
-0.078000000000003
 21
0.0000000000000028
 31
0.0
210
0.0
220
0.0
230
1.0
 40
0.7071067811865476
 41
2.450552097819124
 42
8.373247063516732
1001
ACAD
1000
RTLwPs
1070
   128
  0
ELLIPSE
  5
146
100
AcDbEntity
  8
USP-GEO
  6
CONTINUOUS
100
AcDbEllipse
 10
0.5038684227188206
 20
1.432739230826522
 30
0.0
 11
-0.078000000000003
 21
0.0000000000000028
 31
0.0
210
0.0
220
0.0
230
1.0
 40
0.7071067811865476
 41
2.817950399761112
 42
8.72671128872974
1001
ACAD
1000
RTLwPs
1070
   128
  0
ELLIPSE
  5
147
100
AcDbEntity
  8
USP-GEO
  6
CONTINUOUS
100
AcDbEllipse
 10
0.5038684227188206
 20
1.432739230826522
 30
0.0
 11
-0.078000000000003
 21
0.0000000000000028
 31
0.0
210
0.0
220
0.0
230
1.0
 40
0.7071067811865476
 41
2.821286014719833
 42
3.968187413957456
1001
ACAD
1000
RTLwPs
1070
   128
  0
LWPOLYLINE
  5
148
100
AcDbEntity
  8
USP-GEO
100
AcDbPolyline
 90
        2
 70
   128
 43
0.0
 10
1.255017277480533
 20
0.8302014361940184
 10
1.130487062051432
 20
0.7065544137821434
  0
LWPOLYLINE
  5
149
100
AcDbEntity
  8
USP-GEO
100
AcDbPolyline
 90
        2
 70
   128
 43
0.0
 10
1.255017277480533
 20
0.8831930172276809
 10
1.255017277480533
 20
0.8302014361940184
  0
LWPOLYLINE
  5
14A
100
AcDbEntity
  8
USP-GEO
100
AcDbPolyline
 90
        2
 70
   128
 43
0.0
 10
0.9891761792950042
 20
0.8302014361940184
 10
0.9891761792950042
 20
0.8831930172276809
  0
LWPOLYLINE
  5
14B
100
AcDbEntity
  8
USP-GEO
100
AcDbPolyline
 90
        2
 70
   128
 43
0.0
 10
1.130487062051432
 20
0.7065544137821434
 10
0.9891761792950042
 20
0.8302014361940184
  0
LWPOLYLINE
  5
14C
100
AcDbEntity
  8
USP-GEO
100
AcDbPolyline
 90
        2
 70
   128
 43
0.0
 10
1.130487062051432
 20
0.7418821344712505
 10
1.042167760328663
 20
0.7948737155049113
  0
LWPOLYLINE
  5
14D
100
AcDbEntity
  8
USP-GEO
100
AcDbPolyline
 90
        2
 70
   128
 43
0.0
 10
0.9891761792950042
 20
0.847865296538572
 10
1.255017277480533
 20
0.847865296538572
  0
LWPOLYLINE
  5
14E
100
AcDbEntity
  8
USP-GEO
100
AcDbPolyline
 90
        2
 70
   128
 43
0.0
 10
1.219689556791426
 20
0.7948737155049113
 10
1.130487062051432
 20
0.7418821344712505
  0
TEXT
  5
14F
100
AcDbEntity
  8
USP-TXT
100
AcDbText
 10
-0.4777448041379744
 20
-0.7655120240219997
 30
0.0
 40
0.25
  1
TFL2595 - SIDE VIEW
 72
     1
 11
1.855588529195358
 21
-0.7655120240219997
 31
0.0
100
AcDbText
  0
ENDBLK
  5
151
100
AcDbEntity
  8
0
100
AcDbBlockEnd
  0
ENDSEC
  0
SECTION
  2
ENTITIES
  0
INSERT
  5
3
100
AcDbEntity
  8
USP
100
AcDbBlockReference
  2
TFL2595PR_T
 10
-0.0105151265909607
 20
14.02080430216769
 30
0.0
  0
INSERT
  5
8B
100
AcDbEntity
  8
USP
100
AcDbBlockReference
  2
TFL2595PR_F
 10
-0.0105151265909607
 20
1.397326506932436
 30
0.0
  0
INSERT
  5
106
100
AcDbEntity
  8
USP
100
AcDbBlockReference
  2
TFL2595PR_S
 10
10.18771464333708
 20
1.397326506932436
 30
0.0
  0
ENDSEC
  0
SECTION
  2
OBJECTS
  0
DICTIONARY
  5
169
100
AcDbDictionary
  3
ACAD_GROUP
350
167
  3
ACAD_MLINESTYLE
350
168
  0
DICTIONARY
  5
9
100
AcDbDictionary
280
     1
  3
ACAD_XREC_ROUNDTRIP
360
A
  0
DICTIONARY
  5
85
100
AcDbDictionary
280
     1
  3
ACAD_XREC_ROUNDTRIP
360
86
  0
DICTIONARY
  5
16C
100
AcDbDictionary
280
     1
  3
ACAD_XREC_ROUNDTRIP
360
16D
  0
DICTIONARY
  5
152
100
AcDbDictionary
280
     1
  3
ACAD_LAYOUTSELFREF
360
153
  0
DICTIONARY
  5
157
100
AcDbDictionary
280
     1
  3
ACAD_LAYOUTSELFREF
360
158
  0
DICTIONARY
  5
167
102
{ACAD_REACTORS
330
169
102
}
100
AcDbDictionary
  0
DICTIONARY
  5
168
102
{ACAD_REACTORS
330
169
102
}
100
AcDbDictionary
  3
STANDARD
350
16A
  0
XRECORD
  5
A
102
{ACAD_REACTORS
330
9
102
}
100
AcDbXrecord
102
EXTNAMES
  1
USP-GEO
  2
USP-Geo
  0
XRECORD
  5
86
102
{ACAD_REACTORS
330
85
102
}
100
AcDbXrecord
102
EXTNAMES
  1
USP-TXT
  2
USP-Txt
  0
XRECORD
  5
16D
102
{ACAD_REACTORS
330
16C
102
}
100
AcDbXrecord
102
ACADR14ROUNDTRIP
1000
DSTYLE
1002
{
1070
   276
 70
     2
1070
   277
 70
     5
1002
}
  0
XRECORD
  5
153
102
{ACAD_REACTORS
330
152
102
}
100
AcDbXrecord
340
2
  0
XRECORD
  5
158
102
{ACAD_REACTORS
330
157
102
}
100
AcDbXrecord
340
0
  0
MLINESTYLE
  5
16A
102
{ACAD_REACTORS
330
168
102
}
100
AcDbMlineStyle
  2
STANDARD
 70
     0
  3

 62
     0
 51
90.0
 52
90.0
 71
     2
 49
0.5
 62
   256
  6
BYLAYER
 49
-0.5
 62
   256
  6
BYLAYER
  0
ENDSEC
  0
EOF
