  0
SECTION
  2
HEADER
  9
$ACADVER
  1
AC1014
  9
$ACADMAINTVER
 70
     8
  9
$DWGCODEPAGE
  3
ANSI_1252
  9
$INSBASE
 10
0.0
 20
0.0
 30
0.0
  9
$EXTMIN
 10
0.0017147300805238
 20
0.5969972009556077
 30
0.0
  9
$EXTMAX
 10
14.24918861266808
 20
17.25584561862519
 30
0.0
  9
$LIMMIN
 10
0.0
 20
0.0
  9
$LIMMAX
 10
12.0
 20
9.0
  9
$ORTHOMODE
 70
     0
  9
$REGENMODE
 70
     1
  9
$FILLMODE
 70
     1
  9
$QTEXTMODE
 70
     0
  9
$MIRRTEXT
 70
     0
  9
$DRAGMODE
 70
     2
  9
$LTSCALE
 40
1.5
  9
$OSMODE
 70
     0
  9
$ATTMODE
 70
     1
  9
$TEXTSIZE
 40
0.25
  9
$TRACEWID
 40
0.05
  9
$TEXTSTYLE
  7
STANDARD
  9
$CLAYER
  8
USP
  9
$CELTYPE
  6
BYLAYER
  9
$CECOLOR
 62
   256
  9
$CELTSCALE
 40
1.0
  9
$DELOBJ
 70
     1
  9
$DISPSILH
 70
     1
  9
$DIMSCALE
 40
5.0
  9
$DIMASZ
 40
0.125
  9
$DIMEXO
 40
0.0625
  9
$DIMDLI
 40
0.38
  9
$DIMRND
 40
0.0
  9
$DIMDLE
 40
0.0
  9
$DIMEXE
 40
0.09375
  9
$DIMTP
 40
0.0
  9
$DIMTM
 40
0.0
  9
$DIMTXT
 40
0.109375
  9
$DIMCEN
 40
0.0
  9
$DIMTSZ
 40
0.0
  9
$DIMTOL
 70
     0
  9
$DIMLIM
 70
     0
  9
$DIMTIH
 70
     1
  9
$DIMTOH
 70
     1
  9
$DIMSE1
 70
     0
  9
$DIMSE2
 70
     0
  9
$DIMTAD
 70
     0
  9
$DIMZIN
 70
     8
  9
$DIMBLK
  1

  9
$DIMASO
 70
     1
  9
$DIMSHO
 70
     1
  9
$DIMPOST
  1

  9
$DIMAPOST
  1

  9
$DIMALT
 70
     0
  9
$DIMALTD
 70
     2
  9
$DIMALTF
 40
25.4
  9
$DIMLFAC
 40
1.0
  9
$DIMTOFL
 70
     0
  9
$DIMTVP
 40
0.0
  9
$DIMTIX
 70
     0
  9
$DIMSOXD
 70
     0
  9
$DIMSAH
 70
     0
  9
$DIMBLK1
  1

  9
$DIMBLK2
  1

  9
$DIMSTYLE
  2
STANDARD
  9
$DIMCLRD
 70
   256
  9
$DIMCLRE
 70
   256
  9
$DIMCLRT
 70
   256
  9
$DIMTFAC
 40
1.0
  9
$DIMGAP
 40
0.09
  9
$DIMJUST
 70
     0
  9
$DIMSD1
 70
     0
  9
$DIMSD2
 70
     0
  9
$DIMTOLJ
 70
     1
  9
$DIMTZIN
 70
     0
  9
$DIMALTZ
 70
     0
  9
$DIMALTTZ
 70
     0
  9
$DIMFIT
 70
     3
  9
$DIMUPT
 70
     1
  9
$DIMUNIT
 70
     7
  9
$DIMDEC
 70
     4
  9
$DIMTDEC
 70
     4
  9
$DIMALTU
 70
     2
  9
$DIMALTTD
 70
     2
  9
$DIMTXSTY
  7
STANDARD
  9
$DIMAUNIT
 70
     0
  9
$LUNITS
 70
     5
  9
$LUPREC
 70
     6
  9
$SKETCHINC
 40
0.1
  9
$FILLETRAD
 40
0.0
  9
$AUNITS
 70
     0
  9
$AUPREC
 70
     1
  9
$MENU
  1
CUSTOM
  9
$ELEVATION
 40
0.0
  9
$PELEVATION
 40
0.0
  9
$THICKNESS
 40
0.0
  9
$LIMCHECK
 70
     0
  9
$BLIPMODE
 70
     0
  9
$CHAMFERA
 40
0.0
  9
$CHAMFERB
 40
0.0
  9
$CHAMFERC
 40
0.0
  9
$CHAMFERD
 40
0.0
  9
$SKPOLY
 70
     0
  9
$TDCREATE
 40
2451263.621564698
  9
$TDUPDATE
 40
2453025.981608067
  9
$TDINDWG
 40
1.0168488079
  9
$TDUSRTIMER
 40
1.0168488079
  9
$USRTIMER
 70
     1
  9
$ANGBASE
 50
0.0
  9
$ANGDIR
 70
     0
  9
$PDMODE
 70
     0
  9
$PDSIZE
 40
0.0
  9
$PLINEWID
 40
0.0
  9
$COORDS
 70
     2
  9
$SPLFRAME
 70
     0
  9
$SPLINETYPE
 70
     6
  9
$SPLINESEGS
 70
     8
  9
$ATTDIA
 70
     0
  9
$ATTREQ
 70
     0
  9
$HANDLING
 70
     1
  9
$HANDSEED
  5
178
  9
$SURFTAB1
 70
     6
  9
$SURFTAB2
 70
     6
  9
$SURFTYPE
 70
     6
  9
$SURFU
 70
     6
  9
$SURFV
 70
     6
  9
$UCSNAME
  2

  9
$UCSORG
 10
0.0
 20
0.0
 30
0.0
  9
$UCSXDIR
 10
1.0
 20
0.0
 30
0.0
  9
$UCSYDIR
 10
0.0
 20
1.0
 30
0.0
  9
$PUCSNAME
  2

  9
$PUCSORG
 10
0.0
 20
0.0
 30
0.0
  9
$PUCSXDIR
 10
1.0
 20
0.0
 30
0.0
  9
$PUCSYDIR
 10
0.0
 20
1.0
 30
0.0
  9
$USERI1
 70
     0
  9
$USERI2
 70
     0
  9
$USERI3
 70
     0
  9
$USERI4
 70
     0
  9
$USERI5
 70
     0
  9
$USERR1
 40
0.0
  9
$USERR2
 40
0.0
  9
$USERR3
 40
0.0
  9
$USERR4
 40
0.0
  9
$USERR5
 40
0.0
  9
$WORLDVIEW
 70
     1
  9
$SHADEDGE
 70
     3
  9
$SHADEDIF
 70
    70
  9
$TILEMODE
 70
     1
  9
$MAXACTVP
 70
    16
  9
$PINSBASE
 10
0.0
 20
0.0
 30
0.0
  9
$PLIMCHECK
 70
     0
  9
$PEXTMIN
 10
1.000000000000000E+20
 20
1.000000000000000E+20
 30
1.000000000000000E+20
  9
$PEXTMAX
 10
-1.000000000000000E+20
 20
-1.000000000000000E+20
 30
-1.000000000000000E+20
  9
$PLIMMIN
 10
0.0
 20
0.0
  9
$PLIMMAX
 10
12.0
 20
9.0
  9
$UNITMODE
 70
     0
  9
$VISRETAIN
 70
     0
  9
$PLINEGEN
 70
     0
  9
$PSLTSCALE
 70
     0
  9
$TREEDEPTH
 70
  3020
  9
$PICKSTYLE
 70
     1
  9
$CMLSTYLE
  2
STANDARD
  9
$CMLJUST
 70
     0
  9
$CMLSCALE
 40
1.0
  9
$PROXYGRAPHICS
 70
     1
  9
$MEASUREMENT
 70
     0
  0
ENDSEC
  0
SECTION
  2
CLASSES
  0
CLASS
  1
ACDBDICTIONARYWDFLT
  2
AcDbDictionaryWithDefault
  3
AutoCAD 2000
 90
        0
280
     0
281
     0
  0
CLASS
  1
ACDBPLACEHOLDER
  2
AcDbPlaceHolder
  3
AutoCAD 2000
 90
        0
280
     0
281
     0
  0
CLASS
  1
LAYOUT
  2
AcDbLayout
  3
AutoCAD 2000
 90
        0
280
     0
281
     0
  0
CLASS
  1
DICTIONARYVAR
  2
AcDbDictionaryVar
  3
"AutoCAD"
 90
        0
280
     0
281
     0
  0
CLASS
  1
SORTENTSTABLE
  2
AcDbSortentsTable
  3
"AutoCAD"
 90
        0
280
     0
281
     0
  0
CLASS
  1
LONG_TRANSACTION
  2
AcDbLongTransaction
  3
AutoCAD 2000
 90
        0
280
     0
281
     0
  0
CLASS
  1
LWPOLYLINE
  2
AcDbPolyline
  3
"AutoCAD"
 90
        0
280
     0
281
     1
  0
CLASS
  1
HATCH
  2
AcDbHatch
  3
"ACAD_SEDONA"
 90
        0
280
     0
281
     1
  0
CLASS
  1
XRECORD
  2
AcDbXrecord
  3
"<Built In>"
 90
        0
280
     0
281
     0
  0
CLASS
  1
LONG_TRANSACTION
  2
AcDbLongTransaction
  3
AutoCAD 2000
 90
        0
280
     0
281
     0
  0
CLASS
  1
LWPOLYLINE
  2
AcDbPolyline
  3
"AutoCAD"
 90
        0
280
     0
281
     1
  0
CLASS
  1
HATCH
  2
AcDbHatch
  3
"ACAD_SEDONA"
 90
        0
280
     0
281
     1
  0
CLASS
  1
XRECORD
  2
AcDbXrecord
  3
"<Built In>"
 90
        0
280
     0
281
     0
  0
CLASS
  1
LONG_TRANSACTION
  2
AcDbLongTransaction
  3
AutoCAD 2000
 90
        0
280
     0
281
     0
  0
CLASS
  1
LWPOLYLINE
  2
AcDbPolyline
  3
"AutoCAD"
 90
        0
280
     0
281
     1
  0
CLASS
  1
HATCH
  2
AcDbHatch
  3
"ACAD_SEDONA"
 90
        0
280
     0
281
     1
  0
CLASS
  1
XRECORD
  2
AcDbXrecord
  3
"<Built In>"
 90
        0
280
     0
281
     0
  0
CLASS
  1
LONG_TRANSACTION
  2
AcDbLongTransaction
  3
AutoCAD 2000
 90
        0
280
     0
281
     0
  0
CLASS
  1
LWPOLYLINE
  2
AcDbPolyline
  3
"AutoCAD"
 90
        0
280
     0
281
     1
  0
CLASS
  1
HATCH
  2
AcDbHatch
  3
"ACAD_SEDONA"
 90
        0
280
     0
281
     1
  0
CLASS
  1
XRECORD
  2
AcDbXrecord
  3
"<Built In>"
 90
        0
280
     0
281
     0
  0
CLASS
  1
LONG_TRANSACTION
  2
AcDbLongTransaction
  3
AutoCAD 2000
 90
        0
280
     0
281
     0
  0
CLASS
  1
LWPOLYLINE
  2
AcDbPolyline
  3
"AutoCAD"
 90
        0
280
     0
281
     1
  0
CLASS
  1
HATCH
  2
AcDbHatch
  3
"ACAD_SEDONA"
 90
        0
280
     0
281
     1
  0
CLASS
  1
XRECORD
  2
AcDbXrecord
  3
"<Built In>"
 90
        0
280
     0
281
     0
  0
ENDSEC
  0
SECTION
  2
TABLES
  0
TABLE
  2
VPORT
  5
169
100
AcDbSymbolTable
 70
     1
  0
VPORT
  5
16A
100
AcDbSymbolTableRecord
100
AcDbViewportTableRecord
  2
*ACTIVE
 70
     0
 10
0.0
 20
0.0
 11
1.0
 21
1.0
 12
0.3048849110664307
 22
11.5285102362857
 13
0.0
 23
0.0
 14
1.0
 24
1.0
 15
0.0
 25
0.0
 16
0.0
 26
0.0
 36
1.0
 17
6.820470450395475
 27
-1.786971964104893
 37
-0.7651648907701758
 40
18.41133670316765
 41
1.379227053140096
 42
50.0
 43
0.0
 44
0.0
 50
0.0
 51
0.0
 71
     0
 72
   100
 73
     1
 74
     1
 75
     0
 76
     0
 77
     0
 78
     0
  0
ENDTAB
  0
TABLE
  2
LTYPE
  5
164
100
AcDbSymbolTable
 70
     1
  0
LTYPE
  5
165
100
AcDbSymbolTableRecord
100
AcDbLinetypeTableRecord
  2
BYBLOCK
 70
     0
  3

 72
    65
 73
     0
 40
0.0
  0
LTYPE
  5
166
100
AcDbSymbolTableRecord
100
AcDbLinetypeTableRecord
  2
BYLAYER
 70
     0
  3

 72
    65
 73
     0
 40
0.0
  0
LTYPE
  5
5
100
AcDbSymbolTableRecord
100
AcDbLinetypeTableRecord
  2
CONTINUOUS
 70
     0
  3
Solid line
 72
    65
 73
     0
 40
0.0
  0
ENDTAB
  0
TABLE
  2
LAYER
  5
162
100
AcDbSymbolTable
 70
     4
  0
LAYER
  5
90
100
AcDbSymbolTableRecord
100
AcDbLayerTableRecord
  2
0
 70
     0
 62
     7
  6
CONTINUOUS
  0
LAYER
  5
8
102
{ACAD_XDICTIONARY
360
9
102
}
100
AcDbSymbolTableRecord
100
AcDbLayerTableRecord
  2
USP-GEO
 70
     0
 62
     7
  6
CONTINUOUS
  0
LAYER
  5
8B
102
{ACAD_XDICTIONARY
360
8C
102
}
100
AcDbSymbolTableRecord
100
AcDbLayerTableRecord
  2
USP-TXT
 70
     0
 62
     7
  6
CONTINUOUS
  0
LAYER
  5
4
100
AcDbSymbolTableRecord
100
AcDbLayerTableRecord
  2
USP
 70
     0
 62
     7
  6
CONTINUOUS
  0
ENDTAB
  0
TABLE
  2
STYLE
  5
163
100
AcDbSymbolTable
 70
     1
  0
STYLE
  5
8E
100
AcDbSymbolTableRecord
100
AcDbTextStyleTableRecord
  2
STANDARD
 70
     0
 40
0.0
 41
1.0
 50
0.0
 71
     0
 42
0.25
  3
txt
  4

  0
ENDTAB
  0
TABLE
  2
VIEW
  5
167
100
AcDbSymbolTable
 70
     0
  0
ENDTAB
  0
TABLE
  2
UCS
  5
168
100
AcDbSymbolTable
 70
     0
  0
ENDTAB
  0
TABLE
  2
APPID
  5
16B
100
AcDbSymbolTable
 70
     1
  0
APPID
  5
65
100
AcDbSymbolTableRecord
100
AcDbRegAppTableRecord
  2
ACAD
 70
     0
  0
ENDTAB
  0
TABLE
  2
DIMSTYLE
  5
16C
100
AcDbSymbolTable
 70
     1
  0
DIMSTYLE
105
172
102
{ACAD_XDICTIONARY
360
173
102
}
100
AcDbSymbolTableRecord
100
AcDbDimStyleTableRecord
  2
STANDARD
 70
     0
  3

  4

  5

  6

  7

 40
1.0
 41
0.125
 42
0.0625
 43
0.38
 44
0.09375
 45
0.0
 46
0.0
 47
0.0
 48
0.0
140
0.109375
141
0.0
142
0.0
143
25.4
144
1.0
145
0.0
146
1.0
147
0.09
 71
     0
 72
     0
 73
     1
 74
     1
 75
     0
 76
     0
 77
     0
 78
     8
170
     0
171
     2
172
     0
173
     0
174
     0
175
     0
176
     0
177
     0
178
     0
270
     7
271
     4
272
     4
273
     2
274
     2
340
8E
275
     0
280
     0
281
     0
282
     0
283
     1
284
     0
285
     0
286
     0
287
     3
288
     0
  0
ENDTAB
  0
TABLE
  2
BLOCK_RECORD
  5
1
100
AcDbSymbolTable
 70
     3
  0
BLOCK_RECORD
  5
2
102
{ACAD_XDICTIONARY
360
159
102
}
100
AcDbSymbolTableRecord
100
AcDbBlockTableRecord
  2
*MODEL_SPACE
  0
BLOCK_RECORD
  5
15D
102
{ACAD_XDICTIONARY
360
15E
102
}
100
AcDbSymbolTableRecord
100
AcDbBlockTableRecord
  2
*PAPER_SPACE
  0
BLOCK_RECORD
  5
6
100
AcDbSymbolTableRecord
100
AcDbBlockTableRecord
  2
TFL25925PR_T
  0
BLOCK_RECORD
  5
93
100
AcDbSymbolTableRecord
100
AcDbBlockTableRecord
  2
TFL25925PR_F
  0
BLOCK_RECORD
  5
10F
100
AcDbSymbolTableRecord
100
AcDbBlockTableRecord
  2
TFL25925PR_S
  0
ENDTAB
  0
ENDSEC
  0
SECTION
  2
BLOCKS
  0
BLOCK
  5
15B
100
AcDbEntity
  8
0
100
AcDbBlockBegin
  2
*MODEL_SPACE
 70
     0
 10
0.0
 20
0.0
 30
0.0
  3
*MODEL_SPACE
  1

  0
ENDBLK
  5
15C
100
AcDbEntity
  8
0
100
AcDbBlockEnd
  0
BLOCK
  5
160
100
AcDbEntity
 67
     1
  8
0
100
AcDbBlockBegin
  2
*PAPER_SPACE
 70
     0
 10
0.0
 20
0.0
 30
0.0
  3
*PAPER_SPACE
  1

  0
ENDBLK
  5
161
100
AcDbEntity
 67
     1
  8
0
100
AcDbBlockEnd
  0
BLOCK
  5
8F
100
AcDbEntity
  8
0
100
AcDbBlockBegin
  2
TFL25925PR_T
 70
     0
 10
0.0
 20
0.0
 30
0.0
  3
TFL25925PR_T
  1

  0
LWPOLYLINE
  5
7
100
AcDbEntity
  8
USP-GEO
100
AcDbPolyline
 90
        2
 70
   128
 43
0.0
 10
6.552005215593686
 20
2.201762508178255
 10
4.643295406591381
 20
2.201762508178255
  0
LWPOLYLINE
  5
B
100
AcDbEntity
  8
USP-GEO
100
AcDbPolyline
 90
        2
 70
   128
 43
0.0
 10
1.908709809002305
 20
2.201762508178255
 10
0.0
 20
2.201762508178255
  0
CIRCLE
  5
C
100
AcDbEntity
  8
USP-GEO
100
AcDbCircle
 10
6.350895448817754
 20
3.199128159462464
 30
0.0
 40
0.09
  0
CIRCLE
  5
D
100
AcDbEntity
  8
USP-GEO
100
AcDbCircle
 10
4.950895448817748
 20
3.399128159462453
 30
0.0
 40
0.09
  0
LWPOLYLINE
  5
E
100
AcDbEntity
  8
USP-GEO
100
AcDbPolyline
 90
        2
 70
   128
 43
0.0
 10
4.643295406591381
 20
3.716011352600617
 10
4.643295406591381
 20
2.23613819136605
  0
LWPOLYLINE
  5
F
100
AcDbEntity
  8
USP-GEO
100
AcDbPolyline
 90
        2
 70
   128
 43
0.0
 10
6.552005215593686
 20
3.716011352600617
 10
4.643295406591381
 20
3.716011352600617
  0
LWPOLYLINE
  5
10
100
AcDbEntity
  8
USP-GEO
100
AcDbPolyline
 90
        2
 70
   128
 43
0.0
 10
4.522980515434099
 20
1.032129887713537
 10
4.522980515434099
 20
1.926757042675896
  0
LWPOLYLINE
  5
11
100
AcDbEntity
  8
USP-GEO
100
AcDbPolyline
 90
        2
 70
   128
 43
0.0
 10
4.522980515434099
 20
1.032129887713537
 10
4.522980515434099
 20
0.8946271549623574
  0
LWPOLYLINE
  5
12
100
AcDbEntity
  8
USP-GEO
100
AcDbPolyline
 90
        2
 70
   128
 43
0.0
 10
4.574544040215791
 20
0.8946271549623574
 10
4.522980515434099
 20
0.8946271549623574
  0
LWPOLYLINE
  5
13
100
AcDbEntity
  8
USP-GEO
100
AcDbPolyline
 90
        2
 70
   128
 43
0.0
 10
4.522980515434099
 20
0.8946271549623574
 10
4.523839907513794
 20
0.8946271549623574
  0
LWPOLYLINE
  5
14
100
AcDbEntity
  8
USP-GEO
100
AcDbPolyline
 90
        2
 70
   128
 43
0.0
 10
4.522980515434099
 20
0.2750054655023568
 10
4.522980515434099
 20
0.8946271549623574
  0
LWPOLYLINE
  5
15
100
AcDbEntity
  8
USP-GEO
100
AcDbPolyline
 90
        2
 70
   128
 43
0.0
 10
4.522980515434099
 20
0.154690574345075
 10
4.522980515434099
 20
0.2750054655023568
  0
LWPOLYLINE
  5
16
100
AcDbEntity
  8
USP-GEO
100
AcDbPolyline
 90
        2
 70
   128
 43
0.0
 10
4.574544040215791
 20
0.2750054655023568
 10
4.522980515434099
 20
0.2750054655023568
  0
LWPOLYLINE
  5
17
100
AcDbEntity
  8
USP-GEO
100
AcDbPolyline
 90
        2
 70
   128
 43
0.0
 10
4.522980515434099
 20
0.154690574345075
 10
4.522980515434099
 20
0.1375027327511784
  0
LWPOLYLINE
  5
18
100
AcDbEntity
  8
USP-GEO
100
AcDbPolyline
 90
        2
 70
   128
 43
0.0
 10
4.522980515434099
 20
0.1375027327511784
 10
4.522980515434099
 20
0.0
  0
LWPOLYLINE
  5
19
100
AcDbEntity
  8
USP-GEO
100
AcDbPolyline
 90
        2
 70
   128
 43
0.0
 10
4.574544040215791
 20
0.0
 10
4.522980515434099
 20
0.0
  0
LWPOLYLINE
  5
1A
100
AcDbEntity
  8
USP-GEO
100
AcDbPolyline
 90
        2
 70
   128
 43
0.0
 10
1.977461175377895
 20
0.0
 10
2.029024700159586
 20
0.0
  0
LWPOLYLINE
  5
1B
100
AcDbEntity
  8
USP-GEO
100
AcDbPolyline
 90
        2
 70
   128
 43
0.0
 10
1.977461175377895
 20
0.2750054655023568
 10
2.029024700159586
 20
0.2750054655023568
  0
LWPOLYLINE
  5
1C
100
AcDbEntity
  8
USP-GEO
100
AcDbPolyline
 90
        2
 70
   128
 43
0.0
 10
1.977461175377895
 20
0.8946271549623574
 10
2.029024700159586
 20
0.8946271549623574
  0
LWPOLYLINE
  5
1D
100
AcDbEntity
  8
USP-GEO
100
AcDbPolyline
 90
        2
 70
   128
 43
0.0
 10
4.522980515434099
 20
2.115823300208768
 10
4.522980515434099
 20
1.926757042675896
  0
LWPOLYLINE
  5
1E
100
AcDbEntity
  8
USP-GEO
100
AcDbPolyline
 90
        2
 70
   128
 43
0.0
 10
4.574544040215791
 20
2.150198983396563
 10
4.540168357027996
 20
2.150198983396563
  0
LWPOLYLINE
  5
1F
100
AcDbEntity
  8
USP-GEO
100
AcDbPolyline
 90
        2
 70
   128
 43
0.0
 10
4.574544040215791
 20
2.150198983396563
 10
4.574544040215791
 20
2.201762508178255
  0
LWPOLYLINE
  5
20
100
AcDbEntity
  8
USP-GEO
100
AcDbPolyline
 90
        2
 70
   128
 43
0.0
 10
4.608919723403586
 20
2.201762508178255
 10
4.574544040215791
 20
2.201762508178255
  0
ARC
  5
21
100
AcDbEntity
  8
USP-GEO
100
AcDbCircle
 10
4.617828849235324
 20
2.109128159462462
 30
0.0
 40
0.09
100
AcDbArc
 50
115.0450484665713
 51
152.1278333944334
  0
LWPOLYLINE
  5
22
100
AcDbEntity
  8
USP-GEO
100
AcDbPolyline
 90
        2
 70
   128
 43
0.0
 10
4.540168357027996
 20
2.150198983396563
 10
4.522980515434099
 20
2.115823300208768
  0
LWPOLYLINE
  5
23
100
AcDbEntity
  8
USP-GEO
100
AcDbPolyline
 90
        2
 70
   128
 43
0.0
 10
4.522980515434099
 20
2.115823300208768
 10
4.523839907513794
 20
2.115823300208768
  0
LWPOLYLINE
  5
24
100
AcDbEntity
  8
USP-GEO
100
AcDbPolyline
 90
        2
 70
   128
 43
0.0
 10
4.608919723403586
 20
2.201762508178255
 10
4.643295406591381
 20
2.201762508178255
  0
LWPOLYLINE
  5
25
100
AcDbEntity
  8
USP-GEO
100
AcDbPolyline
 90
        2
 70
   128
 43
0.0
 10
4.574544040215791
 20
0.1375027327511784
 10
4.574544040215791
 20
0.0
  0
LWPOLYLINE
  5
26
100
AcDbEntity
  8
USP-GEO
100
AcDbPolyline
 90
        2
 70
   128
 43
0.0
 10
4.574544040215791
 20
0.154690574345075
 10
4.574544040215791
 20
0.1375027327511784
  0
LWPOLYLINE
  5
27
100
AcDbEntity
  8
USP-GEO
100
AcDbPolyline
 90
        2
 70
   128
 43
0.0
 10
4.574544040215791
 20
0.2750054655023568
 10
4.574544040215791
 20
0.154690574345075
  0
LWPOLYLINE
  5
28
100
AcDbEntity
  8
USP-GEO
100
AcDbPolyline
 90
        2
 70
   128
 43
0.0
 10
4.574544040215791
 20
0.8946271549623574
 10
4.574544040215791
 20
0.2750054655023568
  0
LWPOLYLINE
  5
29
100
AcDbEntity
  8
USP-GEO
100
AcDbPolyline
 90
        2
 70
   128
 43
0.0
 10
4.574544040215791
 20
0.8946271549623574
 10
4.575403432295486
 20
0.8946271549623574
  0
LWPOLYLINE
  5
2A
100
AcDbEntity
  8
USP-GEO
100
AcDbPolyline
 90
        2
 70
   128
 43
0.0
 10
4.574544040215791
 20
1.032129887713537
 10
4.574544040215791
 20
0.8946271549623574
  0
LWPOLYLINE
  5
2B
100
AcDbEntity
  8
USP-GEO
100
AcDbPolyline
 90
        2
 70
   128
 43
0.0
 10
4.574544040215791
 20
1.926757042675896
 10
4.574544040215791
 20
1.032129887713537
  0
LWPOLYLINE
  5
2C
100
AcDbEntity
  8
USP-GEO
100
AcDbPolyline
 90
        2
 70
   128
 43
0.0
 10
4.574544040215791
 20
2.115823300208768
 10
4.574544040215791
 20
1.926757042675896
  0
LWPOLYLINE
  5
2D
100
AcDbEntity
  8
USP-GEO
100
AcDbPolyline
 90
        2
 70
   128
 43
0.0
 10
4.574544040215791
 20
2.115823300208768
 10
4.575403432295486
 20
2.115823300208768
  0
LWPOLYLINE
  5
2E
100
AcDbEntity
  8
USP-GEO
100
AcDbPolyline
 90
        3
 70
   128
 43
0.0
 10
4.608919723403586
 20
2.150198983396563
 10
4.591731881809689
 20
2.150198983396563
 10
4.574544040215791
 20
2.115823300208768
  0
LWPOLYLINE
  5
2F
100
AcDbEntity
  8
USP-GEO
100
AcDbPolyline
 90
        2
 70
   128
 43
0.0
 10
4.643295406591381
 20
2.150198983396563
 10
4.574544040215791
 20
2.150198983396563
  0
LWPOLYLINE
  5
30
100
AcDbEntity
  8
USP-GEO
100
AcDbPolyline
 90
        2
 70
   128
 43
0.0
 10
6.552005215593686
 20
2.23613819136605
 10
6.552005215593686
 20
3.716011352600617
  0
LWPOLYLINE
  5
31
100
AcDbEntity
  8
USP-GEO
100
AcDbPolyline
 90
        2
 70
   128
 43
0.0
 10
6.552005215593686
 20
2.23613819136605
 10
6.552005215593686
 20
2.150198983396563
  0
LWPOLYLINE
  5
32
100
AcDbEntity
  8
USP-GEO
100
AcDbPolyline
 90
        2
 70
   128
 43
0.0
 10
6.552005215593686
 20
2.150198983396563
 10
4.643295406591381
 20
2.150198983396563
  0
LWPOLYLINE
  5
33
100
AcDbEntity
  8
USP-GEO
100
AcDbPolyline
 90
        2
 70
   128
 43
0.0
 10
4.643295406591381
 20
2.150198983396563
 10
4.643295406591381
 20
2.23613819136605
  0
LWPOLYLINE
  5
34
100
AcDbEntity
  8
USP-GEO
100
AcDbPolyline
 90
        2
 70
   128
 43
0.0
 10
1.977461175377895
 20
2.150198983396563
 10
1.908709809002305
 20
2.150198983396563
  0
LWPOLYLINE
  5
35
100
AcDbEntity
  8
USP-GEO
100
AcDbPolyline
 90
        2
 70
   128
 43
0.0
 10
1.977461175377895
 20
2.150198983396563
 10
1.977461175377895
 20
2.201762508178255
  0
LWPOLYLINE
  5
36
100
AcDbEntity
  8
USP-GEO
100
AcDbPolyline
 90
        2
 70
   128
 43
0.0
 10
2.01183685856569
 20
2.150198983396563
 10
1.977461175377895
 20
2.150198983396563
  0
LWPOLYLINE
  5
37
100
AcDbEntity
  8
USP-GEO
100
AcDbPolyline
 90
        2
 70
   128
 43
0.0
 10
2.029024700159586
 20
2.115823300208768
 10
2.029884092239282
 20
2.115823300208768
  0
LWPOLYLINE
  5
38
100
AcDbEntity
  8
USP-GEO
100
AcDbPolyline
 90
        2
 70
   128
 43
0.0
 10
2.029024700159586
 20
2.115823300208768
 10
2.01183685856569
 20
2.150198983396563
  0
ARC
  5
39
100
AcDbEntity
  8
USP-GEO
100
AcDbCircle
 10
1.937828849235346
 20
2.109128159462462
 30
0.0
 40
0.09
100
AcDbArc
 50
29.02813132457286
 51
66.83700857495193
  0
LWPOLYLINE
  5
3A
100
AcDbEntity
  8
USP-GEO
100
AcDbPolyline
 90
        2
 70
   128
 43
0.0
 10
1.977461175377895
 20
2.201762508178255
 10
1.9430854921901
 20
2.201762508178255
  0
LWPOLYLINE
  5
3B
100
AcDbEntity
  8
USP-GEO
100
AcDbPolyline
 90
        2
 70
   128
 43
0.0
 10
1.977461175377895
 20
1.926757042675896
 10
1.977461175377895
 20
2.115823300208768
  0
LWPOLYLINE
  5
3C
100
AcDbEntity
  8
USP-GEO
100
AcDbPolyline
 90
        2
 70
   128
 43
0.0
 10
1.977461175377895
 20
1.032129887713537
 10
1.977461175377895
 20
1.926757042675896
  0
LWPOLYLINE
  5
3D
100
AcDbEntity
  8
USP-GEO
100
AcDbPolyline
 90
        2
 70
   128
 43
0.0
 10
1.977461175377895
 20
0.8946271549623574
 10
1.977461175377895
 20
1.032129887713537
  0
LWPOLYLINE
  5
3E
100
AcDbEntity
  8
USP-GEO
100
AcDbPolyline
 90
        2
 70
   128
 43
0.0
 10
1.977461175377895
 20
0.8946271549623574
 10
1.97832056745759
 20
0.8946271549623574
  0
LWPOLYLINE
  5
3F
100
AcDbEntity
  8
USP-GEO
100
AcDbPolyline
 90
        2
 70
   128
 43
0.0
 10
1.977461175377895
 20
0.2750054655023568
 10
1.977461175377895
 20
0.8946271549623574
  0
LWPOLYLINE
  5
40
100
AcDbEntity
  8
USP-GEO
100
AcDbPolyline
 90
        2
 70
   128
 43
0.0
 10
1.977461175377895
 20
0.154690574345075
 10
1.977461175377895
 20
0.2750054655023568
  0
LWPOLYLINE
  5
41
100
AcDbEntity
  8
USP-GEO
100
AcDbPolyline
 90
        2
 70
   128
 43
0.0
 10
1.977461175377895
 20
0.1375027327511784
 10
1.977461175377895
 20
0.154690574345075
  0
LWPOLYLINE
  5
42
100
AcDbEntity
  8
USP-GEO
100
AcDbPolyline
 90
        2
 70
   128
 43
0.0
 10
1.977461175377895
 20
0.0
 10
1.977461175377895
 20
0.1375027327511784
  0
LWPOLYLINE
  5
43
100
AcDbEntity
  8
USP-GEO
100
AcDbPolyline
 90
        2
 70
   128
 43
0.0
 10
1.977461175377895
 20
2.115823300208768
 10
1.97832056745759
 20
2.115823300208768
  0
LWPOLYLINE
  5
44
100
AcDbEntity
  8
USP-GEO
100
AcDbPolyline
 90
        3
 70
   128
 43
0.0
 10
1.977461175377895
 20
2.115823300208768
 10
1.960273333783998
 20
2.150198983396563
 10
1.9430854921901
 20
2.150198983396563
  0
LWPOLYLINE
  5
45
100
AcDbEntity
  8
USP-GEO
100
AcDbPolyline
 90
        2
 70
   128
 43
0.0
 10
1.908709809002305
 20
2.201762508178255
 10
1.9430854921901
 20
2.201762508178255
  0
LWPOLYLINE
  5
46
100
AcDbEntity
  8
USP-GEO
100
AcDbPolyline
 90
        2
 70
   128
 43
0.0
 10
0.0
 20
3.716011352600617
 10
0.0
 20
2.23613819136605
  0
LWPOLYLINE
  5
47
100
AcDbEntity
  8
USP-GEO
100
AcDbPolyline
 90
        2
 70
   128
 43
0.0
 10
1.908709809002305
 20
3.716011352600617
 10
0.0
 20
3.716011352600617
  0
LWPOLYLINE
  5
48
100
AcDbEntity
  8
USP-GEO
100
AcDbPolyline
 90
        2
 70
   128
 43
0.0
 10
1.908709809002305
 20
2.23613819136605
 10
1.908709809002305
 20
3.716011352600617
  0
CIRCLE
  5
49
100
AcDbEntity
  8
USP-GEO
100
AcDbCircle
 10
0.2047622496531449
 20
3.199128159462492
 30
0.0
 40
0.09
  0
CIRCLE
  5
4A
100
AcDbEntity
  8
USP-GEO
100
AcDbCircle
 10
1.60476224965315
 20
3.399128159462481
 30
0.0
 40
0.09
  0
LWPOLYLINE
  5
4B
100
AcDbEntity
  8
USP-GEO
100
AcDbPolyline
 90
        2
 70
   128
 43
0.0
 10
1.908709809002305
 20
2.23613819136605
 10
1.908709809002305
 20
2.150198983396563
  0
LWPOLYLINE
  5
4C
100
AcDbEntity
  8
USP-GEO
100
AcDbPolyline
 90
        2
 70
   128
 43
0.0
 10
1.908709809002305
 20
2.150198983396563
 10
0.0
 20
2.150198983396563
  0
LWPOLYLINE
  5
4D
100
AcDbEntity
  8
USP-GEO
100
AcDbPolyline
 90
        2
 70
   128
 43
0.0
 10
0.0
 20
2.150198983396563
 10
0.0
 20
2.23613819136605
  0
LWPOLYLINE
  5
4E
100
AcDbEntity
  8
USP-GEO
100
AcDbPolyline
 90
        2
 70
   128
 43
0.0
 10
3.645541202065636
 20
0.4984474062230238
 10
3.525226310908355
 20
0.378132515065742
  0
LWPOLYLINE
  5
4F
100
AcDbEntity
  8
USP-GEO
100
AcDbPolyline
 90
        2
 70
   128
 43
0.0
 10
3.525226310908355
 20
0.378132515065742
 10
3.645541202065636
 20
0.2578176239084602
  0
LWPOLYLINE
  5
50
100
AcDbEntity
  8
USP-GEO
100
AcDbPolyline
 90
        2
 70
   128
 43
0.0
 10
3.645541202065636
 20
0.2578176239084602
 10
3.783043934816816
 20
0.378132515065742
  0
LWPOLYLINE
  5
51
100
AcDbEntity
  8
USP-GEO
100
AcDbPolyline
 90
        2
 70
   128
 43
0.0
 10
3.783043934816816
 20
0.378132515065742
 10
3.645541202065636
 20
0.4984474062230238
  0
LWPOLYLINE
  5
52
100
AcDbEntity
  8
USP-GEO
100
AcDbPolyline
 90
        2
 70
   128
 43
0.0
 10
2.906464013528049
 20
0.4984474062230238
 10
2.768961280776869
 20
0.378132515065742
  0
LWPOLYLINE
  5
53
100
AcDbEntity
  8
USP-GEO
100
AcDbPolyline
 90
        2
 70
   128
 43
0.0
 10
2.768961280776869
 20
0.378132515065742
 10
2.906464013528049
 20
0.2578176239084602
  0
LWPOLYLINE
  5
54
100
AcDbEntity
  8
USP-GEO
100
AcDbPolyline
 90
        2
 70
   128
 43
0.0
 10
2.906464013528049
 20
0.2578176239084602
 10
3.026778904685331
 20
0.378132515065742
  0
LWPOLYLINE
  5
55
100
AcDbEntity
  8
USP-GEO
100
AcDbPolyline
 90
        2
 70
   128
 43
0.0
 10
3.026778904685331
 20
0.378132515065742
 10
2.906464013528049
 20
0.4984474062230238
  0
LWPOLYLINE
  5
56
100
AcDbEntity
  8
USP-GEO
100
AcDbPolyline
 90
        2
 70
   128
 43
0.0
 10
2.063400383347381
 20
0.0
 10
4.488604832246304
 20
0.0
  0
LWPOLYLINE
  5
57
100
AcDbEntity
  8
USP-GEO
100
AcDbPolyline
 90
        2
 70
   128
 43
0.0
 10
4.522980515434099
 20
0.0
 10
4.488604832246304
 20
0.0
  0
LWPOLYLINE
  5
58
100
AcDbEntity
  8
USP-GEO
100
AcDbPolyline
 90
        2
 70
   128
 43
0.0
 10
2.029024700159586
 20
0.0
 10
2.029024700159586
 20
0.1375027327511784
  0
LWPOLYLINE
  5
59
100
AcDbEntity
  8
USP-GEO
100
AcDbPolyline
 90
        2
 70
   128
 43
0.0
 10
2.029024700159586
 20
0.154690574345075
 10
2.029024700159586
 20
0.1375027327511784
  0
LWPOLYLINE
  5
5A
100
AcDbEntity
  8
USP-GEO
100
AcDbPolyline
 90
        2
 70
   128
 43
0.0
 10
2.029024700159586
 20
0.2750054655023568
 10
2.029024700159586
 20
0.154690574345075
  0
LWPOLYLINE
  5
5B
100
AcDbEntity
  8
USP-GEO
100
AcDbPolyline
 90
        2
 70
   128
 43
0.0
 10
2.029024700159586
 20
0.2750054655023568
 10
2.029024700159586
 20
0.8946271549623574
  0
LWPOLYLINE
  5
5C
100
AcDbEntity
  8
USP-GEO
100
AcDbPolyline
 90
        2
 70
   128
 43
0.0
 10
2.029024700159586
 20
0.8946271549623574
 10
2.029884092239282
 20
0.8946271549623574
  0
LWPOLYLINE
  5
5D
100
AcDbEntity
  8
USP-GEO
100
AcDbPolyline
 90
        2
 70
   128
 43
0.0
 10
2.029024700159586
 20
0.8946271549623574
 10
2.029024700159586
 20
1.032129887713537
  0
LWPOLYLINE
  5
5E
100
AcDbEntity
  8
USP-GEO
100
AcDbPolyline
 90
        2
 70
   128
 43
0.0
 10
2.029024700159586
 20
1.032129887713537
 10
2.029024700159586
 20
1.926757042675896
  0
LWPOLYLINE
  5
5F
100
AcDbEntity
  8
USP-GEO
100
AcDbPolyline
 90
        2
 70
   128
 43
0.0
 10
2.029024700159586
 20
1.926757042675896
 10
2.029024700159586
 20
2.115823300208768
  0
LWPOLYLINE
  5
60
100
AcDbEntity
  8
USP-GEO
100
AcDbPolyline
 90
        2
 70
   128
 43
0.0
 10
2.063400383347381
 20
0.0
 10
2.029024700159586
 20
0.0
  0
LWPOLYLINE
  5
61
100
AcDbEntity
  8
USP-GEO
100
AcDbPolyline
 90
        2
 70
   128
 43
0.0
 10
4.488604832246304
 20
2.012696250645383
 10
4.522980515434099
 20
2.012696250645383
  0
LWPOLYLINE
  5
62
100
AcDbEntity
  8
USP-GEO
100
AcDbPolyline
 90
        2
 70
   128
 43
0.0
 10
4.488604832246304
 20
2.012696250645383
 10
2.063400383347381
 20
2.012696250645383
  0
LWPOLYLINE
  5
63
100
AcDbEntity
  8
USP-GEO
100
AcDbPolyline
 90
        2
 70
   128
 43
0.0
 10
2.029024700159586
 20
2.012696250645383
 10
2.063400383347381
 20
2.012696250645383
  0
ELLIPSE
  5
64
100
AcDbEntity
  8
USP-GEO
  6
CONTINUOUS
100
AcDbEllipse
 10
4.695781223437053
 20
0.5016636234903924
 30
0.0
 11
0.0
 21
-0.078000000000003
 31
0.0
210
0.0
220
0.0
230
1.0
 40
0.7071067811865475
 41
0.7249316437916989
 42
6.59255210507066
1001
ACAD
1000
RTLwPs
1070
   128
  0
ELLIPSE
  5
66
100
AcDbEntity
  8
USP-GEO
  6
CONTINUOUS
100
AcDbEllipse
 10
4.695781223437053
 20
0.5016636234903924
 30
0.0
 11
0.0
 21
-0.078000000000003
 31
0.0
210
0.0
220
0.0
230
1.0
 40
0.7071067811865475
 41
2.873028402015451
 42
8.793634604497
1001
ACAD
1000
RTLwPs
1070
   128
  0
ELLIPSE
  5
67
100
AcDbEntity
  8
USP-GEO
  6
CONTINUOUS
100
AcDbEllipse
 10
4.695781223437053
 20
0.5016636234903924
 30
0.0
 11
0.0
 21
-0.078000000000003
 31
0.0
210
0.0
220
0.0
230
1.0
 40
0.7071067811865475
 41
1.087429197142598
 42
6.99554773816096
1001
ACAD
1000
RTLwPs
1070
   128
  0
ELLIPSE
  5
68
100
AcDbEntity
  8
USP-GEO
  6
CONTINUOUS
100
AcDbEllipse
 10
4.695781223437053
 20
0.5016636234903924
 30
0.0
 11
0.0
 21
-0.078000000000003
 31
0.0
210
0.0
220
0.0
230
1.0
 40
0.7071067811865475
 41
2.522485353143434
 42
8.447783892316618
1001
ACAD
1000
RTLwPs
1070
   128
  0
ELLIPSE
  5
69
100
AcDbEntity
  8
USP-GEO
  6
CONTINUOUS
100
AcDbEllipse
 10
4.695781223437053
 20
0.5016636234903924
 30
0.0
 11
0.0
 21
-0.078000000000003
 31
0.0
210
0.0
220
0.0
230
1.0
 40
0.7071067811865475
 41
2.156819697796699
 42
7.377506240085732
1001
ACAD
1000
RTLwPs
1070
   128
  0
ELLIPSE
  5
6A
100
AcDbEntity
  8
USP-GEO
  6
CONTINUOUS
100
AcDbEllipse
 10
4.73412960056696
 20
0.5016636234903924
 30
0.0
 11
0.0
 21
-0.078000000000003
 31
0.0
210
0.0
220
0.0
230
1.0
 40
0.7071067811865475
 41
3.486351652428971
 42
5.501984981147013
1001
ACAD
1000
RTLwPs
1070
   128
  0
ELLIPSE
  5
6B
100
AcDbEntity
  8
USP-GEO
  6
CONTINUOUS
100
AcDbEllipse
 10
4.73412960056696
 20
0.5016636234903924
 30
0.0
 11
0.0
 21
-0.078000000000003
 31
0.0
210
0.0
220
0.0
230
1.0
 40
0.7071067811865475
 41
5.490921837213434
 42
6.20404866773685
1001
ACAD
1000
RTLwPs
1070
   128
  0
ELLIPSE
  5
6C
100
AcDbEntity
  8
USP-GEO
  6
CONTINUOUS
100
AcDbEllipse
 10
4.73412960056696
 20
0.5016636234903924
 30
0.0
 11
0.0
 21
-0.078000000000003
 31
0.0
210
0.0
220
0.0
230
1.0
 40
0.7071067811865475
 41
3.49917164638191
 42
9.205810047033553
1001
ACAD
1000
RTLwPs
1070
   128
  0
ELLIPSE
  5
6D
100
AcDbEntity
  8
USP-GEO
  6
CONTINUOUS
100
AcDbEllipse
 10
4.73412960056696
 20
0.5016636234903924
 30
0.0
 11
0.0
 21
-0.078000000000003
 31
0.0
210
0.0
220
0.0
230
1.0
 40
0.7071067811865475
 41
6.187290423914852
 42
6.536101810952848
1001
ACAD
1000
RTLwPs
1070
   128
  0
ELLIPSE
  5
6E
100
AcDbEntity
  8
USP-GEO
  6
CONTINUOUS
100
AcDbEllipse
 10
4.73412960056696
 20
0.5016636234903924
 30
0.0
 11
0.0
 21
-0.078000000000003
 31
0.0
210
0.0
220
0.0
230
1.0
 40
0.7071067811865475
 41
0.6644565688936441
 42
6.520207869444281
1001
ACAD
1000
RTLwPs
1070
   128
  0
ELLIPSE
  5
6F
100
AcDbEntity
  8
USP-GEO
  6
CONTINUOUS
100
AcDbEllipse
 10
4.73412960056696
 20
0.5016636234903924
 30
0.0
 11
0.0
 21
-0.078000000000003
 31
0.0
210
0.0
220
0.0
230
1.0
 40
0.7071067811865475
 41
2.203030989446003
 42
2.93652148409691
1001
ACAD
1000
RTLwPs
1070
   128
  0
ELLIPSE
  5
70
100
AcDbEntity
  8
USP-GEO
  6
CONTINUOUS
100
AcDbEllipse
 10
4.73412960056696
 20
0.5016636234903924
 30
0.0
 11
0.0
 21
-0.078000000000003
 31
0.0
210
0.0
220
0.0
230
1.0
 40
0.7071067811865475
 41
0.6505574020542863
 42
1.270961046376825
1001
ACAD
1000
RTLwPs
1070
   128
  0
ELLIPSE
  5
71
100
AcDbEntity
  8
USP-GEO
  6
CONTINUOUS
100
AcDbEllipse
 10
4.73412960056696
 20
0.5016636234903924
 30
0.0
 11
0.0
 21
-0.078000000000003
 31
0.0
210
0.0
220
0.0
230
1.0
 40
0.7071067811865475
 41
2.194356389410386
 42
7.55925679737955
1001
ACAD
1000
RTLwPs
1070
   128
  0
ELLIPSE
  5
72
100
AcDbEntity
  8
USP-GEO
  6
CONTINUOUS
100
AcDbEllipse
 10
1.859876475033617
 20
0.3141636234903355
 30
0.0
 11
0.0
 21
-0.078000000000003
 31
0.0
210
0.0
220
0.0
230
1.0
 40
0.7071067811865475
 41
5.533338335438498
 42
11.2742633319848
1001
ACAD
1000
RTLwPs
1070
   128
  0
ELLIPSE
  5
73
100
AcDbEntity
  8
USP-GEO
  6
CONTINUOUS
100
AcDbEllipse
 10
1.859876475033617
 20
0.3141636234903355
 30
0.0
 11
0.0
 21
-0.078000000000003
 31
0.0
210
0.0
220
0.0
230
1.0
 40
0.7071067811865475
 41
3.817144754040975
 42
4.995326522641782
1001
ACAD
1000
RTLwPs
1070
   128
  0
ELLIPSE
  5
74
100
AcDbEntity
  8
USP-GEO
  6
CONTINUOUS
100
AcDbEllipse
 10
1.859876475033617
 20
0.3141636234903355
 30
0.0
 11
0.0
 21
-0.078000000000003
 31
0.0
210
0.0
220
0.0
230
1.0
 40
0.7071067811865475
 41
3.828607867639965
 42
9.758854276545323
1001
ACAD
1000
RTLwPs
1070
   128
  0
ELLIPSE
  5
75
100
AcDbEntity
  8
USP-GEO
  6
CONTINUOUS
100
AcDbEllipse
 10
1.859876475033617
 20
0.3141636234903355
 30
0.0
 11
0.0
 21
-0.078000000000003
 31
0.0
210
0.0
220
0.0
230
1.0
 40
0.7071067811865475
 41
5.545014427016877
 42
5.917361454524945
1001
ACAD
1000
RTLwPs
1070
   128
  0
ELLIPSE
  5
76
100
AcDbEntity
  8
USP-GEO
  6
CONTINUOUS
100
AcDbEllipse
 10
1.82152809790371
 20
0.3141636234903355
 30
0.0
 11
0.0
 21
-0.078000000000003
 31
0.0
210
0.0
220
0.0
230
1.0
 40
0.7071067811865475
 41
5.589470231511453
 42
6.000803249930795
1001
ACAD
1000
RTLwPs
1070
   128
  0
ELLIPSE
  5
77
100
AcDbEntity
  8
USP-GEO
  6
CONTINUOUS
100
AcDbEllipse
 10
1.82152809790371
 20
0.3141636234903355
 30
0.0
 11
0.0
 21
-0.078000000000003
 31
0.0
210
0.0
220
0.0
230
1.0
 40
0.7071067811865475
 41
3.104982006384207
 42
5.602357521097635
1001
ACAD
1000
RTLwPs
1070
   128
  0
ELLIPSE
  5
78
100
AcDbEntity
  8
USP-GEO
  6
CONTINUOUS
100
AcDbEllipse
 10
1.82152809790371
 20
0.3141636234903355
 30
0.0
 11
0.0
 21
-0.078000000000003
 31
0.0
210
0.0
220
0.0
230
1.0
 40
0.7071067811865475
 41
5.985626864600026
 42
6.323587265196795
1001
ACAD
1000
RTLwPs
1070
   128
  0
ELLIPSE
  5
79
100
AcDbEntity
  8
USP-GEO
  6
CONTINUOUS
100
AcDbEllipse
 10
1.82152809790371
 20
0.3141636234903355
 30
0.0
 11
0.0
 21
-0.078000000000003
 31
0.0
210
0.0
220
0.0
230
1.0
 40
0.7071067811865475
 41
3.119944538809777
 42
9.100505937972258
1001
ACAD
1000
RTLwPs
1070
   128
  0
ELLIPSE
  5
7A
100
AcDbEntity
  8
USP-GEO
  6
CONTINUOUS
100
AcDbEllipse
 10
1.82152809790371
 20
0.3141636234903355
 30
0.0
 11
0.0
 21
-0.078000000000003
 31
0.0
210
0.0
220
0.0
230
1.0
 40
0.7071067811865475
 41
0.023891454666797
 42
0.7294744805446486
1001
ACAD
1000
RTLwPs
1070
   128
  0
ELLIPSE
  5
7B
100
AcDbEntity
  8
USP-GEO
  6
CONTINUOUS
100
AcDbEllipse
 10
1.82152809790371
 20
0.3141636234903355
 30
0.0
 11
0.0
 21
-0.078000000000003
 31
0.0
210
0.0
220
0.0
230
1.0
 40
0.7071067811865475
 41
2.830836171573052
 42
8.757742053076166
1001
ACAD
1000
RTLwPs
1070
   128
  0
ELLIPSE
  5
7C
100
AcDbEntity
  8
USP-GEO
  6
CONTINUOUS
100
AcDbEllipse
 10
1.82152809790371
 20
0.3141636234903355
 30
0.0
 11
0.0
 21
-0.078000000000003
 31
0.0
210
0.0
220
0.0
230
1.0
 40
0.7071067811865475
 41
0.7413353701848975
 42
2.462937074711147
1001
ACAD
1000
RTLwPs
1070
   128
  0
LWPOLYLINE
  5
7D
100
AcDbEntity
  8
USP-GEO
100
AcDbPolyline
 90
        2
 70
   128
 43
0.0
 10
2.063400383347381
 20
0.9977542045257425
 10
2.183715274504663
 20
1.135256937276921
  0
LWPOLYLINE
  5
7E
100
AcDbEntity
  8
USP-GEO
100
AcDbPolyline
 90
        2
 70
   128
 43
0.0
 10
2.183715274504663
 20
1.135256937276921
 10
2.063400383347381
 20
1.255571828434202
  0
LWPOLYLINE
  5
7F
100
AcDbEntity
  8
USP-GEO
100
AcDbPolyline
 90
        2
 70
   128
 43
0.0
 10
2.029024700159586
 20
0.9977542045257425
 10
2.063400383347381
 20
0.9977542045257425
  0
LWPOLYLINE
  5
80
100
AcDbEntity
  8
USP-GEO
100
AcDbPolyline
 90
        2
 70
   128
 43
0.0
 10
2.063400383347381
 20
1.255571828434202
 10
2.029024700159586
 20
1.255571828434202
  0
LWPOLYLINE
  5
81
100
AcDbEntity
  8
USP-GEO
100
AcDbPolyline
 90
        2
 70
   128
 43
0.0
 10
4.471416990652407
 20
0.9977542045257425
 10
4.351102099495125
 20
1.135256937276921
  0
LWPOLYLINE
  5
82
100
AcDbEntity
  8
USP-GEO
100
AcDbPolyline
 90
        2
 70
   128
 43
0.0
 10
4.5057926738402
 20
1.255571828434202
 10
4.5057926738402
 20
0.9977542045257425
  0
LWPOLYLINE
  5
83
100
AcDbEntity
  8
USP-GEO
100
AcDbPolyline
 90
        2
 70
   128
 43
0.0
 10
4.351102099495125
 20
1.135256937276921
 10
4.471416990652407
 20
1.255571828434202
  0
LWPOLYLINE
  5
84
100
AcDbEntity
  8
USP-GEO
100
AcDbPolyline
 90
        2
 70
   128
 43
0.0
 10
4.5057926738402
 20
0.9977542045257425
 10
4.471416990652407
 20
0.9977542045257425
  0
LWPOLYLINE
  5
85
100
AcDbEntity
  8
USP-GEO
100
AcDbPolyline
 90
        2
 70
   128
 43
0.0
 10
4.522980515434099
 20
0.9977542045257425
 10
4.5057926738402
 20
0.9977542045257425
  0
LWPOLYLINE
  5
86
100
AcDbEntity
  8
USP-GEO
100
AcDbPolyline
 90
        2
 70
   128
 43
0.0
 10
4.522980515434099
 20
1.255571828434202
 10
4.5057926738402
 20
1.255571828434202
  0
LWPOLYLINE
  5
87
100
AcDbEntity
  8
USP-GEO
100
AcDbPolyline
 90
        2
 70
   128
 43
0.0
 10
4.471416990652407
 20
1.255571828434202
 10
4.5057926738402
 20
1.255571828434202
  0
ARC
  5
88
100
AcDbEntity
  8
USP-GEO
100
AcDbCircle
 10
2.02782884923535
 20
0.3141636234903355
 30
0.0
 40
0.3020000000000001
100
AcDbArc
 50
99.36337610453186
 51
260.3741217264088
  0
ARC
  5
89
100
AcDbEntity
  8
USP-GEO
100
AcDbCircle
 10
4.527828849235321
 20
0.5016636234903924
 30
0.0
 40
0.3020000000000001
100
AcDbArc
 50
278.9861719713851
 51
81.34853464417643
  0
TEXT
  5
8A
100
AcDbEntity
  8
USP-TXT
100
AcDbText
 10
0.901002607796844
 20
-0.8985629362092613
 30
0.0
 40
0.25
  1
TFL25925 - TOP VIEW
 72
     1
 11
3.276002607796843
 21
-0.8985629362092613
 31
0.0
100
AcDbText
  0
ENDBLK
  5
91
100
AcDbEntity
  8
0
100
AcDbBlockEnd
  0
BLOCK
  5
10C
100
AcDbEntity
  8
0
100
AcDbBlockBegin
  2
TFL25925PR_F
 70
     0
 10
0.0
 20
0.0
 30
0.0
  3
TFL25925PR_F
  1

  0
LWPOLYLINE
  5
94
100
AcDbEntity
  8
USP-GEO
100
AcDbPolyline
 90
        2
 70
   128
 43
0.0
 10
6.551401999604579
 20
9.307216223095437
 10
4.642692190602274
 20
9.307216223095437
  0
LWPOLYLINE
  5
95
100
AcDbEntity
  8
USP-GEO
100
AcDbPolyline
 90
        2
 70
   128
 43
0.0
 10
1.908106593013198
 20
9.307216223095437
 10
-0.0006032159891069
 20
9.307216223095437
  0
LWPOLYLINE
  5
96
100
AcDbEntity
  8
USP-GEO
100
AcDbPolyline
 90
        2
 70
   128
 43
0.0
 10
-0.0006032159891069
 20
9.272840539907642
 10
-0.0006032159891069
 20
8.92822431595
  0
LWPOLYLINE
  5
97
100
AcDbEntity
  8
USP-GEO
100
AcDbPolyline
 90
        2
 70
   128
 43
0.0
 10
1.667476810698634
 20
4.851268289877538
 10
1.770603860262019
 20
4.730953398720256
  0
LWPOLYLINE
  5
98
100
AcDbEntity
  8
USP-GEO
100
AcDbPolyline
 90
        2
 70
   128
 43
0.0
 10
1.770603860262019
 20
4.730953398720256
 10
1.667476810698634
 20
4.627826349156872
  0
LWPOLYLINE
  5
99
100
AcDbEntity
  8
USP-GEO
100
AcDbPolyline
 90
        2
 70
   128
 43
0.0
 10
1.667476810698634
 20
4.627826349156872
 10
1.547161919541352
 20
4.730953398720256
  0
LWPOLYLINE
  5
9A
100
AcDbEntity
  8
USP-GEO
100
AcDbPolyline
 90
        2
 70
   128
 43
0.0
 10
1.547161919541352
 20
4.730953398720256
 10
1.667476810698634
 20
4.851268289877538
  0
CIRCLE
  5
9B
100
AcDbEntity
  8
USP-GEO
100
AcDbCircle
 10
1.529159033664026
 20
8.30907804501288
 30
0.0
 40
0.09
  0
ARC
  5
9C
100
AcDbEntity
  8
USP-GEO
100
AcDbCircle
 10
0.0100429721674656
 20
9.039961983516318
 30
0.0
 40
0.1058839385034389
100
AcDbArc
 50
264.5573784409974
 51
273.3505424067961
  0
ARC
  5
9D
100
AcDbEntity
  8
USP-GEO
100
AcDbCircle
 10
0.0100429721674656
 20
8.68407804501288
 30
0.0
 40
0.25
100
AcDbArc
 50
44.51012544566854
 51
88.46518451380521
  0
LWPOLYLINE
  5
9E
100
AcDbEntity
  8
USP-GEO
100
AcDbPolyline
 90
        2
 70
   128
 43
0.0
 10
0.1884630415437641
 20
8.85947294957441
 10
1.099418646020326
 20
7.827343061860872
  0
ARC
  5
9F
100
AcDbEntity
  8
USP-GEO
100
AcDbCircle
 10
0.7252256332462791
 20
7.501300900086731
 30
0.0
 40
0.5
100
AcDbArc
 50
359.939065337967
 51
41.0663151779785
  0
LWPOLYLINE
  5
A0
100
AcDbEntity
  8
USP-GEO
100
AcDbPolyline
 90
        2
 70
   128
 43
0.0
 10
1.220592929257302
 20
7.500774071576822
 10
1.220592929257302
 20
5.453702137743642
  0
ARC
  5
A1
100
AcDbEntity
  8
USP-GEO
100
AcDbCircle
 10
1.975225633246278
 20
5.46223989371151
 30
0.0
 40
0.75
100
AcDbArc
 50
180.6482047632171
 51
191.2016802246935
  0
LWPOLYLINE
  5
A2
100
AcDbEntity
  8
USP-GEO
100
AcDbPolyline
 90
        2
 70
   128
 43
0.0
 10
1.2377807708512
 20
5.316199404992463
 10
1.856543068231506
 20
2.16738682499046
  0
ARC
  5
A3
100
AcDbEntity
  8
USP-GEO
100
AcDbCircle
 10
1.97522563324625
 20
2.19970304501288
 30
0.0
 40
0.125
100
AcDbArc
 50
195.2318616303653
 51
254.523296823537
  0
LWPOLYLINE
  5
A4
100
AcDbEntity
  8
USP-GEO
100
AcDbPolyline
 90
        2
 70
   128
 43
0.0
 10
4.522377299444992
 20
7.827343061860872
 10
4.522377299444992
 20
8.85947294957441
  0
LWPOLYLINE
  5
A5
100
AcDbEntity
  8
USP-GEO
100
AcDbPolyline
 90
        2
 70
   128
 43
0.0
 10
4.522377299444992
 20
7.827343061860872
 10
4.522377299444992
 20
7.500774071576822
  0
LWPOLYLINE
  5
A6
100
AcDbEntity
  8
USP-GEO
100
AcDbPolyline
 90
        2
 70
   128
 43
0.0
 10
4.522377299444992
 20
7.500774071576822
 10
4.522377299444992
 20
5.453702137743642
  0
LWPOLYLINE
  5
A7
100
AcDbEntity
  8
USP-GEO
100
AcDbPolyline
 90
        2
 70
   128
 43
0.0
 10
4.522377299444992
 20
5.316199404992463
 10
4.522377299444992
 20
5.453702137743642
  0
LWPOLYLINE
  5
A8
100
AcDbEntity
  8
USP-GEO
100
AcDbPolyline
 90
        2
 70
   128
 43
0.0
 10
4.522377299444992
 20
2.16738682499046
 10
4.522377299444992
 20
5.316199404992463
  0
LWPOLYLINE
  5
A9
100
AcDbEntity
  8
USP-GEO
100
AcDbPolyline
 90
        2
 70
   128
 43
0.0
 10
4.522377299444992
 20
2.064259775427075
 10
4.522377299444992
 20
2.16738682499046
  0
LWPOLYLINE
  5
AA
100
AcDbEntity
  8
USP-GEO
100
AcDbPolyline
 90
        2
 70
   128
 43
0.0
 10
4.573940824226684
 20
2.16738682499046
 10
4.522377299444992
 20
2.16738682499046
  0
LWPOLYLINE
  5
AB
100
AcDbEntity
  8
USP-GEO
100
AcDbPolyline
 90
        2
 70
   128
 43
0.0
 10
4.522377299444992
 20
2.064259775427075
 10
4.522377299444992
 20
1.943944884269793
  0
LWPOLYLINE
  5
AC
100
AcDbEntity
  8
USP-GEO
100
AcDbPolyline
 90
        2
 70
   128
 43
0.0
 10
4.573940824226684
 20
2.064259775427075
 10
4.522377299444992
 20
2.064259775427075
  0
LWPOLYLINE
  5
AD
100
AcDbEntity
  8
USP-GEO
100
AcDbPolyline
 90
        2
 70
   128
 43
0.0
 10
4.522377299444992
 20
0.0859392079694868
 10
4.522377299444992
 20
1.943944884269793
  0
LWPOLYLINE
  5
AE
100
AcDbEntity
  8
USP-GEO
100
AcDbPolyline
 90
        2
 70
   128
 43
0.0
 10
1.976857959388788
 20
2.064259775427075
 10
2.028421484170479
 20
2.064259775427075
  0
LWPOLYLINE
  5
AF
100
AcDbEntity
  8
USP-GEO
100
AcDbPolyline
 90
        2
 70
   128
 43
0.0
 10
1.976857959388788
 20
2.16738682499046
 10
2.028421484170479
 20
2.16738682499046
  0
LWPOLYLINE
  5
B0
100
AcDbEntity
  8
USP-GEO
100
AcDbPolyline
 90
        2
 70
   128
 43
0.0
 10
4.522377299444992
 20
8.92822431595
 10
4.522377299444992
 20
8.85947294957441
  0
LWPOLYLINE
  5
B1
100
AcDbEntity
  8
USP-GEO
100
AcDbPolyline
 90
        2
 70
   128
 43
0.0
 10
4.573940824226684
 20
8.945412157543897
 10
4.539565141038889
 20
8.945412157543897
  0
LWPOLYLINE
  5
B2
100
AcDbEntity
  8
USP-GEO
100
AcDbPolyline
 90
        2
 70
   128
 43
0.0
 10
4.539565141038889
 20
8.945412157543897
 10
4.522377299444992
 20
8.92822431595
  0
LWPOLYLINE
  5
B3
100
AcDbEntity
  8
USP-GEO
100
AcDbPolyline
 90
        2
 70
   128
 43
0.0
 10
4.522377299444992
 20
8.945412157543897
 10
4.522377299444992
 20
8.92822431595
  0
LWPOLYLINE
  5
B4
100
AcDbEntity
  8
USP-GEO
100
AcDbPolyline
 90
        2
 70
   128
 43
0.0
 10
4.573940824226684
 20
1.943944884269793
 10
4.573940824226684
 20
0.0859392079694868
  0
LWPOLYLINE
  5
B5
100
AcDbEntity
  8
USP-GEO
100
AcDbPolyline
 90
        2
 70
   128
 43
0.0
 10
4.573940824226684
 20
2.064259775427075
 10
4.573940824226684
 20
1.943944884269793
  0
LWPOLYLINE
  5
B6
100
AcDbEntity
  8
USP-GEO
100
AcDbPolyline
 90
        2
 70
   128
 43
0.0
 10
4.573940824226684
 20
2.16738682499046
 10
4.573940824226684
 20
2.064259775427075
  0
LWPOLYLINE
  5
B7
100
AcDbEntity
  8
USP-GEO
100
AcDbPolyline
 90
        2
 70
   128
 43
0.0
 10
4.573940824226684
 20
5.316199404992463
 10
4.573940824226684
 20
2.16738682499046
  0
LWPOLYLINE
  5
B8
100
AcDbEntity
  8
USP-GEO
100
AcDbPolyline
 90
        2
 70
   128
 43
0.0
 10
4.573940824226684
 20
5.453702137743642
 10
4.573940824226684
 20
5.316199404992463
  0
LWPOLYLINE
  5
B9
100
AcDbEntity
  8
USP-GEO
100
AcDbPolyline
 90
        2
 70
   128
 43
0.0
 10
4.573940824226684
 20
7.500774071576822
 10
4.573940824226684
 20
5.453702137743642
  0
LWPOLYLINE
  5
BA
100
AcDbEntity
  8
USP-GEO
100
AcDbPolyline
 90
        2
 70
   128
 43
0.0
 10
4.573940824226684
 20
7.827343061860872
 10
4.573940824226684
 20
7.500774071576822
  0
LWPOLYLINE
  5
BB
100
AcDbEntity
  8
USP-GEO
100
AcDbPolyline
 90
        2
 70
   128
 43
0.0
 10
4.573940824226684
 20
8.85947294957441
 10
4.573940824226684
 20
7.827343061860872
  0
LWPOLYLINE
  5
BC
100
AcDbEntity
  8
USP-GEO
100
AcDbPolyline
 90
        2
 70
   128
 43
0.0
 10
4.573940824226684
 20
8.92822431595
 10
4.573940824226684
 20
8.85947294957441
  0
LWPOLYLINE
  5
BD
100
AcDbEntity
  8
USP-GEO
100
AcDbPolyline
 90
        2
 70
   128
 43
0.0
 10
4.573940824226684
 20
8.945412157543897
 10
4.573940824226684
 20
8.92822431595
  0
LWPOLYLINE
  5
BE
100
AcDbEntity
  8
USP-GEO
100
AcDbPolyline
 90
        2
 70
   128
 43
0.0
 10
4.573940824226684
 20
8.92822431595
 10
4.608316507414479
 20
8.945412157543897
  0
LWPOLYLINE
  5
BF
100
AcDbEntity
  8
USP-GEO
100
AcDbPolyline
 90
        2
 70
   128
 43
0.0
 10
4.608316507414479
 20
2.081447617020973
 10
4.573940824226684
 20
2.064259775427075
  0
ARC
  5
C0
100
AcDbEntity
  8
USP-GEO
100
AcDbCircle
 10
6.544408294325219
 20
9.039961983516432
 30
0.0
 40
0.1058839385034389
100
AcDbArc
 50
273.5814937159142
 51
274.020226046305
  0
ARC
  5
C1
100
AcDbEntity
  8
USP-GEO
100
AcDbCircle
 10
6.544408294325219
 20
8.684078045012993
 30
0.0
 40
0.25
100
AcDbArc
 50
88.35917933591403
 51
136.0701856291352
  0
LWPOLYLINE
  5
C2
100
AcDbEntity
  8
USP-GEO
100
AcDbPolyline
 90
        2
 70
   128
 43
0.0
 10
5.451380137595147
 20
7.827343061860872
 10
6.362335742071707
 20
8.85947294957441
  0
ARC
  5
C3
100
AcDbEntity
  8
USP-GEO
100
AcDbCircle
 10
5.829225633246406
 20
7.501300900086844
 30
0.0
 40
0.5
100
AcDbArc
 50
139.2091531361432
 51
180.060488662402
  0
LWPOLYLINE
  5
C4
100
AcDbEntity
  8
USP-GEO
100
AcDbPolyline
 90
        2
 70
   128
 43
0.0
 10
5.33020585435817
 20
5.453702137743642
 10
5.33020585435817
 20
7.500774071576822
  0
ARC
  5
C5
100
AcDbEntity
  8
USP-GEO
100
AcDbCircle
 10
4.579225633246406
 20
5.462239893711581
 30
0.0
 40
0.75
100
AcDbArc
 50
348.7439831190854
 51
359.348642885698
  0
LWPOLYLINE
  5
C6
100
AcDbEntity
  8
USP-GEO
100
AcDbPolyline
 90
        2
 70
   128
 43
0.0
 10
4.694255715383966
 20
2.16738682499046
 10
5.313018012764271
 20
5.316199404992463
  0
ARC
  5
C7
100
AcDbEntity
  8
USP-GEO
100
AcDbCircle
 10
4.579225633246434
 20
2.199703045012979
 30
0.0
 40
0.125
100
AcDbArc
 50
283.8203572906933
 51
344.3079761292482
  0
LWPOLYLINE
  5
C8
100
AcDbEntity
  8
USP-GEO
100
AcDbPolyline
 90
        2
 70
   128
 43
0.0
 10
4.608316507414479
 20
8.945412157543897
 10
4.573940824226684
 20
8.945412157543897
  0
ARC
  5
C9
100
AcDbEntity
  8
USP-GEO
100
AcDbCircle
 10
4.544408294325219
 20
9.039961983516432
 30
0.0
 40
0.1058839385034389
100
AcDbArc
 50
287.3461347964397
 51
5.484376972167902
  0
LWPOLYLINE
  5
CA
100
AcDbEntity
  8
USP-GEO
100
AcDbPolyline
 90
        2
 70
   128
 43
0.0
 10
4.642692190602274
 20
9.272840539907642
 10
4.642692190602274
 20
9.049398599186975
  0
LWPOLYLINE
  5
CB
100
AcDbEntity
  8
USP-GEO
100
AcDbPolyline
 90
        2
 70
   128
 43
0.0
 10
5.00363686407412
 20
4.730953398720256
 10
4.883321972916838
 20
4.627826349156872
  0
LWPOLYLINE
  5
CC
100
AcDbEntity
  8
USP-GEO
100
AcDbPolyline
 90
        2
 70
   128
 43
0.0
 10
4.883321972916838
 20
4.851268289877538
 10
5.00363686407412
 20
4.730953398720256
  0
LWPOLYLINE
  5
CD
100
AcDbEntity
  8
USP-GEO
100
AcDbPolyline
 90
        2
 70
   128
 43
0.0
 10
4.780194923353453
 20
4.730953398720256
 10
4.883321972916838
 20
4.851268289877538
  0
LWPOLYLINE
  5
CE
100
AcDbEntity
  8
USP-GEO
100
AcDbPolyline
 90
        2
 70
   128
 43
0.0
 10
4.883321972916838
 20
4.627826349156872
 10
4.780194923353453
 20
4.730953398720256
  0
CIRCLE
  5
CF
100
AcDbEntity
  8
USP-GEO
100
AcDbCircle
 10
5.025292232828658
 20
8.309078045012993
 30
0.0
 40
0.09
  0
LWPOLYLINE
  5
D0
100
AcDbEntity
  8
USP-GEO
100
AcDbPolyline
 90
        2
 70
   128
 43
0.0
 10
6.551401999604579
 20
8.92822431595
 10
6.551401999604579
 20
9.272840539907642
  0
LWPOLYLINE
  5
D1
100
AcDbEntity
  8
USP-GEO
100
AcDbPolyline
 90
        2
 70
   128
 43
0.0
 10
4.642692190602274
 20
9.358779747877129
 10
6.551401999604579
 20
9.358779747877129
  0
LWPOLYLINE
  5
D2
100
AcDbEntity
  8
USP-GEO
100
AcDbPolyline
 90
        2
 70
   128
 43
0.0
 10
6.551401999604579
 20
9.358779747877129
 10
6.551401999604579
 20
9.272840539907642
  0
LWPOLYLINE
  5
D3
100
AcDbEntity
  8
USP-GEO
100
AcDbPolyline
 90
        2
 70
   128
 43
0.0
 10
4.642692190602274
 20
9.272840539907642
 10
4.642692190602274
 20
9.358779747877129
  0
ARC
  5
D4
100
AcDbEntity
  8
USP-GEO
100
AcDbCircle
 10
2.010042972167465
 20
9.039961983516318
 30
0.0
 40
0.1058839385034389
100
AcDbArc
 50
174.7109988109338
 51
250.6599928591112
  0
LWPOLYLINE
  5
D5
100
AcDbEntity
  8
USP-GEO
100
AcDbPolyline
 90
        2
 70
   128
 43
0.0
 10
1.976857959388788
 20
8.945412157543897
 10
1.942482276200993
 20
8.945412157543897
  0
LWPOLYLINE
  5
D6
100
AcDbEntity
  8
USP-GEO
100
AcDbPolyline
 90
        2
 70
   128
 43
0.0
 10
2.011233642576583
 20
8.945412157543897
 10
1.976857959388788
 20
8.945412157543897
  0
LWPOLYLINE
  5
D7
100
AcDbEntity
  8
USP-GEO
100
AcDbPolyline
 90
        2
 70
   128
 43
0.0
 10
2.028421484170479
 20
8.945412157543897
 10
2.028421484170479
 20
8.92822431595
  0
LWPOLYLINE
  5
D8
100
AcDbEntity
  8
USP-GEO
100
AcDbPolyline
 90
        2
 70
   128
 43
0.0
 10
2.028421484170479
 20
8.92822431595
 10
2.011233642576583
 20
8.945412157543897
  0
LWPOLYLINE
  5
D9
100
AcDbEntity
  8
USP-GEO
100
AcDbPolyline
 90
        2
 70
   128
 43
0.0
 10
1.976857959388788
 20
8.85947294957441
 10
1.976857959388788
 20
8.92822431595
  0
LWPOLYLINE
  5
DA
100
AcDbEntity
  8
USP-GEO
100
AcDbPolyline
 90
        2
 70
   128
 43
0.0
 10
1.976857959388788
 20
7.827343061860872
 10
1.976857959388788
 20
8.85947294957441
  0
LWPOLYLINE
  5
DB
100
AcDbEntity
  8
USP-GEO
100
AcDbPolyline
 90
        2
 70
   128
 43
0.0
 10
1.976857959388788
 20
7.500774071576822
 10
1.976857959388788
 20
7.827343061860872
  0
LWPOLYLINE
  5
DC
100
AcDbEntity
  8
USP-GEO
100
AcDbPolyline
 90
        2
 70
   128
 43
0.0
 10
1.976857959388788
 20
5.453702137743642
 10
1.976857959388788
 20
7.500774071576822
  0
LWPOLYLINE
  5
DD
100
AcDbEntity
  8
USP-GEO
100
AcDbPolyline
 90
        2
 70
   128
 43
0.0
 10
1.976857959388788
 20
5.316199404992463
 10
1.976857959388788
 20
5.453702137743642
  0
LWPOLYLINE
  5
DE
100
AcDbEntity
  8
USP-GEO
100
AcDbPolyline
 90
        2
 70
   128
 43
0.0
 10
1.976857959388788
 20
2.16738682499046
 10
1.976857959388788
 20
5.316199404992463
  0
LWPOLYLINE
  5
DF
100
AcDbEntity
  8
USP-GEO
100
AcDbPolyline
 90
        2
 70
   128
 43
0.0
 10
1.976857959388788
 20
2.064259775427075
 10
1.976857959388788
 20
2.16738682499046
  0
LWPOLYLINE
  5
E0
100
AcDbEntity
  8
USP-GEO
100
AcDbPolyline
 90
        2
 70
   128
 43
0.0
 10
1.976857959388788
 20
1.943944884269793
 10
1.976857959388788
 20
2.064259775427075
  0
LWPOLYLINE
  5
E1
100
AcDbEntity
  8
USP-GEO
100
AcDbPolyline
 90
        2
 70
   128
 43
0.0
 10
1.976857959388788
 20
0.0859392079694868
 10
1.976857959388788
 20
1.943944884269793
  0
LWPOLYLINE
  5
E2
100
AcDbEntity
  8
USP-GEO
100
AcDbPolyline
 90
        2
 70
   128
 43
0.0
 10
1.976857959388788
 20
8.945412157543897
 10
1.976857959388788
 20
8.92822431595
  0
LWPOLYLINE
  5
E3
100
AcDbEntity
  8
USP-GEO
100
AcDbPolyline
 90
        2
 70
   128
 43
0.0
 10
1.976857959388788
 20
2.064259775427075
 10
1.942482276200993
 20
2.081447617020973
  0
LWPOLYLINE
  5
E4
100
AcDbEntity
  8
USP-GEO
100
AcDbPolyline
 90
        2
 70
   128
 43
0.0
 10
1.942482276200993
 20
8.945412157543897
 10
1.976857959388788
 20
8.92822431595
  0
LWPOLYLINE
  5
E5
100
AcDbEntity
  8
USP-GEO
100
AcDbPolyline
 90
        2
 70
   128
 43
0.0
 10
1.908106593013198
 20
9.049398599186975
 10
1.908106593013198
 20
9.272840539907642
  0
LWPOLYLINE
  5
E6
100
AcDbEntity
  8
USP-GEO
100
AcDbPolyline
 90
        2
 70
   128
 43
0.0
 10
-0.0006032159891069
 20
9.358779747877129
 10
1.908106593013198
 20
9.358779747877129
  0
LWPOLYLINE
  5
E7
100
AcDbEntity
  8
USP-GEO
100
AcDbPolyline
 90
        2
 70
   128
 43
0.0
 10
1.908106593013198
 20
9.358779747877129
 10
1.908106593013198
 20
9.272840539907642
  0
LWPOLYLINE
  5
E8
100
AcDbEntity
  8
USP-GEO
100
AcDbPolyline
 90
        2
 70
   128
 43
0.0
 10
-0.0006032159891069
 20
9.272840539907642
 10
-0.0006032159891069
 20
9.358779747877129
  0
ARC
  5
E9
100
AcDbEntity
  8
USP-GEO
100
AcDbCircle
 10
4.489225633246218
 20
0.097078045012891
 30
0.0
 40
0.09
100
AcDbArc
 50
269.2776194506698
 51
352.5093936109166
  0
LWPOLYLINE
  5
EA
100
AcDbEntity
  8
USP-GEO
100
AcDbPolyline
 90
        2
 70
   128
 43
0.0
 10
2.062797167358275
 20
0.0515635247816917
 10
4.488001616257197
 20
0.0515635247816917
  0
ARC
  5
EB
100
AcDbEntity
  8
USP-GEO
100
AcDbCircle
 10
4.489225633246516
 20
0.097078045012891
 30
0.0
 40
0.038
100
AcDbArc
 50
268.4595222002798
 51
341.4278421932444
  0
LWPOLYLINE
  5
EC
100
AcDbEntity
  8
USP-GEO
100
AcDbPolyline
 90
        2
 70
   128
 43
0.0
 10
2.028421484170479
 20
0.0859392079694868
 10
2.028421484170479
 20
1.943944884269793
  0
LWPOLYLINE
  5
ED
100
AcDbEntity
  8
USP-GEO
100
AcDbPolyline
 90
        2
 70
   128
 43
0.0
 10
2.028421484170479
 20
1.943944884269793
 10
2.028421484170479
 20
2.064259775427075
  0
LWPOLYLINE
  5
EE
100
AcDbEntity
  8
USP-GEO
100
AcDbPolyline
 90
        2
 70
   128
 43
0.0
 10
2.028421484170479
 20
2.16738682499046
 10
2.028421484170479
 20
2.064259775427075
  0
LWPOLYLINE
  5
EF
100
AcDbEntity
  8
USP-GEO
100
AcDbPolyline
 90
        2
 70
   128
 43
0.0
 10
2.028421484170479
 20
2.16738682499046
 10
2.028421484170479
 20
5.316199404992463
  0
LWPOLYLINE
  5
F0
100
AcDbEntity
  8
USP-GEO
100
AcDbPolyline
 90
        2
 70
   128
 43
0.0
 10
2.028421484170479
 20
5.453702137743642
 10
2.028421484170479
 20
5.316199404992463
  0
LWPOLYLINE
  5
F1
100
AcDbEntity
  8
USP-GEO
100
AcDbPolyline
 90
        2
 70
   128
 43
0.0
 10
2.028421484170479
 20
7.500774071576822
 10
2.028421484170479
 20
5.453702137743642
  0
LWPOLYLINE
  5
F2
100
AcDbEntity
  8
USP-GEO
100
AcDbPolyline
 90
        2
 70
   128
 43
0.0
 10
2.028421484170479
 20
7.500774071576822
 10
2.028421484170479
 20
7.827343061860872
  0
LWPOLYLINE
  5
F3
100
AcDbEntity
  8
USP-GEO
100
AcDbPolyline
 90
        2
 70
   128
 43
0.0
 10
2.028421484170479
 20
7.827343061860872
 10
2.028421484170479
 20
8.85947294957441
  0
LWPOLYLINE
  5
F4
100
AcDbEntity
  8
USP-GEO
100
AcDbPolyline
 90
        2
 70
   128
 43
0.0
 10
2.028421484170479
 20
8.85947294957441
 10
2.028421484170479
 20
8.92822431595
  0
ARC
  5
F5
100
AcDbEntity
  8
USP-GEO
100
AcDbCircle
 10
2.065225633246239
 20
0.097078045012891
 30
0.0
 40
0.038
100
AcDbArc
 50
196.8385269745742
 51
266.9458310690473
  0
LWPOLYLINE
  5
F6
100
AcDbEntity
  8
USP-GEO
100
AcDbPolyline
 90
        2
 70
   128
 43
0.0
 10
4.488001616257197
 20
0.0
 10
2.062797167358275
 20
0.0
  0
ARC
  5
F7
100
AcDbEntity
  8
USP-GEO
100
AcDbCircle
 10
2.065225633246225
 20
0.097078045012891
 30
0.0
 40
0.09
100
AcDbArc
 50
187.1843022558252
 51
268.5670103567409
  0
LWPOLYLINE
  5
F8
100
AcDbEntity
  8
USP-GEO
100
AcDbPolyline
 90
        2
 70
   128
 43
0.0
 10
4.677067873790069
 20
1.479013769154869
 10
4.780194923353453
 20
1.375886719591486
  0
LWPOLYLINE
  5
F9
100
AcDbEntity
  8
USP-GEO
100
AcDbPolyline
 90
        2
 70
   128
 43
0.0
 10
1.873730909825403
 20
1.479013769154869
 10
1.770603860262019
 20
1.375886719591486
  0
LWPOLYLINE
  5
FA
100
AcDbEntity
  8
USP-GEO
100
AcDbPolyline
 90
        2
 70
   128
 43
0.0
 10
2.062797167358275
 20
0.8602514717745641
 10
2.183112058515556
 20
0.7915001053989741
  0
LWPOLYLINE
  5
FB
100
AcDbEntity
  8
USP-GEO
100
AcDbPolyline
 90
        2
 70
   128
 43
0.0
 10
2.148736375327761
 20
0.7571244222111791
 10
2.045609325764378
 20
0.8258757885867691
  0
LWPOLYLINE
  5
FC
100
AcDbEntity
  8
USP-GEO
100
AcDbPolyline
 90
        2
 70
   128
 43
0.0
 10
2.148736375327761
 20
0.7571244222111791
 10
2.183112058515556
 20
0.7915001053989741
  0
LWPOLYLINE
  5
FD
100
AcDbEntity
  8
USP-GEO
100
AcDbPolyline
 90
        2
 70
   128
 43
0.0
 10
2.028421484170479
 20
0.8946271549623592
 10
2.062797167358275
 20
0.8602514717745641
  0
LWPOLYLINE
  5
FE
100
AcDbEntity
  8
USP-GEO
100
AcDbPolyline
 90
        2
 70
   128
 43
0.0
 10
2.045609325764378
 20
0.8258757885867691
 10
2.062797167358275
 20
0.8602514717745641
  0
LWPOLYLINE
  5
FF
100
AcDbEntity
  8
USP-GEO
100
AcDbPolyline
 90
        2
 70
   128
 43
0.0
 10
2.045609325764378
 20
0.8258757885867691
 10
2.028421484170479
 20
0.8258757885867691
  0
LWPOLYLINE
  5
100
100
AcDbEntity
  8
USP-GEO
100
AcDbPolyline
 90
        2
 70
   128
 43
0.0
 10
4.470813774663301
 20
0.8602514717745641
 10
4.350498883506019
 20
0.7915001053989741
  0
LWPOLYLINE
  5
101
100
AcDbEntity
  8
USP-GEO
100
AcDbPolyline
 90
        2
 70
   128
 43
0.0
 10
4.384874566693812
 20
0.7571244222111791
 10
4.488001616257197
 20
0.8258757885867691
  0
LWPOLYLINE
  5
102
100
AcDbEntity
  8
USP-GEO
100
AcDbPolyline
 90
        2
 70
   128
 43
0.0
 10
4.384874566693812
 20
0.7571244222111791
 10
4.350498883506019
 20
0.7915001053989741
  0
LWPOLYLINE
  5
103
100
AcDbEntity
  8
USP-GEO
100
AcDbPolyline
 90
        2
 70
   128
 43
0.0
 10
4.488001616257197
 20
0.8258757885867691
 10
4.522377299444992
 20
0.8430636301806657
  0
LWPOLYLINE
  5
104
100
AcDbEntity
  8
USP-GEO
100
AcDbPolyline
 90
        2
 70
   128
 43
0.0
 10
4.488001616257197
 20
0.8258757885867691
 10
4.470813774663301
 20
0.8602514717745641
  0
LWPOLYLINE
  5
105
100
AcDbEntity
  8
USP-GEO
100
AcDbPolyline
 90
        2
 70
   128
 43
0.0
 10
4.505189457851094
 20
0.8946271549623592
 10
4.470813774663301
 20
0.8602514717745641
  0
LWPOLYLINE
  5
106
100
AcDbEntity
  8
USP-GEO
100
AcDbPolyline
 90
        2
 70
   128
 43
0.0
 10
4.522377299444992
 20
0.8602514717745641
 10
4.505189457851094
 20
0.8946271549623592
  0
ARC
  5
107
100
AcDbEntity
  8
USP-GEO
100
AcDbCircle
 10
2.027225633246243
 20
1.230328045012994
 30
0.0
 40
0.302
100
AcDbArc
 50
99.52286448268969
 51
121.6838680821407
  0
ARC
  5
108
100
AcDbEntity
  8
USP-GEO
100
AcDbCircle
 10
2.027225633246243
 20
1.230328045012994
 30
0.0
 40
0.3020000000000001
100
AcDbArc
 50
150.4376188725239
 51
260.5105198067619
  0
ARC
  5
109
100
AcDbEntity
  8
USP-GEO
100
AcDbCircle
 10
4.527225633246215
 20
1.230328045012909
 30
0.0
 40
0.3020000000000001
100
AcDbArc
 50
58.92949971003123
 51
81.15636841832181
  0
ARC
  5
10A
100
AcDbEntity
  8
USP-GEO
100
AcDbCircle
 10
4.527225633246215
 20
1.230328045012909
 30
0.0
 40
0.302
100
AcDbArc
 50
278.8125497027475
 51
29.91614726237378
  0
TEXT
  5
10B
100
AcDbEntity
  8
USP-TXT
100
AcDbText
 10
0.6503993918077371
 20
-0.9001758523047644
 30
0.0
 40
0.25
  1
TFL25925 - FRONT VIEW
 72
     1
 11
3.275399391807736
 21
-0.9001758523047644
 31
0.0
100
AcDbText
  0
ENDBLK
  5
10D
100
AcDbEntity
  8
0
100
AcDbBlockEnd
  0
BLOCK
  5
157
100
AcDbEntity
  8
0
100
AcDbBlockBegin
  2
TFL25925PR_S
 70
     0
 10
0.0
 20
0.0
 30
0.0
  3
TFL25925PR_S
  1

  0
LWPOLYLINE
  5
110
100
AcDbEntity
  8
USP-GEO
100
AcDbPolyline
 90
        2
 70
   128
 43
0.0
 10
1.994649016971791
 20
0.0515635247816917
 10
0.0
 20
0.0515635247816917
  0
LWPOLYLINE
  5
111
100
AcDbEntity
  8
USP-GEO
100
AcDbPolyline
 90
        2
 70
   128
 43
0.0
 10
2.149339591316866
 20
2.064259775427075
 10
2.183715274504663
 20
2.064259775427075
  0
LWPOLYLINE
  5
112
100
AcDbEntity
  8
USP-GEO
100
AcDbPolyline
 90
        2
 70
   128
 43
0.0
 10
2.132151749722972
 20
2.064259775427075
 10
2.149339591316866
 20
2.064259775427075
  0
LWPOLYLINE
  5
113
100
AcDbEntity
  8
USP-GEO
100
AcDbPolyline
 90
        2
 70
   128
 43
0.0
 10
2.149339591316866
 20
2.16738682499046
 10
2.200903116098562
 20
2.16738682499046
  0
LWPOLYLINE
  5
114
100
AcDbEntity
  8
USP-GEO
100
AcDbPolyline
 90
        2
 70
   128
 43
0.0
 10
2.183715274504663
 20
2.064259775427075
 10
2.200903116098562
 20
2.081447617020973
  0
LWPOLYLINE
  5
115
100
AcDbEntity
  8
USP-GEO
100
AcDbPolyline
 90
        2
 70
   128
 43
0.0
 10
2.200903116098562
 20
2.081447617020973
 10
2.200903116098562
 20
2.16738682499046
  0
LWPOLYLINE
  5
116
100
AcDbEntity
  8
USP-GEO
100
AcDbPolyline
 90
        2
 70
   128
 43
0.0
 10
2.200903116098562
 20
2.16738682499046
 10
2.200903116098562
 20
5.316199404992463
  0
LWPOLYLINE
  5
117
100
AcDbEntity
  8
USP-GEO
100
AcDbPolyline
 90
        2
 70
   128
 43
0.0
 10
2.200903116098562
 20
5.316199404992463
 10
2.200903116098562
 20
5.453702137743642
  0
LWPOLYLINE
  5
118
100
AcDbEntity
  8
USP-GEO
100
AcDbPolyline
 90
        2
 70
   128
 43
0.0
 10
2.200903116098562
 20
7.500774071576822
 10
2.200903116098562
 20
5.453702137743642
  0
LWPOLYLINE
  5
119
100
AcDbEntity
  8
USP-GEO
100
AcDbPolyline
 90
        2
 70
   128
 43
0.0
 10
2.200903116098562
 20
7.827343061860872
 10
2.200903116098562
 20
7.500774071576822
  0
LWPOLYLINE
  5
11A
100
AcDbEntity
  8
USP-GEO
100
AcDbPolyline
 90
        2
 70
   128
 43
0.0
 10
2.200903116098562
 20
7.827343061860872
 10
2.200903116098562
 20
8.85947294957441
  0
LWPOLYLINE
  5
11B
100
AcDbEntity
  8
USP-GEO
100
AcDbPolyline
 90
        2
 70
   128
 43
0.0
 10
2.200903116098562
 20
8.92822431595
 10
2.200903116098562
 20
8.85947294957441
  0
LWPOLYLINE
  5
11C
100
AcDbEntity
  8
USP-GEO
100
AcDbPolyline
 90
        2
 70
   128
 43
0.0
 10
2.200903116098562
 20
8.945412157543897
 10
2.200903116098562
 20
8.92822431595
  0
CIRCLE
  5
11D
100
AcDbEntity
  8
USP-GEO
100
AcDbCircle
 10
1.397470460189744
 20
7.309078045012936
 30
0.0
 40
0.15625
  0
LWPOLYLINE
  5
11E
100
AcDbEntity
  8
USP-GEO
100
AcDbPolyline
 90
        2
 70
   128
 43
0.0
 10
1.719643551469435
 20
3.612884303037231
 10
1.599328660312153
 20
3.509757253473846
  0
LWPOLYLINE
  5
11F
100
AcDbEntity
  8
USP-GEO
100
AcDbPolyline
 90
        2
 70
   128
 43
0.0
 10
1.599328660312153
 20
3.733199194194513
 10
1.719643551469435
 20
3.612884303037231
  0
LWPOLYLINE
  5
120
100
AcDbEntity
  8
USP-GEO
100
AcDbPolyline
 90
        2
 70
   128
 43
0.0
 10
1.496201610748766
 20
3.612884303037231
 10
1.599328660312153
 20
3.733199194194513
  0
LWPOLYLINE
  5
121
100
AcDbEntity
  8
USP-GEO
100
AcDbPolyline
 90
        2
 70
   128
 43
0.0
 10
1.599328660312153
 20
3.509757253473846
 10
1.496201610748766
 20
3.612884303037231
  0
LWPOLYLINE
  5
122
100
AcDbEntity
  8
USP-GEO
100
AcDbPolyline
 90
        2
 70
   128
 43
0.0
 10
1.255571828434202
 20
0.8430636301806657
 10
1.117209703603329
 20
0.7047015053497923
  0
LWPOLYLINE
  5
123
100
AcDbEntity
  8
USP-GEO
100
AcDbPolyline
 90
        2
 70
   128
 43
0.0
 10
0.9968948124460474
 20
0.8946271549623592
 10
1.255571828434202
 20
0.8946271549623592
  0
LWPOLYLINE
  5
124
100
AcDbEntity
  8
USP-GEO
100
AcDbPolyline
 90
        2
 70
   128
 43
0.0
 10
1.117209703603329
 20
0.7047015053497923
 10
0.9968948124460474
 20
0.8430636301806657
  0
LWPOLYLINE
  5
125
100
AcDbEntity
  8
USP-GEO
100
AcDbPolyline
 90
        2
 70
   128
 43
0.0
 10
0.0
 20
1.943944884269793
 10
0.0
 20
0.0859392079694868
  0
ARC
  5
126
100
AcDbEntity
  8
USP-GEO
100
AcDbCircle
 10
0.1247870597719398
 20
1.949703045012922
 30
0.0
 40
0.125
100
AcDbArc
 50
92.2356288778433
 51
182.6419762365257
  0
LWPOLYLINE
  5
127
100
AcDbEntity
  8
USP-GEO
100
AcDbPolyline
 90
        2
 70
   128
 43
0.0
 10
0.154690574345075
 20
2.064259775427075
 10
0.1203148911572818
 20
2.064259775427075
  0
ARC
  5
128
100
AcDbEntity
  8
USP-GEO
100
AcDbCircle
 10
0.1474704601897301
 20
2.199703045012922
 30
0.0
 40
0.125
100
AcDbArc
 50
273.0513947850273
 51
345.7810428303959
  0
LWPOLYLINE
  5
129
100
AcDbEntity
  8
USP-GEO
100
AcDbPolyline
 90
        2
 70
   128
 43
0.0
 10
0.8765799212887657
 20
5.316199404992463
 10
0.2750054655023568
 20
2.16738682499046
  0
ARC
  5
12A
100
AcDbEntity
  8
USP-GEO
100
AcDbCircle
 10
0.1474704601897159
 20
5.462239893711524
 30
0.0
 40
0.75
100
AcDbArc
 50
348.6735511518955
 51
359.3445560600664
  0
LWPOLYLINE
  5
12B
100
AcDbEntity
  8
USP-GEO
100
AcDbPolyline
 90
        2
 70
   128
 43
0.0
 10
0.8937677628826641
 20
7.500774071576822
 10
0.8937677628826641
 20
5.453702137743642
  0
ARC
  5
12C
100
AcDbEntity
  8
USP-GEO
100
AcDbCircle
 10
1.397470460189744
 20
7.501300900086787
 30
0.0
 40
0.5
100
AcDbArc
 50
138.3200764343771
 51
180.0599263003807
  0
LWPOLYLINE
  5
12D
100
AcDbEntity
  8
USP-GEO
100
AcDbPolyline
 90
        2
 70
   128
 43
0.0
 10
1.925897650596201
 20
8.85947294957441
 10
1.031270495633844
 20
7.827343061860872
  0
ARC
  5
12E
100
AcDbEntity
  8
USP-GEO
100
AcDbCircle
 10
2.1126531212685
 20
8.684078045012936
 30
0.0
 40
0.25
100
AcDbArc
 50
89.45772515518042
 51
136.7967649599456
  0
LWPOLYLINE
  5
12F
100
AcDbEntity
  8
USP-GEO
100
AcDbPolyline
 90
        2
 70
   128
 43
0.0
 10
2.114963908129073
 20
2.064259775427075
 10
2.132151749722972
 20
2.064259775427075
  0
ARC
  5
130
100
AcDbEntity
  8
USP-GEO
100
AcDbCircle
 10
2.124787059771939
 20
1.949703045012922
 30
0.0
 40
0.125
100
AcDbArc
 50
86.32159754963934
 51
182.5334886995098
  0
LWPOLYLINE
  5
131
100
AcDbEntity
  8
USP-GEO
100
AcDbPolyline
 90
        2
 70
   128
 43
0.0
 10
2.114963908129073
 20
8.92822431595
 10
2.115823300208766
 20
8.92822431595
  0
LWPOLYLINE
  5
132
100
AcDbEntity
  8
USP-GEO
100
AcDbPolyline
 90
        2
 70
   128
 43
0.0
 10
2.114963908129073
 20
8.92822431595
 10
2.149339591316866
 20
8.945412157543897
  0
LWPOLYLINE
  5
133
100
AcDbEntity
  8
USP-GEO
100
AcDbPolyline
 90
        2
 70
   128
 43
0.0
 10
2.149339591316866
 20
2.081447617020973
 10
2.114963908129073
 20
2.064259775427075
  0
LWPOLYLINE
  5
134
100
AcDbEntity
  8
USP-GEO
100
AcDbPolyline
 90
        2
 70
   128
 43
0.0
 10
2.149339591316866
 20
8.945412157543897
 10
2.149339591316866
 20
8.92822431595
  0
LWPOLYLINE
  5
135
100
AcDbEntity
  8
USP-GEO
100
AcDbPolyline
 90
        2
 70
   128
 43
0.0
 10
2.149339591316866
 20
8.85947294957441
 10
2.149339591316866
 20
8.92822431595
  0
LWPOLYLINE
  5
136
100
AcDbEntity
  8
USP-GEO
100
AcDbPolyline
 90
        2
 70
   128
 43
0.0
 10
2.149339591316866
 20
7.827343061860872
 10
2.149339591316866
 20
8.85947294957441
  0
LWPOLYLINE
  5
137
100
AcDbEntity
  8
USP-GEO
100
AcDbPolyline
 90
        2
 70
   128
 43
0.0
 10
2.149339591316866
 20
7.500774071576822
 10
2.149339591316866
 20
7.827343061860872
  0
LWPOLYLINE
  5
138
100
AcDbEntity
  8
USP-GEO
100
AcDbPolyline
 90
        2
 70
   128
 43
0.0
 10
2.149339591316866
 20
5.453702137743642
 10
2.149339591316866
 20
7.500774071576822
  0
LWPOLYLINE
  5
139
100
AcDbEntity
  8
USP-GEO
100
AcDbPolyline
 90
        2
 70
   128
 43
0.0
 10
2.149339591316866
 20
5.316199404992463
 10
2.149339591316866
 20
5.453702137743642
  0
LWPOLYLINE
  5
13A
100
AcDbEntity
  8
USP-GEO
100
AcDbPolyline
 90
        2
 70
   128
 43
0.0
 10
2.149339591316866
 20
2.16738682499046
 10
2.149339591316866
 20
5.316199404992463
  0
LWPOLYLINE
  5
13B
100
AcDbEntity
  8
USP-GEO
100
AcDbPolyline
 90
        2
 70
   128
 43
0.0
 10
2.149339591316866
 20
2.081447617020973
 10
2.149339591316866
 20
2.16738682499046
  0
LWPOLYLINE
  5
13C
100
AcDbEntity
  8
USP-GEO
100
AcDbPolyline
 90
        2
 70
   128
 43
0.0
 10
2.235278799286355
 20
9.358779747877129
 10
3.697104726847328
 20
9.358779747877129
  0
LWPOLYLINE
  5
13D
100
AcDbEntity
  8
USP-GEO
100
AcDbPolyline
 90
        2
 70
   128
 43
0.0
 10
3.697104726847328
 20
9.358779747877129
 10
3.697104726847328
 20
9.307216223095437
  0
LWPOLYLINE
  5
13E
100
AcDbEntity
  8
USP-GEO
100
AcDbPolyline
 90
        2
 70
   128
 43
0.0
 10
3.697104726847328
 20
9.307216223095437
 10
2.235278799286355
 20
9.307216223095437
  0
ARC
  5
13F
100
AcDbEntity
  8
USP-GEO
100
AcDbCircle
 10
2.237470460189719
 20
9.271078045012968
 30
0.0
 40
0.038
100
AcDbArc
 50
93.47054865838709
 51
177.2405589808709
  0
LWPOLYLINE
  5
140
100
AcDbEntity
  8
USP-GEO
100
AcDbPolyline
 90
        2
 70
   128
 43
0.0
 10
2.200903116098562
 20
9.272840539907642
 10
2.200903116098562
 20
8.92822431595
  0
LWPOLYLINE
  5
141
100
AcDbEntity
  8
USP-GEO
100
AcDbPolyline
 90
        2
 70
   128
 43
0.0
 10
2.149339591316866
 20
8.92822431595
 10
2.200903116098562
 20
8.92822431595
  0
LWPOLYLINE
  5
142
100
AcDbEntity
  8
USP-GEO
100
AcDbPolyline
 90
        2
 70
   128
 43
0.0
 10
2.149339591316866
 20
8.92822431595
 10
2.149339591316866
 20
9.272840539907642
  0
ARC
  5
143
100
AcDbEntity
  8
USP-GEO
100
AcDbCircle
 10
2.23747046018969
 20
9.271078045012997
 30
0.0
 40
0.09
100
AcDbArc
 50
91.43152054732958
 51
178.8543167587066
  0
LWPOLYLINE
  5
144
100
AcDbEntity
  8
USP-GEO
100
AcDbPolyline
 90
        2
 70
   128
 43
0.0
 10
0.0
 20
0.0
 10
0.0
 20
0.0859392079694868
  0
LWPOLYLINE
  5
145
100
AcDbEntity
  8
USP-GEO
100
AcDbPolyline
 90
        2
 70
   128
 43
0.0
 10
1.994649016971791
 20
0.0859392079694868
 10
1.994649016971791
 20
0.0
  0
LWPOLYLINE
  5
146
100
AcDbEntity
  8
USP-GEO
100
AcDbPolyline
 90
        2
 70
   128
 43
0.0
 10
1.994649016971791
 20
0.0859392079694868
 10
1.994649016971791
 20
1.943944884269793
  0
LWPOLYLINE
  5
147
100
AcDbEntity
  8
USP-GEO
100
AcDbPolyline
 90
        2
 70
   128
 43
0.0
 10
1.994649016971791
 20
0.0
 10
0.0
 20
0.0
  0
ELLIPSE
  5
148
100
AcDbEntity
  8
USP-GEO
  6
CONTINUOUS
100
AcDbEllipse
 10
0.5020059242176345
 20
1.398280419214641
 30
0.0
 11
-0.078000000000003
 21
0.0000000000000014
 31
0.0
210
0.0
220
0.0
230
1.0
 40
0.7071067811865476
 41
3.395888053785407
 42
6.052999089615569
1001
ACAD
1000
RTLwPs
1070
   128
  0
CIRCLE
  5
149
100
AcDbEntity
  8
USP-GEO
100
AcDbCircle
 10
0.5020059242176345
 20
1.230328045012909
 30
0.0
 40
0.2974894956128692
  0
ELLIPSE
  5
14A
100
AcDbEntity
  8
USP-GEO
  6
CONTINUOUS
100
AcDbEllipse
 10
0.5020059242176345
 20
1.436628796344548
 30
0.0
 11
-0.078000000000003
 21
0.0000000000000009
 31
0.0
210
0.0
220
0.0
230
1.0
 40
0.7071067811865476
 41
0.1776194187981287
 42
0.1797103506851786
1001
ACAD
1000
RTLwPs
1070
   128
  0
ELLIPSE
  5
14B
100
AcDbEntity
  8
USP-GEO
  6
CONTINUOUS
100
AcDbEllipse
 10
0.5020059242176345
 20
1.436628796344548
 30
0.0
 11
-0.078000000000003
 21
0.0000000000000009
 31
0.0
210
0.0
220
0.0
230
1.0
 40
0.7071067811865476
 41
6.125966417923194
 42
8.198427364505921
1001
ACAD
1000
RTLwPs
1070
   128
  0
ELLIPSE
  5
14C
100
AcDbEntity
  8
USP-GEO
  6
CONTINUOUS
100
AcDbEllipse
 10
0.5020059242176345
 20
1.436628796344548
 30
0.0
 11
-0.078000000000003
 21
0.0000000000000009
 31
0.0
210
0.0
220
0.0
230
1.0
 40
0.7071067811865476
 41
5.266313161382917
 42
6.12780483565964
1001
ACAD
1000
RTLwPs
1070
   128
  0
ELLIPSE
  5
14D
100
AcDbEntity
  8
USP-GEO
  6
CONTINUOUS
100
AcDbEllipse
 10
0.5020059242176345
 20
1.436628796344548
 30
0.0
 11
-0.078000000000003
 21
0.0000000000000009
 31
0.0
210
0.0
220
0.0
230
1.0
 40
0.7071067811865476
 41
5.276616717979849
 42
10.50941975477265
1001
ACAD
1000
RTLwPs
1070
   128
  0
ELLIPSE
  5
14E
100
AcDbEntity
  8
USP-GEO
  6
CONTINUOUS
100
AcDbEllipse
 10
0.5020059242176345
 20
1.436628796344548
 30
0.0
 11
-0.078000000000003
 21
0.0000000000000009
 31
0.0
210
0.0
220
0.0
230
1.0
 40
0.7071067811865476
 41
3.641818372229435
 42
4.237508086027824
1001
ACAD
1000
RTLwPs
1070
   128
  0
ELLIPSE
  5
14F
100
AcDbEntity
  8
USP-GEO
  6
CONTINUOUS
100
AcDbEllipse
 10
0.5020059242176345
 20
1.436628796344548
 30
0.0
 11
-0.078000000000003
 21
0.0000000000000009
 31
0.0
210
0.0
220
0.0
230
1.0
 40
0.7071067811865476
 41
1.924077298263581
 42
3.636326300661697
1001
ACAD
1000
RTLwPs
1070
   128
  0
ARC
  5
150
100
AcDbEntity
  8
USP-GEO
100
AcDbCircle
 10
0.3145059242175918
 20
1.230328045012994
 30
0.0
 40
0.25
100
AcDbArc
 50
35.89351798241922
 51
56.1165559723321
  0
LWPOLYLINE
  5
151
100
AcDbEntity
  8
USP-GEO
100
AcDbPolyline
 90
        2
 70
   128
 43
0.0
 10
0.9968948124460474
 20
0.8430636301806657
 10
0.9968948124460474
 20
0.8946271549623592
  0
LWPOLYLINE
  5
152
100
AcDbEntity
  8
USP-GEO
100
AcDbPolyline
 90
        2
 70
   128
 43
0.0
 10
1.255571828434202
 20
0.8946271549623592
 10
1.255571828434202
 20
0.8430636301806657
  0
LWPOLYLINE
  5
153
100
AcDbEntity
  8
USP-GEO
100
AcDbPolyline
 90
        2
 70
   128
 43
0.0
 10
1.117209703603329
 20
0.7571244222111791
 10
1.031270495633844
 20
0.8086879469928707
  0
LWPOLYLINE
  5
154
100
AcDbEntity
  8
USP-GEO
100
AcDbPolyline
 90
        2
 70
   128
 43
0.0
 10
0.9968948124460474
 20
0.8430636301806657
 10
1.255571828434202
 20
0.8430636301806657
  0
LWPOLYLINE
  5
155
100
AcDbEntity
  8
USP-GEO
100
AcDbPolyline
 90
        2
 70
   128
 43
0.0
 10
1.221196145246409
 20
0.8086879469928707
 10
1.117209703603329
 20
0.7571244222111791
  0
TEXT
  5
156
100
AcDbEntity
  8
USP-TXT
100
AcDbText
 10
-0.6097809699096688
 20
-0.9001758523047644
 30
0.0
 40
0.25
  1
TFL25925 - SIDE VIEW
 72
     1
 11
1.848552363423664
 21
-0.9001758523047644
 31
0.0
100
AcDbText
  0
ENDBLK
  5
158
100
AcDbEntity
  8
0
100
AcDbBlockEnd
  0
ENDSEC
  0
SECTION
  2
ENTITIES
  0
INSERT
  5
3
100
AcDbEntity
  8
USP
100
AcDbBlockReference
  2
TFL25925PR_T
 10
0.0017147300805238
 20
13.53983426602458
 30
0.0
  0
INSERT
  5
92
100
AcDbEntity
  8
USP
100
AcDbBlockReference
  2
TFL25925PR_F
 10
0.0023179460696307
 20
1.497173053260372
 30
0.0
  0
INSERT
  5
10E
100
AcDbEntity
  8
USP
100
AcDbBlockReference
  2
TFL25925PR_S
 10
9.942302915911081
 20
1.497173053260372
 30
0.0
  0
ENDSEC
  0
SECTION
  2
OBJECTS
  0
DICTIONARY
  5
170
100
AcDbDictionary
  3
ACAD_GROUP
350
16E
  3
ACAD_MLINESTYLE
350
16F
  0
DICTIONARY
  5
9
100
AcDbDictionary
280
     1
  3
ACAD_XREC_ROUNDTRIP
360
A
  0
DICTIONARY
  5
8C
100
AcDbDictionary
280
     1
  3
ACAD_XREC_ROUNDTRIP
360
8D
  0
DICTIONARY
  5
173
100
AcDbDictionary
280
     1
  3
ACAD_XREC_ROUNDTRIP
360
174
  0
DICTIONARY
  5
159
100
AcDbDictionary
280
     1
  3
ACAD_LAYOUTSELFREF
360
15A
  0
DICTIONARY
  5
15E
100
AcDbDictionary
280
     1
  3
ACAD_LAYOUTSELFREF
360
15F
  0
DICTIONARY
  5
16E
102
{ACAD_REACTORS
330
170
102
}
100
AcDbDictionary
  0
DICTIONARY
  5
16F
102
{ACAD_REACTORS
330
170
102
}
100
AcDbDictionary
  3
STANDARD
350
171
  0
XRECORD
  5
A
102
{ACAD_REACTORS
330
9
102
}
100
AcDbXrecord
102
EXTNAMES
  1
USP-GEO
  2
USP-Geo
  0
XRECORD
  5
8D
102
{ACAD_REACTORS
330
8C
102
}
100
AcDbXrecord
102
EXTNAMES
  1
USP-TXT
  2
USP-Txt
  0
XRECORD
  5
174
102
{ACAD_REACTORS
330
173
102
}
100
AcDbXrecord
102
ACADR14ROUNDTRIP
1000
DSTYLE
1002
{
1070
   276
 70
     2
1070
   277
 70
     5
1002
}
  0
XRECORD
  5
15A
102
{ACAD_REACTORS
330
159
102
}
100
AcDbXrecord
340
2
  0
XRECORD
  5
15F
102
{ACAD_REACTORS
330
15E
102
}
100
AcDbXrecord
340
0
  0
MLINESTYLE
  5
171
102
{ACAD_REACTORS
330
16F
102
}
100
AcDbMlineStyle
  2
STANDARD
 70
     0
  3

 62
     0
 51
90.0
 52
90.0
 71
     2
 49
0.5
 62
   256
  6
BYLAYER
 49
-0.5
 62
   256
  6
BYLAYER
  0
ENDSEC
  0
EOF
