  0
SECTION
  2
HEADER
  9
$ACADVER
  1
AC1014
  9
$ACADMAINTVER
 70
     8
  9
$DWGCODEPAGE
  3
ANSI_1252
  9
$INSBASE
 10
0.0
 20
0.0
 30
0.0
  9
$EXTMIN
 10
0.0074902531150799
 20
0.7204901901174682
 30
0.0
  9
$EXTMAX
 10
14.4328084758984
 20
24.44696911807559
 30
0.0
  9
$LIMMIN
 10
0.0
 20
0.0
  9
$LIMMAX
 10
12.0
 20
9.0
  9
$ORTHOMODE
 70
     0
  9
$REGENMODE
 70
     1
  9
$FILLMODE
 70
     1
  9
$QTEXTMODE
 70
     0
  9
$MIRRTEXT
 70
     0
  9
$DRAGMODE
 70
     2
  9
$LTSCALE
 40
1.5
  9
$OSMODE
 70
     0
  9
$ATTMODE
 70
     1
  9
$TEXTSIZE
 40
0.25
  9
$TRACEWID
 40
0.05
  9
$TEXTSTYLE
  7
STANDARD
  9
$CLAYER
  8
USP
  9
$CELTYPE
  6
BYLAYER
  9
$CECOLOR
 62
   256
  9
$CELTSCALE
 40
1.0
  9
$DELOBJ
 70
     1
  9
$DISPSILH
 70
     1
  9
$DIMSCALE
 40
5.0
  9
$DIMASZ
 40
0.125
  9
$DIMEXO
 40
0.0625
  9
$DIMDLI
 40
0.38
  9
$DIMRND
 40
0.0
  9
$DIMDLE
 40
0.0
  9
$DIMEXE
 40
0.09375
  9
$DIMTP
 40
0.0
  9
$DIMTM
 40
0.0
  9
$DIMTXT
 40
0.109375
  9
$DIMCEN
 40
0.0
  9
$DIMTSZ
 40
0.0
  9
$DIMTOL
 70
     0
  9
$DIMLIM
 70
     0
  9
$DIMTIH
 70
     1
  9
$DIMTOH
 70
     1
  9
$DIMSE1
 70
     0
  9
$DIMSE2
 70
     0
  9
$DIMTAD
 70
     0
  9
$DIMZIN
 70
     8
  9
$DIMBLK
  1

  9
$DIMASO
 70
     1
  9
$DIMSHO
 70
     1
  9
$DIMPOST
  1

  9
$DIMAPOST
  1

  9
$DIMALT
 70
     0
  9
$DIMALTD
 70
     2
  9
$DIMALTF
 40
25.4
  9
$DIMLFAC
 40
1.0
  9
$DIMTOFL
 70
     0
  9
$DIMTVP
 40
0.0
  9
$DIMTIX
 70
     0
  9
$DIMSOXD
 70
     0
  9
$DIMSAH
 70
     0
  9
$DIMBLK1
  1

  9
$DIMBLK2
  1

  9
$DIMSTYLE
  2
STANDARD
  9
$DIMCLRD
 70
   256
  9
$DIMCLRE
 70
   256
  9
$DIMCLRT
 70
   256
  9
$DIMTFAC
 40
1.0
  9
$DIMGAP
 40
0.09
  9
$DIMJUST
 70
     0
  9
$DIMSD1
 70
     0
  9
$DIMSD2
 70
     0
  9
$DIMTOLJ
 70
     1
  9
$DIMTZIN
 70
     0
  9
$DIMALTZ
 70
     0
  9
$DIMALTTZ
 70
     0
  9
$DIMFIT
 70
     3
  9
$DIMUPT
 70
     1
  9
$DIMUNIT
 70
     7
  9
$DIMDEC
 70
     4
  9
$DIMTDEC
 70
     4
  9
$DIMALTU
 70
     2
  9
$DIMALTTD
 70
     2
  9
$DIMTXSTY
  7
STANDARD
  9
$DIMAUNIT
 70
     0
  9
$LUNITS
 70
     5
  9
$LUPREC
 70
     6
  9
$SKETCHINC
 40
0.1
  9
$FILLETRAD
 40
0.0
  9
$AUNITS
 70
     0
  9
$AUPREC
 70
     1
  9
$MENU
  1
CUSTOM
  9
$ELEVATION
 40
0.0
  9
$PELEVATION
 40
0.0
  9
$THICKNESS
 40
0.0
  9
$LIMCHECK
 70
     0
  9
$BLIPMODE
 70
     0
  9
$CHAMFERA
 40
0.0
  9
$CHAMFERB
 40
0.0
  9
$CHAMFERC
 40
0.0
  9
$CHAMFERD
 40
0.0
  9
$SKPOLY
 70
     0
  9
$TDCREATE
 40
2451263.621564698
  9
$TDUPDATE
 40
2453025.982507592
  9
$TDINDWG
 40
1.0541399074
  9
$TDUSRTIMER
 40
1.0541399074
  9
$USRTIMER
 70
     1
  9
$ANGBASE
 50
0.0
  9
$ANGDIR
 70
     0
  9
$PDMODE
 70
     0
  9
$PDSIZE
 40
0.0
  9
$PLINEWID
 40
0.0
  9
$COORDS
 70
     2
  9
$SPLFRAME
 70
     0
  9
$SPLINETYPE
 70
     6
  9
$SPLINESEGS
 70
     8
  9
$ATTDIA
 70
     0
  9
$ATTREQ
 70
     0
  9
$HANDLING
 70
     1
  9
$HANDSEED
  5
181
  9
$SURFTAB1
 70
     6
  9
$SURFTAB2
 70
     6
  9
$SURFTYPE
 70
     6
  9
$SURFU
 70
     6
  9
$SURFV
 70
     6
  9
$UCSNAME
  2

  9
$UCSORG
 10
0.0
 20
0.0
 30
0.0
  9
$UCSXDIR
 10
1.0
 20
0.0
 30
0.0
  9
$UCSYDIR
 10
0.0
 20
1.0
 30
0.0
  9
$PUCSNAME
  2

  9
$PUCSORG
 10
0.0
 20
0.0
 30
0.0
  9
$PUCSXDIR
 10
1.0
 20
0.0
 30
0.0
  9
$PUCSYDIR
 10
0.0
 20
1.0
 30
0.0
  9
$USERI1
 70
     0
  9
$USERI2
 70
     0
  9
$USERI3
 70
     0
  9
$USERI4
 70
     0
  9
$USERI5
 70
     0
  9
$USERR1
 40
0.0
  9
$USERR2
 40
0.0
  9
$USERR3
 40
0.0
  9
$USERR4
 40
0.0
  9
$USERR5
 40
0.0
  9
$WORLDVIEW
 70
     1
  9
$SHADEDGE
 70
     3
  9
$SHADEDIF
 70
    70
  9
$TILEMODE
 70
     1
  9
$MAXACTVP
 70
    16
  9
$PINSBASE
 10
0.0
 20
0.0
 30
0.0
  9
$PLIMCHECK
 70
     0
  9
$PEXTMIN
 10
1.000000000000000E+20
 20
1.000000000000000E+20
 30
1.000000000000000E+20
  9
$PEXTMAX
 10
-1.000000000000000E+20
 20
-1.000000000000000E+20
 30
-1.000000000000000E+20
  9
$PLIMMIN
 10
0.0
 20
0.0
  9
$PLIMMAX
 10
12.0
 20
9.0
  9
$UNITMODE
 70
     0
  9
$VISRETAIN
 70
     0
  9
$PLINEGEN
 70
     0
  9
$PSLTSCALE
 70
     0
  9
$TREEDEPTH
 70
  3020
  9
$PICKSTYLE
 70
     1
  9
$CMLSTYLE
  2
STANDARD
  9
$CMLJUST
 70
     0
  9
$CMLSCALE
 40
1.0
  9
$PROXYGRAPHICS
 70
     1
  9
$MEASUREMENT
 70
     0
  0
ENDSEC
  0
SECTION
  2
CLASSES
  0
CLASS
  1
ACDBDICTIONARYWDFLT
  2
AcDbDictionaryWithDefault
  3
AutoCAD 2000
 90
        0
280
     0
281
     0
  0
CLASS
  1
ACDBPLACEHOLDER
  2
AcDbPlaceHolder
  3
AutoCAD 2000
 90
        0
280
     0
281
     0
  0
CLASS
  1
LAYOUT
  2
AcDbLayout
  3
AutoCAD 2000
 90
        0
280
     0
281
     0
  0
CLASS
  1
DICTIONARYVAR
  2
AcDbDictionaryVar
  3
"AutoCAD"
 90
        0
280
     0
281
     0
  0
CLASS
  1
SORTENTSTABLE
  2
AcDbSortentsTable
  3
"AutoCAD"
 90
        0
280
     0
281
     0
  0
CLASS
  1
LONG_TRANSACTION
  2
AcDbLongTransaction
  3
AutoCAD 2000
 90
        0
280
     0
281
     0
  0
CLASS
  1
LWPOLYLINE
  2
AcDbPolyline
  3
"AutoCAD"
 90
        0
280
     0
281
     1
  0
CLASS
  1
HATCH
  2
AcDbHatch
  3
"ACAD_SEDONA"
 90
        0
280
     0
281
     1
  0
CLASS
  1
XRECORD
  2
AcDbXrecord
  3
"<Built In>"
 90
        0
280
     0
281
     0
  0
CLASS
  1
LONG_TRANSACTION
  2
AcDbLongTransaction
  3
AutoCAD 2000
 90
        0
280
     0
281
     0
  0
CLASS
  1
LWPOLYLINE
  2
AcDbPolyline
  3
"AutoCAD"
 90
        0
280
     0
281
     1
  0
CLASS
  1
HATCH
  2
AcDbHatch
  3
"ACAD_SEDONA"
 90
        0
280
     0
281
     1
  0
CLASS
  1
XRECORD
  2
AcDbXrecord
  3
"<Built In>"
 90
        0
280
     0
281
     0
  0
CLASS
  1
LONG_TRANSACTION
  2
AcDbLongTransaction
  3
AutoCAD 2000
 90
        0
280
     0
281
     0
  0
CLASS
  1
LWPOLYLINE
  2
AcDbPolyline
  3
"AutoCAD"
 90
        0
280
     0
281
     1
  0
CLASS
  1
HATCH
  2
AcDbHatch
  3
"ACAD_SEDONA"
 90
        0
280
     0
281
     1
  0
CLASS
  1
XRECORD
  2
AcDbXrecord
  3
"<Built In>"
 90
        0
280
     0
281
     0
  0
CLASS
  1
LONG_TRANSACTION
  2
AcDbLongTransaction
  3
AutoCAD 2000
 90
        0
280
     0
281
     0
  0
CLASS
  1
LWPOLYLINE
  2
AcDbPolyline
  3
"AutoCAD"
 90
        0
280
     0
281
     1
  0
CLASS
  1
HATCH
  2
AcDbHatch
  3
"ACAD_SEDONA"
 90
        0
280
     0
281
     1
  0
CLASS
  1
XRECORD
  2
AcDbXrecord
  3
"<Built In>"
 90
        0
280
     0
281
     0
  0
CLASS
  1
LONG_TRANSACTION
  2
AcDbLongTransaction
  3
AutoCAD 2000
 90
        0
280
     0
281
     0
  0
CLASS
  1
LWPOLYLINE
  2
AcDbPolyline
  3
"AutoCAD"
 90
        0
280
     0
281
     1
  0
CLASS
  1
HATCH
  2
AcDbHatch
  3
"ACAD_SEDONA"
 90
        0
280
     0
281
     1
  0
CLASS
  1
XRECORD
  2
AcDbXrecord
  3
"<Built In>"
 90
        0
280
     0
281
     0
  0
ENDSEC
  0
SECTION
  2
TABLES
  0
TABLE
  2
VPORT
  5
172
100
AcDbSymbolTable
 70
     1
  0
VPORT
  5
173
100
AcDbSymbolTableRecord
100
AcDbViewportTableRecord
  2
*ACTIVE
 70
     0
 10
0.0
 20
0.0
 11
1.0
 21
1.0
 12
0.2249266363012303
 22
11.71461008985759
 13
0.0
 23
0.0
 14
1.0
 24
1.0
 15
0.0
 25
0.0
 16
0.0
 26
0.0
 36
1.0
 17
6.995222766107126
 27
2.029953691751064
 37
-2.280612897271537
 40
26.21904619086683
 41
1.379227053140096
 42
50.0
 43
0.0
 44
0.0
 50
0.0
 51
0.0
 71
     0
 72
   100
 73
     1
 74
     1
 75
     0
 76
     0
 77
     0
 78
     0
  0
ENDTAB
  0
TABLE
  2
LTYPE
  5
16D
100
AcDbSymbolTable
 70
     1
  0
LTYPE
  5
16E
100
AcDbSymbolTableRecord
100
AcDbLinetypeTableRecord
  2
BYBLOCK
 70
     0
  3

 72
    65
 73
     0
 40
0.0
  0
LTYPE
  5
16F
100
AcDbSymbolTableRecord
100
AcDbLinetypeTableRecord
  2
BYLAYER
 70
     0
  3

 72
    65
 73
     0
 40
0.0
  0
LTYPE
  5
5
100
AcDbSymbolTableRecord
100
AcDbLinetypeTableRecord
  2
CONTINUOUS
 70
     0
  3
Solid line
 72
    65
 73
     0
 40
0.0
  0
ENDTAB
  0
TABLE
  2
LAYER
  5
16B
100
AcDbSymbolTable
 70
     4
  0
LAYER
  5
92
100
AcDbSymbolTableRecord
100
AcDbLayerTableRecord
  2
0
 70
     0
 62
     7
  6
CONTINUOUS
  0
LAYER
  5
8
102
{ACAD_XDICTIONARY
360
9
102
}
100
AcDbSymbolTableRecord
100
AcDbLayerTableRecord
  2
USP-GEO
 70
     0
 62
     7
  6
CONTINUOUS
  0
LAYER
  5
8D
102
{ACAD_XDICTIONARY
360
8E
102
}
100
AcDbSymbolTableRecord
100
AcDbLayerTableRecord
  2
USP-TXT
 70
     0
 62
     7
  6
CONTINUOUS
  0
LAYER
  5
4
100
AcDbSymbolTableRecord
100
AcDbLayerTableRecord
  2
USP
 70
     0
 62
     7
  6
CONTINUOUS
  0
ENDTAB
  0
TABLE
  2
STYLE
  5
16C
100
AcDbSymbolTable
 70
     1
  0
STYLE
  5
90
100
AcDbSymbolTableRecord
100
AcDbTextStyleTableRecord
  2
STANDARD
 70
     0
 40
0.0
 41
1.0
 50
0.0
 71
     0
 42
0.25
  3
txt
  4

  0
ENDTAB
  0
TABLE
  2
VIEW
  5
170
100
AcDbSymbolTable
 70
     0
  0
ENDTAB
  0
TABLE
  2
UCS
  5
171
100
AcDbSymbolTable
 70
     0
  0
ENDTAB
  0
TABLE
  2
APPID
  5
174
100
AcDbSymbolTable
 70
     1
  0
APPID
  5
65
100
AcDbSymbolTableRecord
100
AcDbRegAppTableRecord
  2
ACAD
 70
     0
  0
ENDTAB
  0
TABLE
  2
DIMSTYLE
  5
175
100
AcDbSymbolTable
 70
     1
  0
DIMSTYLE
105
17B
102
{ACAD_XDICTIONARY
360
17C
102
}
100
AcDbSymbolTableRecord
100
AcDbDimStyleTableRecord
  2
STANDARD
 70
     0
  3

  4

  5

  6

  7

 40
1.0
 41
0.125
 42
0.0625
 43
0.38
 44
0.09375
 45
0.0
 46
0.0
 47
0.0
 48
0.0
140
0.109375
141
0.0
142
0.0
143
25.4
144
1.0
145
0.0
146
1.0
147
0.09
 71
     0
 72
     0
 73
     1
 74
     1
 75
     0
 76
     0
 77
     0
 78
     8
170
     0
171
     2
172
     0
173
     0
174
     0
175
     0
176
     0
177
     0
178
     0
270
     7
271
     4
272
     4
273
     2
274
     2
340
90
275
     0
280
     0
281
     0
282
     0
283
     1
284
     0
285
     0
286
     0
287
     3
288
     0
  0
ENDTAB
  0
TABLE
  2
BLOCK_RECORD
  5
1
100
AcDbSymbolTable
 70
     3
  0
BLOCK_RECORD
  5
2
102
{ACAD_XDICTIONARY
360
162
102
}
100
AcDbSymbolTableRecord
100
AcDbBlockTableRecord
  2
*MODEL_SPACE
  0
BLOCK_RECORD
  5
166
102
{ACAD_XDICTIONARY
360
167
102
}
100
AcDbSymbolTableRecord
100
AcDbBlockTableRecord
  2
*PAPER_SPACE
  0
BLOCK_RECORD
  5
6
100
AcDbSymbolTableRecord
100
AcDbBlockTableRecord
  2
TFL2516PR_T
  0
BLOCK_RECORD
  5
95
100
AcDbSymbolTableRecord
100
AcDbBlockTableRecord
  2
TFL2516PR_F
  0
BLOCK_RECORD
  5
110
100
AcDbSymbolTableRecord
100
AcDbBlockTableRecord
  2
TFL2516PR_S
  0
ENDTAB
  0
ENDSEC
  0
SECTION
  2
BLOCKS
  0
BLOCK
  5
164
100
AcDbEntity
  8
0
100
AcDbBlockBegin
  2
*MODEL_SPACE
 70
     0
 10
0.0
 20
0.0
 30
0.0
  3
*MODEL_SPACE
  1

  0
ENDBLK
  5
165
100
AcDbEntity
  8
0
100
AcDbBlockEnd
  0
BLOCK
  5
169
100
AcDbEntity
 67
     1
  8
0
100
AcDbBlockBegin
  2
*PAPER_SPACE
 70
     0
 10
0.0
 20
0.0
 30
0.0
  3
*PAPER_SPACE
  1

  0
ENDBLK
  5
16A
100
AcDbEntity
 67
     1
  8
0
100
AcDbBlockEnd
  0
BLOCK
  5
91
100
AcDbEntity
  8
0
100
AcDbBlockBegin
  2
TFL2516PR_T
 70
     0
 10
0.0
 20
0.0
 30
0.0
  3
TFL2516PR_T
  1

  0
LWPOLYLINE
  5
7
100
AcDbEntity
  8
USP-GEO
100
AcDbPolyline
 90
        2
 70
   128
 43
0.0
 10
6.560305281982003
 20
2.19611185549537
 10
4.633527899330406
 20
2.19611185549537
  0
LWPOLYLINE
  5
B
100
AcDbEntity
  8
USP-GEO
100
AcDbPolyline
 90
        2
 70
   128
 43
0.0
 10
1.902403222213248
 20
2.19611185549537
 10
0.0
 20
2.19611185549537
  0
LWPOLYLINE
  5
C
100
AcDbEntity
  8
USP-GEO
100
AcDbPolyline
 90
        2
 70
   128
 43
0.0
 10
4.560405418015356
 20
2.19611185549537
 10
4.560405418015356
 20
2.147363534618669
  0
LWPOLYLINE
  5
D
100
AcDbEntity
  8
USP-GEO
100
AcDbPolyline
 90
        2
 70
   128
 43
0.0
 10
4.633527899330406
 20
3.684154350256662
 10
4.633527899330406
 20
2.244860176372071
  0
CIRCLE
  5
E
100
AcDbEntity
  8
USP-GEO
100
AcDbCircle
 10
4.944911816123333
 20
3.383840343744463
 30
0.0
 40
0.09
  0
CIRCLE
  5
F
100
AcDbEntity
  8
USP-GEO
100
AcDbCircle
 10
6.344911816123339
 20
3.183840343744474
 30
0.0
 40
0.09
  0
LWPOLYLINE
  5
10
100
AcDbEntity
  8
USP-GEO
100
AcDbPolyline
 90
        2
 70
   128
 43
0.0
 10
6.560305281982003
 20
3.684154350256662
 10
4.633527899330406
 20
3.684154350256662
  0
LWPOLYLINE
  5
11
100
AcDbEntity
  8
USP-GEO
100
AcDbPolyline
 90
        2
 70
   128
 43
0.0
 10
4.511657097138655
 20
0.2681157648218537
 10
4.560405418015356
 20
0.2681157648218537
  0
LWPOLYLINE
  5
12
100
AcDbEntity
  8
USP-GEO
100
AcDbPolyline
 90
        2
 70
   128
 43
0.0
 10
4.511657097138655
 20
0.9030626442408831
 10
4.560405418015356
 20
0.9030626442408831
  0
LWPOLYLINE
  5
13
100
AcDbEntity
  8
USP-GEO
100
AcDbPolyline
 90
        2
 70
   128
 43
0.0
 10
4.536031257577004
 20
2.147363534618669
 10
4.560405418015356
 20
2.147363534618669
  0
LWPOLYLINE
  5
14
100
AcDbEntity
  8
USP-GEO
100
AcDbPolyline
 90
        2
 70
   128
 43
0.0
 10
4.511657097138655
 20
0.0
 10
4.560405418015356
 20
0.0
  0
LWPOLYLINE
  5
15
100
AcDbEntity
  8
USP-GEO
100
AcDbPolyline
 90
        2
 70
   128
 43
0.0
 10
2.024274024404999
 20
0.9030626442408831
 10
1.975525703528299
 20
0.9030626442408831
  0
LWPOLYLINE
  5
16
100
AcDbEntity
  8
USP-GEO
100
AcDbPolyline
 90
        2
 70
   128
 43
0.0
 10
2.024274024404999
 20
0.2681157648218537
 10
1.975525703528299
 20
0.2681157648218537
  0
LWPOLYLINE
  5
17
100
AcDbEntity
  8
USP-GEO
100
AcDbPolyline
 90
        2
 70
   128
 43
0.0
 10
2.024274024404999
 20
0.0
 10
1.975525703528299
 20
0.0
  0
LWPOLYLINE
  5
18
100
AcDbEntity
  8
USP-GEO
100
AcDbPolyline
 90
        2
 70
   128
 43
0.0
 10
1.902403222213248
 20
2.147363534618669
 10
1.975525703528299
 20
2.147363534618669
  0
LWPOLYLINE
  5
19
100
AcDbEntity
  8
USP-GEO
100
AcDbPolyline
 90
        2
 70
   128
 43
0.0
 10
1.902403222213248
 20
2.19611185549537
 10
1.926777382651598
 20
2.19611185549537
  0
LWPOLYLINE
  5
1A
100
AcDbEntity
  8
USP-GEO
100
AcDbPolyline
 90
        2
 70
   128
 43
0.0
 10
1.975525703528299
 20
2.19611185549537
 10
1.975525703528299
 20
2.147363534618669
  0
LWPOLYLINE
  5
1B
100
AcDbEntity
  8
USP-GEO
100
AcDbPolyline
 90
        2
 70
   128
 43
0.0
 10
1.975525703528299
 20
2.147363534618669
 10
1.999899863966648
 20
2.147363534618669
  0
LWPOLYLINE
  5
1C
100
AcDbEntity
  8
USP-GEO
100
AcDbPolyline
 90
        2
 70
   128
 43
0.0
 10
2.024274024404999
 20
2.098615213741968
 10
1.999899863966648
 20
2.147363534618669
  0
ARC
  5
1D
100
AcDbEntity
  8
USP-GEO
100
AcDbCircle
 10
1.931845216540917
 20
2.093840343744471
 30
0.0
 40
0.09
100
AcDbArc
 50
38.18411977439531
 51
66.87251833333438
  0
LWPOLYLINE
  5
1E
100
AcDbEntity
  8
USP-GEO
100
AcDbPolyline
 90
        2
 70
   128
 43
0.0
 10
1.975525703528299
 20
2.19611185549537
 10
1.926777382651598
 20
2.19611185549537
  0
LWPOLYLINE
  5
1F
100
AcDbEntity
  8
USP-GEO
100
AcDbPolyline
 90
        2
 70
   128
 43
0.0
 10
2.024274024404999
 20
2.098615213741968
 10
2.025492732426917
 20
2.098615213741968
  0
LWPOLYLINE
  5
20
100
AcDbEntity
  8
USP-GEO
100
AcDbPolyline
 90
        2
 70
   128
 43
0.0
 10
1.975525703528299
 20
2.098615213741968
 10
1.976744411550216
 20
2.098615213741968
  0
LWPOLYLINE
  5
21
100
AcDbEntity
  8
USP-GEO
100
AcDbPolyline
 90
        2
 70
   128
 43
0.0
 10
1.926777382651598
 20
2.147363534618669
 10
1.975525703528299
 20
2.098615213741968
  0
CIRCLE
  5
22
100
AcDbEntity
  8
USP-GEO
100
AcDbCircle
 10
0.198778616958716
 20
3.183840343744446
 30
0.0
 40
0.09
  0
CIRCLE
  5
23
100
AcDbEntity
  8
USP-GEO
100
AcDbCircle
 10
1.598778616958721
 20
3.383840343744434
 30
0.0
 40
0.09
  0
LWPOLYLINE
  5
24
100
AcDbEntity
  8
USP-GEO
100
AcDbPolyline
 90
        2
 70
   128
 43
0.0
 10
0.0
 20
3.684154350256662
 10
0.0
 20
2.244860176372071
  0
LWPOLYLINE
  5
25
100
AcDbEntity
  8
USP-GEO
100
AcDbPolyline
 90
        2
 70
   128
 43
0.0
 10
0.0
 20
3.684154350256662
 10
1.902403222213248
 20
3.684154350256662
  0
LWPOLYLINE
  5
26
100
AcDbEntity
  8
USP-GEO
100
AcDbPolyline
 90
        2
 70
   128
 43
0.0
 10
1.902403222213248
 20
3.684154350256662
 10
1.902403222213248
 20
2.244860176372071
  0
LWPOLYLINE
  5
27
100
AcDbEntity
  8
USP-GEO
100
AcDbPolyline
 90
        2
 70
   128
 43
0.0
 10
1.902403222213248
 20
2.244860176372071
 10
1.902403222213248
 20
2.147363534618669
  0
LWPOLYLINE
  5
28
100
AcDbEntity
  8
USP-GEO
100
AcDbPolyline
 90
        2
 70
   128
 43
0.0
 10
1.902403222213248
 20
2.147363534618669
 10
0.0
 20
2.147363534618669
  0
LWPOLYLINE
  5
29
100
AcDbEntity
  8
USP-GEO
100
AcDbPolyline
 90
        2
 70
   128
 43
0.0
 10
0.0
 20
2.147363534618669
 10
0.0
 20
2.244860176372071
  0
LWPOLYLINE
  5
2A
100
AcDbEntity
  8
USP-GEO
100
AcDbPolyline
 90
        2
 70
   128
 43
0.0
 10
4.609153738892057
 20
2.19611185549537
 10
4.633527899330406
 20
2.19611185549537
  0
LWPOLYLINE
  5
2B
100
AcDbEntity
  8
USP-GEO
100
AcDbPolyline
 90
        2
 70
   128
 43
0.0
 10
4.511657097138655
 20
1.927996090673516
 10
4.511657097138655
 20
2.098615213741968
  0
LWPOLYLINE
  5
2C
100
AcDbEntity
  8
USP-GEO
100
AcDbPolyline
 90
        2
 70
   128
 43
0.0
 10
4.511657097138655
 20
1.024933446432633
 10
4.511657097138655
 20
1.927996090673516
  0
LWPOLYLINE
  5
2D
100
AcDbEntity
  8
USP-GEO
100
AcDbPolyline
 90
        2
 70
   128
 43
0.0
 10
4.511657097138655
 20
0.9030626442408831
 10
4.511657097138655
 20
1.024933446432633
  0
LWPOLYLINE
  5
2E
100
AcDbEntity
  8
USP-GEO
100
AcDbPolyline
 90
        2
 70
   128
 43
0.0
 10
4.511657097138655
 20
0.8786884838025308
 10
4.511657097138655
 20
0.9030626442408831
  0
LWPOLYLINE
  5
2F
100
AcDbEntity
  8
USP-GEO
100
AcDbPolyline
 90
        2
 70
   128
 43
0.0
 10
4.511657097138655
 20
0.2681157648218537
 10
4.511657097138655
 20
0.8786884838025308
  0
LWPOLYLINE
  5
30
100
AcDbEntity
  8
USP-GEO
100
AcDbPolyline
 90
        2
 70
   128
 43
0.0
 10
4.511657097138655
 20
0.146244962630103
 10
4.511657097138655
 20
0.2681157648218537
  0
LWPOLYLINE
  5
31
100
AcDbEntity
  8
USP-GEO
100
AcDbPolyline
 90
        2
 70
   128
 43
0.0
 10
4.511657097138655
 20
0.1218708021917543
 10
4.511657097138655
 20
0.146244962630103
  0
LWPOLYLINE
  5
32
100
AcDbEntity
  8
USP-GEO
100
AcDbPolyline
 90
        2
 70
   128
 43
0.0
 10
4.511657097138655
 20
0.0
 10
4.511657097138655
 20
0.1218708021917543
  0
LWPOLYLINE
  5
33
100
AcDbEntity
  8
USP-GEO
100
AcDbPolyline
 90
        2
 70
   128
 43
0.0
 10
4.609153738892057
 20
2.19611185549537
 10
4.560405418015356
 20
2.19611185549537
  0
ARC
  5
34
100
AcDbEntity
  8
USP-GEO
100
AcDbCircle
 10
4.61184521654091
 20
2.093840343744471
 30
0.0
 40
0.09
100
AcDbArc
 50
116.7011566214789
 51
144.7786467638573
  0
LWPOLYLINE
  5
35
100
AcDbEntity
  8
USP-GEO
100
AcDbPolyline
 90
        2
 70
   128
 43
0.0
 10
4.536031257577004
 20
2.147363534618669
 10
4.511657097138655
 20
2.098615213741968
  0
LWPOLYLINE
  5
36
100
AcDbEntity
  8
USP-GEO
100
AcDbPolyline
 90
        2
 70
   128
 43
0.0
 10
4.511657097138655
 20
2.098615213741968
 10
4.512875805160572
 20
2.098615213741968
  0
LWPOLYLINE
  5
37
100
AcDbEntity
  8
USP-GEO
100
AcDbPolyline
 90
        2
 70
   128
 43
0.0
 10
4.560405418015356
 20
2.098615213741968
 10
4.561624126037273
 20
2.098615213741968
  0
LWPOLYLINE
  5
38
100
AcDbEntity
  8
USP-GEO
100
AcDbPolyline
 90
        2
 70
   128
 43
0.0
 10
4.560405418015356
 20
2.098615213741968
 10
4.609153738892057
 20
2.147363534618669
  0
LWPOLYLINE
  5
39
100
AcDbEntity
  8
USP-GEO
100
AcDbPolyline
 90
        2
 70
   128
 43
0.0
 10
4.560405418015356
 20
2.147363534618669
 10
4.633527899330406
 20
2.147363534618669
  0
LWPOLYLINE
  5
3A
100
AcDbEntity
  8
USP-GEO
100
AcDbPolyline
 90
        2
 70
   128
 43
0.0
 10
6.560305281982003
 20
3.684154350256662
 10
6.560305281982003
 20
2.244860176372071
  0
LWPOLYLINE
  5
3B
100
AcDbEntity
  8
USP-GEO
100
AcDbPolyline
 90
        2
 70
   128
 43
0.0
 10
6.560305281982003
 20
2.147363534618669
 10
4.633527899330406
 20
2.147363534618669
  0
LWPOLYLINE
  5
3C
100
AcDbEntity
  8
USP-GEO
100
AcDbPolyline
 90
        2
 70
   128
 43
0.0
 10
4.633527899330406
 20
2.147363534618669
 10
4.633527899330406
 20
2.244860176372071
  0
LWPOLYLINE
  5
3D
100
AcDbEntity
  8
USP-GEO
100
AcDbPolyline
 90
        2
 70
   128
 43
0.0
 10
6.560305281982003
 20
2.244860176372071
 10
6.560305281982003
 20
2.147363534618669
  0
LWPOLYLINE
  5
3E
100
AcDbEntity
  8
USP-GEO
100
AcDbPolyline
 90
        2
 70
   128
 43
0.0
 10
1.975525703528299
 20
1.927996090673516
 10
1.975525703528299
 20
2.098615213741968
  0
LWPOLYLINE
  5
3F
100
AcDbEntity
  8
USP-GEO
100
AcDbPolyline
 90
        2
 70
   128
 43
0.0
 10
1.975525703528299
 20
1.024933446432633
 10
1.975525703528299
 20
1.927996090673516
  0
LWPOLYLINE
  5
40
100
AcDbEntity
  8
USP-GEO
100
AcDbPolyline
 90
        2
 70
   128
 43
0.0
 10
1.975525703528299
 20
0.9030626442408831
 10
1.975525703528299
 20
1.024933446432633
  0
LWPOLYLINE
  5
41
100
AcDbEntity
  8
USP-GEO
100
AcDbPolyline
 90
        2
 70
   128
 43
0.0
 10
1.975525703528299
 20
0.9030626442408831
 10
1.975525703528299
 20
0.8786884838025308
  0
LWPOLYLINE
  5
42
100
AcDbEntity
  8
USP-GEO
100
AcDbPolyline
 90
        2
 70
   128
 43
0.0
 10
1.975525703528299
 20
0.2681157648218537
 10
1.975525703528299
 20
0.8786884838025308
  0
LWPOLYLINE
  5
43
100
AcDbEntity
  8
USP-GEO
100
AcDbPolyline
 90
        2
 70
   128
 43
0.0
 10
1.975525703528299
 20
0.2681157648218537
 10
1.975525703528299
 20
0.146244962630103
  0
LWPOLYLINE
  5
44
100
AcDbEntity
  8
USP-GEO
100
AcDbPolyline
 90
        2
 70
   128
 43
0.0
 10
1.975525703528299
 20
0.146244962630103
 10
1.975525703528299
 20
0.1218708021917543
  0
LWPOLYLINE
  5
45
100
AcDbEntity
  8
USP-GEO
100
AcDbPolyline
 90
        2
 70
   128
 43
0.0
 10
1.975525703528299
 20
0.0
 10
1.975525703528299
 20
0.1218708021917543
  0
LWPOLYLINE
  5
46
100
AcDbEntity
  8
USP-GEO
100
AcDbPolyline
 90
        2
 70
   128
 43
0.0
 10
4.560405418015356
 20
0.1218708021917543
 10
4.560405418015356
 20
0.0
  0
LWPOLYLINE
  5
47
100
AcDbEntity
  8
USP-GEO
100
AcDbPolyline
 90
        2
 70
   128
 43
0.0
 10
4.560405418015356
 20
0.146244962630103
 10
4.560405418015356
 20
0.1218708021917543
  0
LWPOLYLINE
  5
48
100
AcDbEntity
  8
USP-GEO
100
AcDbPolyline
 90
        2
 70
   128
 43
0.0
 10
4.560405418015356
 20
0.146244962630103
 10
4.560405418015356
 20
0.2681157648218537
  0
LWPOLYLINE
  5
49
100
AcDbEntity
  8
USP-GEO
100
AcDbPolyline
 90
        2
 70
   128
 43
0.0
 10
4.560405418015356
 20
0.2681157648218537
 10
4.560405418015356
 20
0.8786884838025308
  0
LWPOLYLINE
  5
4A
100
AcDbEntity
  8
USP-GEO
100
AcDbPolyline
 90
        2
 70
   128
 43
0.0
 10
4.560405418015356
 20
0.8786884838025308
 10
4.560405418015356
 20
0.9030626442408831
  0
LWPOLYLINE
  5
4B
100
AcDbEntity
  8
USP-GEO
100
AcDbPolyline
 90
        2
 70
   128
 43
0.0
 10
4.560405418015356
 20
1.024933446432633
 10
4.560405418015356
 20
0.9030626442408831
  0
LWPOLYLINE
  5
4C
100
AcDbEntity
  8
USP-GEO
100
AcDbPolyline
 90
        2
 70
   128
 43
0.0
 10
4.560405418015356
 20
1.024933446432633
 10
4.560405418015356
 20
1.927996090673516
  0
LWPOLYLINE
  5
4D
100
AcDbEntity
  8
USP-GEO
100
AcDbPolyline
 90
        2
 70
   128
 43
0.0
 10
4.560405418015356
 20
2.098615213741968
 10
4.560405418015356
 20
1.927996090673516
  0
LWPOLYLINE
  5
4E
100
AcDbEntity
  8
USP-GEO
100
AcDbPolyline
 90
        2
 70
   128
 43
0.0
 10
2.75549883755551
 20
0.3656124065752557
 10
2.901743800185613
 20
0.4874832087670101
  0
LWPOLYLINE
  5
4F
100
AcDbEntity
  8
USP-GEO
100
AcDbPolyline
 90
        2
 70
   128
 43
0.0
 10
2.901743800185613
 20
0.243741604383505
 10
2.75549883755551
 20
0.3656124065752557
  0
LWPOLYLINE
  5
50
100
AcDbEntity
  8
USP-GEO
100
AcDbPolyline
 90
        2
 70
   128
 43
0.0
 10
3.024833310399282
 20
0.3656124065752557
 10
2.901743800185613
 20
0.243741604383505
  0
LWPOLYLINE
  5
51
100
AcDbEntity
  8
USP-GEO
100
AcDbPolyline
 90
        2
 70
   128
 43
0.0
 10
2.901743800185613
 20
0.4874832087670101
 10
3.024833310399282
 20
0.3656124065752557
  0
LWPOLYLINE
  5
52
100
AcDbEntity
  8
USP-GEO
100
AcDbPolyline
 90
        2
 70
   128
 43
0.0
 10
3.634187321358043
 20
0.4874832087670101
 10
3.780432283988144
 20
0.3656124065752557
  0
LWPOLYLINE
  5
53
100
AcDbEntity
  8
USP-GEO
100
AcDbPolyline
 90
        2
 70
   128
 43
0.0
 10
3.51231651916629
 20
0.3656124065752557
 10
3.634187321358043
 20
0.4874832087670101
  0
LWPOLYLINE
  5
54
100
AcDbEntity
  8
USP-GEO
100
AcDbPolyline
 90
        2
 70
   128
 43
0.0
 10
3.634187321358043
 20
0.243741604383505
 10
3.51231651916629
 20
0.3656124065752557
  0
LWPOLYLINE
  5
55
100
AcDbEntity
  8
USP-GEO
100
AcDbPolyline
 90
        2
 70
   128
 43
0.0
 10
3.780432283988144
 20
0.3656124065752557
 10
3.634187321358043
 20
0.243741604383505
  0
LWPOLYLINE
  5
56
100
AcDbEntity
  8
USP-GEO
100
AcDbPolyline
 90
        2
 70
   128
 43
0.0
 10
4.487282936700307
 20
2.001118571988566
 10
2.048648184843349
 20
2.001118571988566
  0
LWPOLYLINE
  5
57
100
AcDbEntity
  8
USP-GEO
100
AcDbPolyline
 90
        2
 70
   128
 43
0.0
 10
2.048648184843349
 20
0.0
 10
4.487282936700307
 20
0.0
  0
LWPOLYLINE
  5
58
100
AcDbEntity
  8
USP-GEO
100
AcDbPolyline
 90
        2
 70
   128
 43
0.0
 10
4.511657097138655
 20
0.0
 10
4.487282936700307
 20
0.0
  0
LWPOLYLINE
  5
59
100
AcDbEntity
  8
USP-GEO
100
AcDbPolyline
 90
        2
 70
   128
 43
0.0
 10
4.487282936700307
 20
2.001118571988566
 10
4.511657097138655
 20
2.001118571988566
  0
LWPOLYLINE
  5
5A
100
AcDbEntity
  8
USP-GEO
100
AcDbPolyline
 90
        2
 70
   128
 43
0.0
 10
2.024274024404999
 20
0.1218708021917543
 10
2.024274024404999
 20
0.0
  0
LWPOLYLINE
  5
5B
100
AcDbEntity
  8
USP-GEO
100
AcDbPolyline
 90
        2
 70
   128
 43
0.0
 10
2.024274024404999
 20
0.146244962630103
 10
2.024274024404999
 20
0.1218708021917543
  0
LWPOLYLINE
  5
5C
100
AcDbEntity
  8
USP-GEO
100
AcDbPolyline
 90
        2
 70
   128
 43
0.0
 10
2.024274024404999
 20
0.2681157648218537
 10
2.024274024404999
 20
0.146244962630103
  0
LWPOLYLINE
  5
5D
100
AcDbEntity
  8
USP-GEO
100
AcDbPolyline
 90
        2
 70
   128
 43
0.0
 10
2.024274024404999
 20
0.8786884838025308
 10
2.024274024404999
 20
0.2681157648218537
  0
LWPOLYLINE
  5
5E
100
AcDbEntity
  8
USP-GEO
100
AcDbPolyline
 90
        2
 70
   128
 43
0.0
 10
2.024274024404999
 20
0.9030626442408831
 10
2.024274024404999
 20
0.8786884838025308
  0
LWPOLYLINE
  5
5F
100
AcDbEntity
  8
USP-GEO
100
AcDbPolyline
 90
        2
 70
   128
 43
0.0
 10
2.024274024404999
 20
1.024933446432633
 10
2.024274024404999
 20
0.9030626442408831
  0
LWPOLYLINE
  5
60
100
AcDbEntity
  8
USP-GEO
100
AcDbPolyline
 90
        2
 70
   128
 43
0.0
 10
2.024274024404999
 20
1.927996090673516
 10
2.024274024404999
 20
1.024933446432633
  0
LWPOLYLINE
  5
61
100
AcDbEntity
  8
USP-GEO
100
AcDbPolyline
 90
        2
 70
   128
 43
0.0
 10
2.024274024404999
 20
2.098615213741968
 10
2.024274024404999
 20
1.927996090673516
  0
LWPOLYLINE
  5
62
100
AcDbEntity
  8
USP-GEO
100
AcDbPolyline
 90
        2
 70
   128
 43
0.0
 10
2.048648184843349
 20
0.0
 10
2.024274024404999
 20
0.0
  0
LWPOLYLINE
  5
63
100
AcDbEntity
  8
USP-GEO
100
AcDbPolyline
 90
        2
 70
   128
 43
0.0
 10
2.024274024404999
 20
2.001118571988566
 10
2.048648184843349
 20
2.001118571988566
  0
ELLIPSE
  5
64
100
AcDbEntity
  8
USP-GEO
  6
CONTINUOUS
100
AcDbEllipse
 10
4.689797590742639
 20
0.4863758077724008
 30
0.0
 11
0.0
 21
-0.078000000000003
 31
0.0
210
0.0
220
0.0
230
1.0
 40
0.7071067811865475
 41
0.8999361562404217
 42
6.602789996064425
1001
ACAD
1000
RTLwPs
1070
   128
  0
ELLIPSE
  5
66
100
AcDbEntity
  8
USP-GEO
  6
CONTINUOUS
100
AcDbEllipse
 10
4.689797590742639
 20
0.4863758077724008
 30
0.0
 11
0.0
 21
-0.078000000000003
 31
0.0
210
0.0
220
0.0
230
1.0
 40
0.7071067811865475
 41
1.191099373297703
 42
7.168890648583823
1001
ACAD
1000
RTLwPs
1070
   128
  0
ELLIPSE
  5
67
100
AcDbEntity
  8
USP-GEO
  6
CONTINUOUS
100
AcDbEllipse
 10
4.689797590742639
 20
0.4863758077724008
 30
0.0
 11
0.0
 21
-0.078000000000003
 31
0.0
210
0.0
220
0.0
230
1.0
 40
0.7071067811865475
 41
2.275786212602421
 42
2.814989938772539
1001
ACAD
1000
RTLwPs
1070
   128
  0
ELLIPSE
  5
68
100
AcDbEntity
  8
USP-GEO
  6
CONTINUOUS
100
AcDbEllipse
 10
4.689797590742639
 20
0.4863758077724008
 30
0.0
 11
0.0
 21
-0.078000000000003
 31
0.0
210
0.0
220
0.0
230
1.0
 40
0.7071067811865475
 41
2.290196084942453
 42
8.266013213335426
1001
ACAD
1000
RTLwPs
1070
   128
  0
ELLIPSE
  5
69
100
AcDbEntity
  8
USP-GEO
  6
CONTINUOUS
100
AcDbEllipse
 10
4.689797590742639
 20
0.4863758077724008
 30
0.0
 11
0.0
 21
-0.078000000000003
 31
0.0
210
0.0
220
0.0
230
1.0
 40
0.7071067811865475
 41
1.972243451597974
 42
7.484207408931926
1001
ACAD
1000
RTLwPs
1070
   128
  0
ELLIPSE
  5
6A
100
AcDbEntity
  8
USP-GEO
  6
CONTINUOUS
100
AcDbEllipse
 10
4.728145967872546
 20
0.4863758077724008
 30
0.0
 11
0.0
 21
-0.078000000000003
 31
0.0
210
0.0
220
0.0
230
1.0
 40
0.7071067811865475
 41
4.032287368971327
 42
5.358735445788362
1001
ACAD
1000
RTLwPs
1070
   128
  0
ELLIPSE
  5
6B
100
AcDbEntity
  8
USP-GEO
  6
CONTINUOUS
100
AcDbEllipse
 10
4.728145967872546
 20
0.4863758077724008
 30
0.0
 11
0.0
 21
-0.078000000000003
 31
0.0
210
0.0
220
0.0
230
1.0
 40
0.7071067811865475
 41
3.504801893232177
 42
4.045415516559013
1001
ACAD
1000
RTLwPs
1070
   128
  0
ELLIPSE
  5
6C
100
AcDbEntity
  8
USP-GEO
  6
CONTINUOUS
100
AcDbEllipse
 10
4.728145967872546
 20
0.4863758077724008
 30
0.0
 11
0.0
 21
-0.078000000000003
 31
0.0
210
0.0
220
0.0
230
1.0
 40
0.7071067811865475
 41
5.345837828888309
 42
5.904238417404435
1001
ACAD
1000
RTLwPs
1070
   128
  0
ELLIPSE
  5
6D
100
AcDbEntity
  8
USP-GEO
  6
CONTINUOUS
100
AcDbEllipse
 10
4.728145967872546
 20
0.4863758077724008
 30
0.0
 11
0.0
 21
-0.078000000000003
 31
0.0
210
0.0
220
0.0
230
1.0
 40
0.7071067811865475
 41
3.524609230261526
 42
9.37087405570395
1001
ACAD
1000
RTLwPs
1070
   128
  0
ELLIPSE
  5
6E
100
AcDbEntity
  8
USP-GEO
  6
CONTINUOUS
100
AcDbEllipse
 10
4.728145967872546
 20
0.4863758077724008
 30
0.0
 11
0.0
 21
-0.078000000000003
 31
0.0
210
0.0
220
0.0
230
1.0
 40
0.7071067811865475
 41
5.883752502971056
 42
6.363473693646245
1001
ACAD
1000
RTLwPs
1070
   128
  0
ELLIPSE
  5
6F
100
AcDbEntity
  8
USP-GEO
  6
CONTINUOUS
100
AcDbEllipse
 10
4.728145967872546
 20
0.4863758077724008
 30
0.0
 11
0.0
 21
-0.078000000000003
 31
0.0
210
0.0
220
0.0
230
1.0
 40
0.7071067811865475
 41
0.0
 42
6.283185307179586
1001
ACAD
1000
RTLwPs
1070
   128
  0
ELLIPSE
  5
70
100
AcDbEntity
  8
USP-GEO
  6
CONTINUOUS
100
AcDbEllipse
 10
4.728145967872546
 20
0.4863758077724008
 30
0.0
 11
0.0
 21
-0.078000000000003
 31
0.0
210
0.0
220
0.0
230
1.0
 40
0.7071067811865475
 41
0.0564685807284809
 42
0.6802006625788767
1001
ACAD
1000
RTLwPs
1070
   128
  0
ELLIPSE
  5
71
100
AcDbEntity
  8
USP-GEO
  6
CONTINUOUS
100
AcDbEllipse
 10
4.728145967872546
 20
0.4863758077724008
 30
0.0
 11
0.0
 21
-0.078000000000003
 31
0.0
210
0.0
220
0.0
230
1.0
 40
0.7071067811865475
 41
3.087688748524365
 42
8.934558047209803
1001
ACAD
1000
RTLwPs
1070
   128
  0
ELLIPSE
  5
72
100
AcDbEntity
  8
USP-GEO
  6
CONTINUOUS
100
AcDbEllipse
 10
4.728145967872546
 20
0.4863758077724008
 30
0.0
 11
0.0
 21
-0.078000000000003
 31
0.0
210
0.0
220
0.0
230
1.0
 40
0.7071067811865475
 41
2.669320919103806
 42
8.453484609877145
1001
ACAD
1000
RTLwPs
1070
   128
  0
ELLIPSE
  5
73
100
AcDbEntity
  8
USP-GEO
  6
CONTINUOUS
100
AcDbEllipse
 10
4.728145967872546
 20
0.4863758077724008
 30
0.0
 11
0.0
 21
-0.078000000000003
 31
0.0
210
0.0
220
0.0
230
1.0
 40
0.7071067811865475
 41
2.181213476641699
 42
8.189772193886906
1001
ACAD
1000
RTLwPs
1070
   128
  0
ELLIPSE
  5
74
100
AcDbEntity
  8
USP-GEO
  6
CONTINUOUS
100
AcDbEllipse
 10
4.728145967872546
 20
0.4863758077724008
 30
0.0
 11
0.0
 21
-0.078000000000003
 31
0.0
210
0.0
220
0.0
230
1.0
 40
0.7071067811865475
 41
0.7016835863452024
 42
1.899394230228537
1001
ACAD
1000
RTLwPs
1070
   128
  0
ELLIPSE
  5
75
100
AcDbEntity
  8
USP-GEO
  6
CONTINUOUS
100
AcDbEllipse
 10
1.853892842339188
 20
0.2988758077724007
 30
0.0
 11
0.0
 21
-0.078000000000003
 31
0.0
210
0.0
220
0.0
230
1.0
 40
0.7071067811865475
 41
3.933074016695981
 42
5.130254642718222
1001
ACAD
1000
RTLwPs
1070
   128
  0
ELLIPSE
  5
76
100
AcDbEntity
  8
USP-GEO
  6
CONTINUOUS
100
AcDbEllipse
 10
1.853892842339188
 20
0.2988758077724007
 30
0.0
 11
0.0
 21
-0.078000000000003
 31
0.0
210
0.0
220
0.0
230
1.0
 40
0.7071067811865475
 41
3.945666457590072
 42
9.789694988696151
1001
ACAD
1000
RTLwPs
1070
   128
  0
ELLIPSE
  5
77
100
AcDbEntity
  8
USP-GEO
  6
CONTINUOUS
100
AcDbEllipse
 10
1.853892842339188
 20
0.2988758077724007
 30
0.0
 11
0.0
 21
-0.078000000000003
 31
0.0
210
0.0
220
0.0
230
1.0
 40
0.7071067811865475
 41
5.13967749161056
 42
5.742729369746899
1001
ACAD
1000
RTLwPs
1070
   128
  0
ELLIPSE
  5
78
100
AcDbEntity
  8
USP-GEO
  6
CONTINUOUS
100
AcDbEllipse
 10
1.815544465209281
 20
0.2988758077724007
 30
0.0
 11
0.0
 21
-0.078000000000003
 31
0.0
210
0.0
220
0.0
230
1.0
 40
0.7071067811865475
 41
4.23683380588341
 42
5.569011550952331
1001
ACAD
1000
RTLwPs
1070
   128
  0
ELLIPSE
  5
79
100
AcDbEntity
  8
USP-GEO
  6
CONTINUOUS
100
AcDbEllipse
 10
1.815544465209281
 20
0.2988758077724007
 30
0.0
 11
0.0
 21
-0.078000000000003
 31
0.0
210
0.0
220
0.0
230
1.0
 40
0.7071067811865475
 41
4.245222666269393
 42
10.06310026629819
1001
ACAD
1000
RTLwPs
1070
   128
  0
ELLIPSE
  5
7A
100
AcDbEntity
  8
USP-GEO
  6
CONTINUOUS
100
AcDbEllipse
 10
1.815544465209281
 20
0.2988758077724007
 30
0.0
 11
0.0
 21
-0.078000000000003
 31
0.0
210
0.0
220
0.0
230
1.0
 40
0.7071067811865475
 41
0.0
 42
6.283185307179586
1001
ACAD
1000
RTLwPs
1070
   128
  0
ELLIPSE
  5
7B
100
AcDbEntity
  8
USP-GEO
  6
CONTINUOUS
100
AcDbEllipse
 10
1.815544465209281
 20
0.2988758077724007
 30
0.0
 11
0.0
 21
-0.078000000000003
 31
0.0
210
0.0
220
0.0
230
1.0
 40
0.7071067811865475
 41
3.286767758276861
 42
3.779914959118606
1001
ACAD
1000
RTLwPs
1070
   128
  0
ELLIPSE
  5
7C
100
AcDbEntity
  8
USP-GEO
  6
CONTINUOUS
100
AcDbEllipse
 10
1.815544465209281
 20
0.2988758077724007
 30
0.0
 11
0.0
 21
-0.078000000000003
 31
0.0
210
0.0
220
0.0
230
1.0
 40
0.7071067811865475
 41
5.551436171067915
 42
6.117188290455327
1001
ACAD
1000
RTLwPs
1070
   128
  0
ELLIPSE
  5
7D
100
AcDbEntity
  8
USP-GEO
  6
CONTINUOUS
100
AcDbEllipse
 10
1.815544465209281
 20
0.2988758077724007
 30
0.0
 11
0.0
 21
-0.078000000000003
 31
0.0
210
0.0
220
0.0
230
1.0
 40
0.7071067811865475
 41
3.305236435081639
 42
9.196687529656667
1001
ACAD
1000
RTLwPs
1070
   128
  0
ELLIPSE
  5
7E
100
AcDbEntity
  8
USP-GEO
  6
CONTINUOUS
100
AcDbEllipse
 10
1.815544465209281
 20
0.2988758077724007
 30
0.0
 11
0.0
 21
-0.078000000000003
 31
0.0
210
0.0
220
0.0
230
1.0
 40
0.7071067811865475
 41
2.931524859832226
 42
8.745421668354371
1001
ACAD
1000
RTLwPs
1070
   128
  0
ELLIPSE
  5
7F
100
AcDbEntity
  8
USP-GEO
  6
CONTINUOUS
100
AcDbEllipse
 10
1.815544465209281
 20
0.2988758077724007
 30
0.0
 11
0.0
 21
-0.078000000000003
 31
0.0
210
0.0
220
0.0
230
1.0
 40
0.7071067811865475
 41
0.789782677700301
 42
6.096180319181671
1001
ACAD
1000
RTLwPs
1070
   128
  0
ELLIPSE
  5
80
100
AcDbEntity
  8
USP-GEO
  6
CONTINUOUS
100
AcDbEllipse
 10
1.815544465209281
 20
0.2988758077724007
 30
0.0
 11
0.0
 21
-0.078000000000003
 31
0.0
210
0.0
220
0.0
230
1.0
 40
0.7071067811865475
 41
1.05217964356612
 42
7.057230183444016
1001
ACAD
1000
RTLwPs
1070
   128
  0
ELLIPSE
  5
81
100
AcDbEntity
  8
USP-GEO
  6
CONTINUOUS
100
AcDbEllipse
 10
1.815544465209281
 20
0.2988758077724007
 30
0.0
 11
0.0
 21
-0.078000000000003
 31
0.0
210
0.0
220
0.0
230
1.0
 40
0.7071067811865475
 41
1.065621261454522
 42
2.446801526524313
1001
ACAD
1000
RTLwPs
1070
   128
  0
LWPOLYLINE
  5
82
100
AcDbEntity
  8
USP-GEO
100
AcDbPolyline
 90
        2
 70
   128
 43
0.0
 10
2.170518987035102
 20
1.122430088186035
 10
2.0730223452817
 20
1.244300890377786
  0
LWPOLYLINE
  5
83
100
AcDbEntity
  8
USP-GEO
100
AcDbPolyline
 90
        2
 70
   128
 43
0.0
 10
2.0730223452817
 20
0.9761851255559328
 10
2.170518987035102
 20
1.122430088186035
  0
LWPOLYLINE
  5
84
100
AcDbEntity
  8
USP-GEO
100
AcDbPolyline
 90
        2
 70
   128
 43
0.0
 10
2.024274024404999
 20
0.9761851255559328
 10
2.0730223452817
 20
0.9761851255559328
  0
LWPOLYLINE
  5
85
100
AcDbEntity
  8
USP-GEO
100
AcDbPolyline
 90
        2
 70
   128
 43
0.0
 10
2.0730223452817
 20
1.244300890377786
 10
2.024274024404999
 20
1.244300890377786
  0
LWPOLYLINE
  5
86
100
AcDbEntity
  8
USP-GEO
100
AcDbPolyline
 90
        2
 70
   128
 43
0.0
 10
4.365412134508552
 20
1.122430088186035
 10
4.487282936700307
 20
1.244300890377786
  0
LWPOLYLINE
  5
87
100
AcDbEntity
  8
USP-GEO
100
AcDbPolyline
 90
        2
 70
   128
 43
0.0
 10
4.487282936700307
 20
0.9761851255559328
 10
4.365412134508552
 20
1.122430088186035
  0
LWPOLYLINE
  5
88
100
AcDbEntity
  8
USP-GEO
100
AcDbPolyline
 90
        2
 70
   128
 43
0.0
 10
4.487282936700307
 20
1.244300890377786
 10
4.511657097138655
 20
1.244300890377786
  0
LWPOLYLINE
  5
89
100
AcDbEntity
  8
USP-GEO
100
AcDbPolyline
 90
        2
 70
   128
 43
0.0
 10
4.511657097138655
 20
0.9761851255559328
 10
4.487282936700307
 20
0.9761851255559328
  0
ARC
  5
8A
100
AcDbEntity
  8
USP-GEO
100
AcDbCircle
 10
2.021845216540921
 20
0.2988758077724007
 30
0.0
 40
0.3020000000000001
100
AcDbArc
 50
98.45254370979548
 51
261.1904346616449
  0
ARC
  5
8B
100
AcDbEntity
  8
USP-GEO
100
AcDbCircle
 10
4.521845216540906
 20
0.4863758077724008
 30
0.0
 40
0.3020000000000001
100
AcDbArc
 50
277.5384532634781
 51
83.11168649162864
  0
TEXT
  5
8C
100
AcDbEntity
  8
USP-TXT
100
AcDbText
 10
1.059632227438494
 20
-1.47679608312713
 30
0.0
 40
0.25
  1
TFL2516 - TOP VIEW
 72
     1
 11
3.267965560771828
 21
-1.47679608312713
 31
0.0
100
AcDbText
  0
ENDBLK
  5
93
100
AcDbEntity
  8
0
100
AcDbBlockEnd
  0
BLOCK
  5
10D
100
AcDbEntity
  8
0
100
AcDbBlockBegin
  2
TFL2516PR_F
 70
     0
 10
0.0
 20
0.0
 30
0.0
  3
TFL2516PR_F
  1

  0
LWPOLYLINE
  5
96
100
AcDbEntity
  8
USP-GEO
100
AcDbPolyline
 90
        2
 70
   128
 43
0.0
 10
1.902403222213248
 20
16.05404077271947
 10
0.0
 20
16.05404077271947
  0
LWPOLYLINE
  5
97
100
AcDbEntity
  8
USP-GEO
100
AcDbPolyline
 90
        2
 70
   128
 43
0.0
 10
6.560305281982003
 20
16.05404077271947
 10
4.633527899330406
 20
16.05404077271947
  0
CIRCLE
  5
98
100
AcDbEntity
  8
USP-GEO
100
AcDbCircle
 10
1.523778616958704
 20
15.05786435691521
 30
0.0
 40
0.09
  0
LWPOLYLINE
  5
99
100
AcDbEntity
  8
USP-GEO
100
AcDbPolyline
 90
        2
 70
   128
 43
0.0
 10
1.658661617829743
 20
4.61159115493589
 10
1.536790815637992
 20
4.733461957127641
  0
LWPOLYLINE
  5
9A
100
AcDbEntity
  8
USP-GEO
100
AcDbPolyline
 90
        2
 70
   128
 43
0.0
 10
1.756158259583145
 20
4.733461957127641
 10
1.658661617829743
 20
4.61159115493589
  0
LWPOLYLINE
  5
9B
100
AcDbEntity
  8
USP-GEO
100
AcDbPolyline
 90
        2
 70
   128
 43
0.0
 10
1.658661617829743
 20
4.830958598881043
 10
1.756158259583145
 20
4.733461957127641
  0
LWPOLYLINE
  5
9C
100
AcDbEntity
  8
USP-GEO
100
AcDbPolyline
 90
        2
 70
   128
 43
0.0
 10
1.536790815637992
 20
4.733461957127641
 10
1.658661617829743
 20
4.830958598881043
  0
ARC
  5
9D
100
AcDbEntity
  8
USP-GEO
100
AcDbCircle
 10
1.969845216540928
 20
2.198489356915215
 30
0.0
 40
0.125
100
AcDbArc
 50
192.9658256618117
 51
250.8822955368227
  0
LWPOLYLINE
  5
9E
100
AcDbEntity
  8
USP-GEO
100
AcDbPolyline
 90
        2
 70
   128
 43
0.0
 10
1.853654901336547
 20
2.171737695057018
 10
1.244300890377788
 20
5.318441807648053
  0
ARC
  5
9F
100
AcDbEntity
  8
USP-GEO
100
AcDbCircle
 10
1.969845216540957
 20
5.461026205613846
 30
0.0
 40
0.75
100
AcDbArc
 50
179.6272157678651
 51
191.1181167720179
  0
LWPOLYLINE
  5
A0
100
AcDbEntity
  8
USP-GEO
100
AcDbPolyline
 90
        2
 70
   128
 43
0.0
 10
1.219926729939437
 20
14.24791548423771
 10
1.219926729939437
 20
5.465905478300072
  0
ARC
  5
A1
100
AcDbEntity
  8
USP-GEO
100
AcDbCircle
 10
0.7198452165409571
 20
14.25008721198906
 30
0.0
 40
0.5
100
AcDbArc
 50
359.7511804598922
 51
41.97847217753533
  0
LWPOLYLINE
  5
A2
100
AcDbEntity
  8
USP-GEO
100
AcDbPolyline
 90
        2
 70
   128
 43
0.0
 10
1.098055927747685
 20
14.59037243839653
 10
0.194993283506804
 20
15.61408717680725
  0
ARC
  5
A3
100
AcDbEntity
  8
USP-GEO
100
AcDbCircle
 10
0.0046625554621436
 20
15.43286435691521
 30
0.0
 40
0.25
100
AcDbArc
 50
43.59578729829246
 51
91.05020548858206
  0
ARC
  5
A4
100
AcDbEntity
  8
USP-GEO
100
AcDbCircle
 10
0.0046625554621436
 20
15.78874829541865
 30
0.0
 40
0.1058839385034389
100
AcDbArc
 50
267.370880379073
 51
268.0574654109099
  0
LWPOLYLINE
  5
A5
100
AcDbEntity
  8
USP-GEO
100
AcDbPolyline
 90
        2
 70
   128
 43
0.0
 10
0.0
 20
16.02966661228112
 10
0.0
 20
15.6872096581223
  0
LWPOLYLINE
  5
A6
100
AcDbEntity
  8
USP-GEO
100
AcDbPolyline
 90
        2
 70
   128
 43
0.0
 10
4.511657097138655
 20
2.074241053303616
 10
4.560405418015356
 20
2.074241053303616
  0
LWPOLYLINE
  5
A7
100
AcDbEntity
  8
USP-GEO
100
AcDbPolyline
 90
        2
 70
   128
 43
0.0
 10
4.511657097138655
 20
2.171737695057018
 10
4.560405418015356
 20
2.171737695057018
  0
LWPOLYLINE
  5
A8
100
AcDbEntity
  8
USP-GEO
100
AcDbPolyline
 90
        2
 70
   128
 43
0.0
 10
4.536031257577004
 20
15.6872096581223
 10
4.560405418015356
 20
15.6872096581223
  0
LWPOLYLINE
  5
A9
100
AcDbEntity
  8
USP-GEO
100
AcDbPolyline
 90
        2
 70
   128
 43
0.0
 10
2.048648184843349
 20
0.0
 10
4.487282936700307
 20
0.0
  0
LWPOLYLINE
  5
AA
100
AcDbEntity
  8
USP-GEO
100
AcDbPolyline
 90
        2
 70
   128
 43
0.0
 10
2.024274024404999
 20
2.171737695057018
 10
1.975525703528299
 20
2.171737695057018
  0
LWPOLYLINE
  5
AB
100
AcDbEntity
  8
USP-GEO
100
AcDbPolyline
 90
        2
 70
   128
 43
0.0
 10
2.024274024404999
 20
2.074241053303616
 10
1.975525703528299
 20
2.074241053303616
  0
ARC
  5
AC
100
AcDbEntity
  8
USP-GEO
100
AcDbCircle
 10
2.004662555462143
 20
15.78874829541865
 30
0.0
 40
0.1058839385034389
100
AcDbArc
 50
181.5814827963559
 51
253.9889905234087
  0
LWPOLYLINE
  5
AD
100
AcDbEntity
  8
USP-GEO
100
AcDbPolyline
 90
        2
 70
   128
 43
0.0
 10
1.975525703528299
 20
15.6872096581223
 10
1.926777382651598
 20
15.6872096581223
  0
LWPOLYLINE
  5
AE
100
AcDbEntity
  8
USP-GEO
100
AcDbPolyline
 90
        2
 70
   128
 43
0.0
 10
1.975525703528299
 20
15.6872096581223
 10
1.999899863966648
 20
15.6872096581223
  0
LWPOLYLINE
  5
AF
100
AcDbEntity
  8
USP-GEO
100
AcDbPolyline
 90
        2
 70
   128
 43
0.0
 10
2.024274024404999
 20
15.6872096581223
 10
1.999899863966648
 20
15.6872096581223
  0
LWPOLYLINE
  5
B0
100
AcDbEntity
  8
USP-GEO
100
AcDbPolyline
 90
        2
 70
   128
 43
0.0
 10
2.024274024404999
 20
15.6872096581223
 10
2.025492732426917
 20
15.6872096581223
  0
LWPOLYLINE
  5
B1
100
AcDbEntity
  8
USP-GEO
100
AcDbPolyline
 90
        2
 70
   128
 43
0.0
 10
1.975525703528299
 20
15.6872096581223
 10
1.976744411550216
 20
15.6872096581223
  0
LWPOLYLINE
  5
B2
100
AcDbEntity
  8
USP-GEO
100
AcDbPolyline
 90
        2
 70
   128
 43
0.0
 10
1.975525703528299
 20
2.074241053303616
 10
1.926777382651598
 20
2.074241053303616
  0
LWPOLYLINE
  5
B3
100
AcDbEntity
  8
USP-GEO
100
AcDbPolyline
 90
        2
 70
   128
 43
0.0
 10
1.926777382651598
 20
15.6872096581223
 10
1.975525703528299
 20
15.6872096581223
  0
LWPOLYLINE
  5
B4
100
AcDbEntity
  8
USP-GEO
100
AcDbPolyline
 90
        2
 70
   128
 43
0.0
 10
1.902403222213248
 20
16.02966661228112
 10
1.902403222213248
 20
15.78592500789762
  0
LWPOLYLINE
  5
B5
100
AcDbEntity
  8
USP-GEO
100
AcDbPolyline
 90
        2
 70
   128
 43
0.0
 10
0.0
 20
16.12716325403452
 10
1.902403222213248
 20
16.12716325403452
  0
LWPOLYLINE
  5
B6
100
AcDbEntity
  8
USP-GEO
100
AcDbPolyline
 90
        2
 70
   128
 43
0.0
 10
1.902403222213248
 20
16.12716325403452
 10
1.902403222213248
 20
16.02966661228112
  0
LWPOLYLINE
  5
B7
100
AcDbEntity
  8
USP-GEO
100
AcDbPolyline
 90
        2
 70
   128
 43
0.0
 10
0.0
 20
16.02966661228112
 10
0.0
 20
16.12716325403452
  0
LWPOLYLINE
  5
B8
100
AcDbEntity
  8
USP-GEO
100
AcDbPolyline
 90
        2
 70
   128
 43
0.0
 10
4.511657097138655
 20
15.61408717680725
 10
4.511657097138655
 20
15.6872096581223
  0
LWPOLYLINE
  5
B9
100
AcDbEntity
  8
USP-GEO
100
AcDbPolyline
 90
        2
 70
   128
 43
0.0
 10
4.511657097138655
 20
14.59037243839653
 10
4.511657097138655
 20
15.61408717680725
  0
LWPOLYLINE
  5
BA
100
AcDbEntity
  8
USP-GEO
100
AcDbPolyline
 90
        2
 70
   128
 43
0.0
 10
4.511657097138655
 20
14.24791548423771
 10
4.511657097138655
 20
14.59037243839653
  0
LWPOLYLINE
  5
BB
100
AcDbEntity
  8
USP-GEO
100
AcDbPolyline
 90
        2
 70
   128
 43
0.0
 10
4.511657097138655
 20
5.465905478300072
 10
4.511657097138655
 20
14.24791548423771
  0
LWPOLYLINE
  5
BC
100
AcDbEntity
  8
USP-GEO
100
AcDbPolyline
 90
        2
 70
   128
 43
0.0
 10
4.511657097138655
 20
5.318441807648053
 10
4.511657097138655
 20
5.465905478300072
  0
LWPOLYLINE
  5
BD
100
AcDbEntity
  8
USP-GEO
100
AcDbPolyline
 90
        2
 70
   128
 43
0.0
 10
4.511657097138655
 20
2.171737695057018
 10
4.511657097138655
 20
5.318441807648053
  0
LWPOLYLINE
  5
BE
100
AcDbEntity
  8
USP-GEO
100
AcDbPolyline
 90
        2
 70
   128
 43
0.0
 10
4.511657097138655
 20
2.074241053303616
 10
4.511657097138655
 20
2.171737695057018
  0
LWPOLYLINE
  5
BF
100
AcDbEntity
  8
USP-GEO
100
AcDbPolyline
 90
        2
 70
   128
 43
0.0
 10
4.511657097138655
 20
1.952370251111865
 10
4.511657097138655
 20
2.074241053303616
  0
LWPOLYLINE
  5
C0
100
AcDbEntity
  8
USP-GEO
100
AcDbPolyline
 90
        2
 70
   128
 43
0.0
 10
4.511657097138655
 20
0.097496641753402
 10
4.511657097138655
 20
1.952370251111865
  0
LWPOLYLINE
  5
C1
100
AcDbEntity
  8
USP-GEO
100
AcDbPolyline
 90
        2
 70
   128
 43
0.0
 10
4.536031257577004
 20
15.6872096581223
 10
4.511657097138655
 20
15.6872096581223
  0
LWPOLYLINE
  5
C2
100
AcDbEntity
  8
USP-GEO
100
AcDbPolyline
 90
        2
 70
   128
 43
0.0
 10
4.511657097138655
 20
15.6872096581223
 10
4.512875805160572
 20
15.6872096581223
  0
LWPOLYLINE
  5
C3
100
AcDbEntity
  8
USP-GEO
100
AcDbPolyline
 90
        2
 70
   128
 43
0.0
 10
4.560405418015356
 20
15.6872096581223
 10
4.561624126037273
 20
15.6872096581223
  0
LWPOLYLINE
  5
C4
100
AcDbEntity
  8
USP-GEO
100
AcDbPolyline
 90
        2
 70
   128
 43
0.0
 10
4.560405418015356
 20
15.6872096581223
 10
4.609153738892057
 20
15.6872096581223
  0
LWPOLYLINE
  5
C5
100
AcDbEntity
  8
USP-GEO
100
AcDbPolyline
 90
        2
 70
   128
 43
0.0
 10
4.609153738892057
 20
2.074241053303616
 10
4.560405418015356
 20
2.074241053303616
  0
ARC
  5
C6
100
AcDbEntity
  8
USP-GEO
100
AcDbCircle
 10
6.539027877619908
 20
15.78874829541875
 30
0.0
 40
0.1058839385034389
100
AcDbArc
 50
268.253117468715
 51
281.8350735616496
  0
ARC
  5
C7
100
AcDbEntity
  8
USP-GEO
100
AcDbCircle
 10
6.539027877619908
 20
15.43286435691531
 30
0.0
 40
0.25
100
AcDbArc
 50
90.69756463282603
 51
137.5461416214045
  0
LWPOLYLINE
  5
C8
100
AcDbEntity
  8
USP-GEO
100
AcDbPolyline
 90
        2
 70
   128
 43
0.0
 10
5.439093901817887
 20
14.59037243839653
 10
6.34093783803685
 20
15.61408717680725
  0
ARC
  5
C9
100
AcDbEntity
  8
USP-GEO
100
AcDbCircle
 10
5.823845216541094
 20
14.25008721198916
 30
0.0
 40
0.5
100
AcDbArc
 50
138.5095226115632
 51
180.2456072644644
  0
LWPOLYLINE
  5
CA
100
AcDbEntity
  8
USP-GEO
100
AcDbPolyline
 90
        2
 70
   128
 43
0.0
 10
5.317223099626136
 20
14.24791548423771
 10
5.317223099626136
 20
5.465905478300072
  0
ARC
  5
CB
100
AcDbEntity
  8
USP-GEO
100
AcDbCircle
 10
4.573845216541094
 20
5.461026205613903
 30
0.0
 40
0.75
100
AcDbArc
 50
349.1421907971001
 51
0.3760640770040999
  0
LWPOLYLINE
  5
CC
100
AcDbEntity
  8
USP-GEO
100
AcDbPolyline
 90
        2
 70
   128
 43
0.0
 10
4.706650380645459
 20
2.171737695057018
 10
5.317223099626136
 20
5.318441807648053
  0
ARC
  5
CD
100
AcDbEntity
  8
USP-GEO
100
AcDbCircle
 10
4.573845216541123
 20
2.198489356915301
 30
0.0
 40
0.125
100
AcDbArc
 50
285.8639356323056
 51
348.6110099955624
  0
LWPOLYLINE
  5
CE
100
AcDbEntity
  8
USP-GEO
100
AcDbPolyline
 90
        2
 70
   128
 43
0.0
 10
4.609153738892057
 20
15.6872096581223
 10
4.560405418015356
 20
15.6872096581223
  0
ARC
  5
CF
100
AcDbEntity
  8
USP-GEO
100
AcDbCircle
 10
4.539027877619908
 20
15.78874829541875
 30
0.0
 40
0.1058839385034389
100
AcDbArc
 50
281.8891903559094
 51
358.2887373613014
  0
LWPOLYLINE
  5
D0
100
AcDbEntity
  8
USP-GEO
100
AcDbPolyline
 90
        2
 70
   128
 43
0.0
 10
4.633527899330406
 20
16.02966661228112
 10
4.633527899330406
 20
15.78592500789762
  0
CIRCLE
  5
D1
100
AcDbEntity
  8
USP-GEO
100
AcDbCircle
 10
5.019911816123347
 20
15.05786435691531
 30
0.0
 40
0.09
  0
LWPOLYLINE
  5
D2
100
AcDbEntity
  8
USP-GEO
100
AcDbPolyline
 90
        2
 70
   128
 43
0.0
 10
4.779772861960509
 20
4.733461957127641
 10
4.877269503713911
 20
4.830958598881043
  0
LWPOLYLINE
  5
D3
100
AcDbEntity
  8
USP-GEO
100
AcDbPolyline
 90
        2
 70
   128
 43
0.0
 10
4.877269503713911
 20
4.61159115493589
 10
4.779772861960509
 20
4.733461957127641
  0
LWPOLYLINE
  5
D4
100
AcDbEntity
  8
USP-GEO
100
AcDbPolyline
 90
        2
 70
   128
 43
0.0
 10
5.000359013927582
 20
4.733461957127641
 10
4.877269503713911
 20
4.61159115493589
  0
LWPOLYLINE
  5
D5
100
AcDbEntity
  8
USP-GEO
100
AcDbPolyline
 90
        2
 70
   128
 43
0.0
 10
4.877269503713911
 20
4.830958598881043
 10
5.000359013927582
 20
4.733461957127641
  0
LWPOLYLINE
  5
D6
100
AcDbEntity
  8
USP-GEO
100
AcDbPolyline
 90
        2
 70
   128
 43
0.0
 10
6.560305281982003
 20
16.02966661228112
 10
6.560305281982003
 20
15.6872096581223
  0
LWPOLYLINE
  5
D7
100
AcDbEntity
  8
USP-GEO
100
AcDbPolyline
 90
        2
 70
   128
 43
0.0
 10
4.633527899330406
 20
16.02966661228112
 10
4.633527899330406
 20
16.12716325403452
  0
LWPOLYLINE
  5
D8
100
AcDbEntity
  8
USP-GEO
100
AcDbPolyline
 90
        2
 70
   128
 43
0.0
 10
4.633527899330406
 20
16.12716325403452
 10
6.560305281982003
 20
16.12716325403452
  0
LWPOLYLINE
  5
D9
100
AcDbEntity
  8
USP-GEO
100
AcDbPolyline
 90
        2
 70
   128
 43
0.0
 10
6.560305281982003
 20
16.12716325403452
 10
6.560305281982003
 20
16.02966661228112
  0
LWPOLYLINE
  5
DA
100
AcDbEntity
  8
USP-GEO
100
AcDbPolyline
 90
        2
 70
   128
 43
0.0
 10
1.975525703528299
 20
15.61408717680725
 10
1.975525703528299
 20
15.6872096581223
  0
LWPOLYLINE
  5
DB
100
AcDbEntity
  8
USP-GEO
100
AcDbPolyline
 90
        2
 70
   128
 43
0.0
 10
1.975525703528299
 20
14.59037243839653
 10
1.975525703528299
 20
15.61408717680725
  0
LWPOLYLINE
  5
DC
100
AcDbEntity
  8
USP-GEO
100
AcDbPolyline
 90
        2
 70
   128
 43
0.0
 10
1.975525703528299
 20
14.24791548423771
 10
1.975525703528299
 20
14.59037243839653
  0
LWPOLYLINE
  5
DD
100
AcDbEntity
  8
USP-GEO
100
AcDbPolyline
 90
        2
 70
   128
 43
0.0
 10
1.975525703528299
 20
14.24791548423771
 10
1.975525703528299
 20
5.465905478300072
  0
LWPOLYLINE
  5
DE
100
AcDbEntity
  8
USP-GEO
100
AcDbPolyline
 90
        2
 70
   128
 43
0.0
 10
1.975525703528299
 20
5.465905478300072
 10
1.975525703528299
 20
5.318441807648053
  0
LWPOLYLINE
  5
DF
100
AcDbEntity
  8
USP-GEO
100
AcDbPolyline
 90
        2
 70
   128
 43
0.0
 10
1.975525703528299
 20
2.171737695057018
 10
1.975525703528299
 20
5.318441807648053
  0
LWPOLYLINE
  5
E0
100
AcDbEntity
  8
USP-GEO
100
AcDbPolyline
 90
        2
 70
   128
 43
0.0
 10
1.975525703528299
 20
2.171737695057018
 10
1.975525703528299
 20
2.074241053303616
  0
LWPOLYLINE
  5
E1
100
AcDbEntity
  8
USP-GEO
100
AcDbPolyline
 90
        2
 70
   128
 43
0.0
 10
1.975525703528299
 20
1.952370251111865
 10
1.975525703528299
 20
2.074241053303616
  0
LWPOLYLINE
  5
E2
100
AcDbEntity
  8
USP-GEO
100
AcDbPolyline
 90
        2
 70
   128
 43
0.0
 10
1.975525703528299
 20
1.952370251111865
 10
1.975525703528299
 20
0.097496641753402
  0
ARC
  5
E3
100
AcDbEntity
  8
USP-GEO
100
AcDbCircle
 10
2.059845216540917
 20
0.0958643569152269
 30
0.0
 40
0.09
100
AcDbArc
 50
178.8909879925812
 51
263.3379941071056
  0
LWPOLYLINE
  5
E4
100
AcDbEntity
  8
USP-GEO
100
AcDbPolyline
 90
        2
 70
   128
 43
0.0
 10
4.560405418015356
 20
0.097496641753402
 10
4.560405418015356
 20
1.952370251111865
  0
LWPOLYLINE
  5
E5
100
AcDbEntity
  8
USP-GEO
100
AcDbPolyline
 90
        2
 70
   128
 43
0.0
 10
4.560405418015356
 20
2.074241053303616
 10
4.560405418015356
 20
1.952370251111865
  0
LWPOLYLINE
  5
E6
100
AcDbEntity
  8
USP-GEO
100
AcDbPolyline
 90
        2
 70
   128
 43
0.0
 10
4.560405418015356
 20
2.074241053303616
 10
4.560405418015356
 20
2.171737695057018
  0
LWPOLYLINE
  5
E7
100
AcDbEntity
  8
USP-GEO
100
AcDbPolyline
 90
        2
 70
   128
 43
0.0
 10
4.560405418015356
 20
2.171737695057018
 10
4.560405418015356
 20
5.318441807648053
  0
LWPOLYLINE
  5
E8
100
AcDbEntity
  8
USP-GEO
100
AcDbPolyline
 90
        2
 70
   128
 43
0.0
 10
4.560405418015356
 20
5.318441807648053
 10
4.560405418015356
 20
5.465905478300072
  0
LWPOLYLINE
  5
E9
100
AcDbEntity
  8
USP-GEO
100
AcDbPolyline
 90
        2
 70
   128
 43
0.0
 10
4.560405418015356
 20
14.24791548423771
 10
4.560405418015356
 20
5.465905478300072
  0
LWPOLYLINE
  5
EA
100
AcDbEntity
  8
USP-GEO
100
AcDbPolyline
 90
        2
 70
   128
 43
0.0
 10
4.560405418015356
 20
14.59037243839653
 10
4.560405418015356
 20
14.24791548423771
  0
LWPOLYLINE
  5
EB
100
AcDbEntity
  8
USP-GEO
100
AcDbPolyline
 90
        2
 70
   128
 43
0.0
 10
4.560405418015356
 20
14.59037243839653
 10
4.560405418015356
 20
15.61408717680725
  0
LWPOLYLINE
  5
EC
100
AcDbEntity
  8
USP-GEO
100
AcDbPolyline
 90
        2
 70
   128
 43
0.0
 10
4.560405418015356
 20
15.6872096581223
 10
4.560405418015356
 20
15.61408717680725
  0
ARC
  5
ED
100
AcDbEntity
  8
USP-GEO
100
AcDbCircle
 10
4.483845216540906
 20
0.0958643569152269
 30
0.0
 40
0.09
100
AcDbArc
 50
272.0537611406979
 51
1.22137695331934
  0
LWPOLYLINE
  5
EE
100
AcDbEntity
  8
USP-GEO
100
AcDbPolyline
 90
        2
 70
   128
 43
0.0
 10
2.048648184843349
 20
0.048748320876701
 10
4.487282936700307
 20
0.048748320876701
  0
ARC
  5
EF
100
AcDbEntity
  8
USP-GEO
100
AcDbCircle
 10
4.483845216541162
 20
0.0958643569152269
 30
0.0
 40
0.038
100
AcDbArc
 50
274.1730684973878
 51
3.358847740757853
  0
LWPOLYLINE
  5
F0
100
AcDbEntity
  8
USP-GEO
100
AcDbPolyline
 90
        2
 70
   128
 43
0.0
 10
2.024274024404999
 20
1.952370251111865
 10
2.024274024404999
 20
0.097496641753402
  0
LWPOLYLINE
  5
F1
100
AcDbEntity
  8
USP-GEO
100
AcDbPolyline
 90
        2
 70
   128
 43
0.0
 10
2.024274024404999
 20
2.074241053303616
 10
2.024274024404999
 20
1.952370251111865
  0
LWPOLYLINE
  5
F2
100
AcDbEntity
  8
USP-GEO
100
AcDbPolyline
 90
        2
 70
   128
 43
0.0
 10
2.024274024404999
 20
2.171737695057018
 10
2.024274024404999
 20
2.074241053303616
  0
LWPOLYLINE
  5
F3
100
AcDbEntity
  8
USP-GEO
100
AcDbPolyline
 90
        2
 70
   128
 43
0.0
 10
2.024274024404999
 20
5.318441807648053
 10
2.024274024404999
 20
2.171737695057018
  0
LWPOLYLINE
  5
F4
100
AcDbEntity
  8
USP-GEO
100
AcDbPolyline
 90
        2
 70
   128
 43
0.0
 10
2.024274024404999
 20
5.465905478300072
 10
2.024274024404999
 20
5.318441807648053
  0
LWPOLYLINE
  5
F5
100
AcDbEntity
  8
USP-GEO
100
AcDbPolyline
 90
        2
 70
   128
 43
0.0
 10
2.024274024404999
 20
14.24791548423771
 10
2.024274024404999
 20
5.465905478300072
  0
LWPOLYLINE
  5
F6
100
AcDbEntity
  8
USP-GEO
100
AcDbPolyline
 90
        2
 70
   128
 43
0.0
 10
2.024274024404999
 20
14.59037243839653
 10
2.024274024404999
 20
14.24791548423771
  0
LWPOLYLINE
  5
F7
100
AcDbEntity
  8
USP-GEO
100
AcDbPolyline
 90
        2
 70
   128
 43
0.0
 10
2.024274024404999
 20
15.61408717680725
 10
2.024274024404999
 20
14.59037243839653
  0
LWPOLYLINE
  5
F8
100
AcDbEntity
  8
USP-GEO
100
AcDbPolyline
 90
        2
 70
   128
 43
0.0
 10
2.024274024404999
 20
15.6872096581223
 10
2.024274024404999
 20
15.61408717680725
  0
ARC
  5
F9
100
AcDbEntity
  8
USP-GEO
100
AcDbCircle
 10
2.059845216540917
 20
0.0958643569152269
 30
0.0
 40
0.038
100
AcDbArc
 50
177.3726640634864
 51
256.6317548602813
  0
LWPOLYLINE
  5
FA
100
AcDbEntity
  8
USP-GEO
100
AcDbPolyline
 90
        2
 70
   128
 43
0.0
 10
4.682276220207107
 20
1.489261202783207
 10
4.779772861960509
 20
1.366171692569537
  0
LWPOLYLINE
  5
FB
100
AcDbEntity
  8
USP-GEO
100
AcDbPolyline
 90
        2
 70
   128
 43
0.0
 10
1.878029061774897
 20
1.489261202783207
 10
1.756158259583145
 20
1.366171692569537
  0
LWPOLYLINE
  5
FC
100
AcDbEntity
  8
USP-GEO
100
AcDbPolyline
 90
        2
 70
   128
 43
0.0
 10
2.0730223452817
 20
0.8543143233641785
 10
2.170518987035102
 20
0.7811918420491289
  0
LWPOLYLINE
  5
FD
100
AcDbEntity
  8
USP-GEO
100
AcDbPolyline
 90
        2
 70
   128
 43
0.0
 10
2.146144826596751
 20
0.7568176816107766
 10
2.170518987035102
 20
0.7811918420491289
  0
LWPOLYLINE
  5
FE
100
AcDbEntity
  8
USP-GEO
100
AcDbPolyline
 90
        2
 70
   128
 43
0.0
 10
2.146144826596751
 20
0.7568176816107766
 10
2.024274024404999
 20
0.8299401629258298
  0
LWPOLYLINE
  5
FF
100
AcDbEntity
  8
USP-GEO
100
AcDbPolyline
 90
        2
 70
   128
 43
0.0
 10
2.024274024404999
 20
0.8786884838025308
 10
2.0730223452817
 20
0.8543143233641785
  0
LWPOLYLINE
  5
100
100
AcDbEntity
  8
USP-GEO
100
AcDbPolyline
 90
        2
 70
   128
 43
0.0
 10
2.024274024404999
 20
0.8299401629258298
 10
2.0730223452817
 20
0.8543143233641785
  0
LWPOLYLINE
  5
101
100
AcDbEntity
  8
USP-GEO
100
AcDbPolyline
 90
        2
 70
   128
 43
0.0
 10
2.024274024404999
 20
0.8299401629258298
 10
2.025492732426917
 20
0.8299401629258298
  0
LWPOLYLINE
  5
102
100
AcDbEntity
  8
USP-GEO
100
AcDbPolyline
 90
        2
 70
   128
 43
0.0
 10
4.389786294946905
 20
0.7568176816107766
 10
4.365412134508552
 20
0.7811918420491289
  0
LWPOLYLINE
  5
103
100
AcDbEntity
  8
USP-GEO
100
AcDbPolyline
 90
        2
 70
   128
 43
0.0
 10
4.487282936700307
 20
0.8543143233641785
 10
4.365412134508552
 20
0.7811918420491289
  0
LWPOLYLINE
  5
104
100
AcDbEntity
  8
USP-GEO
100
AcDbPolyline
 90
        2
 70
   128
 43
0.0
 10
4.389786294946905
 20
0.7568176816107766
 10
4.511657097138655
 20
0.8299401629258298
  0
LWPOLYLINE
  5
105
100
AcDbEntity
  8
USP-GEO
100
AcDbPolyline
 90
        2
 70
   128
 43
0.0
 10
4.511657097138655
 20
0.8299401629258298
 10
4.512875805160572
 20
0.8299401629258298
  0
LWPOLYLINE
  5
106
100
AcDbEntity
  8
USP-GEO
100
AcDbPolyline
 90
        2
 70
   128
 43
0.0
 10
4.511657097138655
 20
0.8299401629258298
 10
4.487282936700307
 20
0.8543143233641785
  0
LWPOLYLINE
  5
107
100
AcDbEntity
  8
USP-GEO
100
AcDbPolyline
 90
        2
 70
   128
 43
0.0
 10
4.511657097138655
 20
0.8786884838025308
 10
4.487282936700307
 20
0.8543143233641785
  0
ARC
  5
108
100
AcDbEntity
  8
USP-GEO
100
AcDbCircle
 10
2.021845216540921
 20
1.22911435691533
 30
0.0
 40
0.302
100
AcDbArc
 50
99.24653254373231
 51
118.9349947189006
  0
ARC
  5
109
100
AcDbEntity
  8
USP-GEO
100
AcDbCircle
 10
2.021845216540921
 20
1.22911435691533
 30
0.0
 40
0.3020000000000001
100
AcDbArc
 50
152.7125904964586
 51
261.2709850972034
  0
ARC
  5
10A
100
AcDbEntity
  8
USP-GEO
100
AcDbCircle
 10
4.521845216540903
 20
1.22911435691523
 30
0.0
 40
0.3020000000000001
100
AcDbArc
 50
58.3381135516452
 51
82.28191509654132
  0
ARC
  5
10B
100
AcDbEntity
  8
USP-GEO
100
AcDbCircle
 10
4.521845216540903
 20
1.22911435691523
 30
0.0
 40
0.302
100
AcDbArc
 50
277.2840073672739
 51
27.9852386290303
  0
TEXT
  5
10C
100
AcDbEntity
  8
USP-TXT
100
AcDbText
 10
0.8096322274384961
 20
-0.9878246550210594
 30
0.0
 40
0.25
  1
TFL2516 - FRONT VIEW
 72
     1
 11
3.267965560771828
 21
-0.9878246550210594
 31
0.0
100
AcDbText
  0
ENDBLK
  5
10E
100
AcDbEntity
  8
0
100
AcDbBlockEnd
  0
BLOCK
  5
160
100
AcDbEntity
  8
0
100
AcDbBlockBegin
  2
TFL2516PR_S
 70
     0
 10
0.0
 20
0.0
 30
0.0
  3
TFL2516PR_S
  1

  0
LWPOLYLINE
  5
111
100
AcDbEntity
  8
USP-GEO
100
AcDbPolyline
 90
        2
 70
   128
 43
0.0
 10
1.99989986396665
 20
0.048748320876701
 10
0.0
 20
0.048748320876701
  0
LWPOLYLINE
  5
112
100
AcDbEntity
  8
USP-GEO
100
AcDbPolyline
 90
        2
 70
   128
 43
0.0
 10
2.194893147473454
 20
5.318441807648053
 10
2.194893147473454
 20
2.171737695057018
  0
LWPOLYLINE
  5
113
100
AcDbEntity
  8
USP-GEO
100
AcDbPolyline
 90
        2
 70
   128
 43
0.0
 10
2.194893147473454
 20
5.465905478300072
 10
2.194893147473454
 20
5.318441807648053
  0
LWPOLYLINE
  5
114
100
AcDbEntity
  8
USP-GEO
100
AcDbPolyline
 90
        2
 70
   128
 43
0.0
 10
2.194893147473454
 20
14.24791548423771
 10
2.194893147473454
 20
5.465905478300072
  0
LWPOLYLINE
  5
115
100
AcDbEntity
  8
USP-GEO
100
AcDbPolyline
 90
        2
 70
   128
 43
0.0
 10
2.194893147473454
 20
14.59037243839653
 10
2.194893147473454
 20
14.24791548423771
  0
LWPOLYLINE
  5
116
100
AcDbEntity
  8
USP-GEO
100
AcDbPolyline
 90
        2
 70
   128
 43
0.0
 10
2.194893147473454
 20
15.61408717680725
 10
2.194893147473454
 20
14.59037243839653
  0
LWPOLYLINE
  5
117
100
AcDbEntity
  8
USP-GEO
100
AcDbPolyline
 90
        2
 70
   128
 43
0.0
 10
2.194893147473454
 20
15.6872096581223
 10
2.194893147473454
 20
15.61408717680725
  0
LWPOLYLINE
  5
118
100
AcDbEntity
  8
USP-GEO
100
AcDbPolyline
 90
        2
 70
   128
 43
0.0
 10
2.194893147473454
 20
15.6872096581223
 10
2.19611185549537
 20
15.6872096581223
  0
LWPOLYLINE
  5
119
100
AcDbEntity
  8
USP-GEO
100
AcDbPolyline
 90
        2
 70
   128
 43
0.0
 10
2.194893147473454
 20
2.171737695057018
 10
2.146144826596753
 20
2.171737695057018
  0
LWPOLYLINE
  5
11A
100
AcDbEntity
  8
USP-GEO
100
AcDbPolyline
 90
        2
 70
   128
 43
0.0
 10
2.194893147473454
 20
2.171737695057018
 10
2.194893147473454
 20
2.074241053303616
  0
LWPOLYLINE
  5
11B
100
AcDbEntity
  8
USP-GEO
100
AcDbPolyline
 90
        2
 70
   128
 43
0.0
 10
2.194893147473454
 20
2.074241053303616
 10
2.121770666158401
 20
2.074241053303616
  0
LWPOLYLINE
  5
11C
100
AcDbEntity
  8
USP-GEO
100
AcDbPolyline
 90
        2
 70
   128
 43
0.0
 10
2.194893147473454
 20
2.074241053303616
 10
2.19611185549537
 20
2.074241053303616
  0
LWPOLYLINE
  5
11D
100
AcDbEntity
  8
USP-GEO
100
AcDbPolyline
 90
        2
 70
   128
 43
0.0
 10
2.097396505720052
 20
15.6872096581223
 10
2.098615213741968
 20
15.6872096581223
  0
LWPOLYLINE
  5
11E
100
AcDbEntity
  8
USP-GEO
100
AcDbPolyline
 90
        2
 70
   128
 43
0.0
 10
2.097396505720052
 20
15.6872096581223
 10
2.146144826596753
 20
15.6872096581223
  0
LWPOLYLINE
  5
11F
100
AcDbEntity
  8
USP-GEO
100
AcDbPolyline
 90
        2
 70
   128
 43
0.0
 10
2.146144826596753
 20
2.074241053303616
 10
2.097396505720052
 20
2.074241053303616
  0
LWPOLYLINE
  5
120
100
AcDbEntity
  8
USP-GEO
100
AcDbPolyline
 90
        2
 70
   128
 43
0.0
 10
2.146144826596753
 20
15.6872096581223
 10
2.147363534618669
 20
15.6872096581223
  0
LWPOLYLINE
  5
121
100
AcDbEntity
  8
USP-GEO
100
AcDbPolyline
 90
        2
 70
   128
 43
0.0
 10
2.146144826596753
 20
15.6872096581223
 10
2.146144826596753
 20
15.61408717680725
  0
LWPOLYLINE
  5
122
100
AcDbEntity
  8
USP-GEO
100
AcDbPolyline
 90
        2
 70
   128
 43
0.0
 10
2.146144826596753
 20
14.59037243839653
 10
2.146144826596753
 20
15.61408717680725
  0
LWPOLYLINE
  5
123
100
AcDbEntity
  8
USP-GEO
100
AcDbPolyline
 90
        2
 70
   128
 43
0.0
 10
2.146144826596753
 20
14.59037243839653
 10
2.146144826596753
 20
14.24791548423771
  0
LWPOLYLINE
  5
124
100
AcDbEntity
  8
USP-GEO
100
AcDbPolyline
 90
        2
 70
   128
 43
0.0
 10
2.146144826596753
 20
14.24791548423771
 10
2.146144826596753
 20
5.465905478300072
  0
LWPOLYLINE
  5
125
100
AcDbEntity
  8
USP-GEO
100
AcDbPolyline
 90
        2
 70
   128
 43
0.0
 10
2.146144826596753
 20
5.318441807648053
 10
2.146144826596753
 20
5.465905478300072
  0
LWPOLYLINE
  5
126
100
AcDbEntity
  8
USP-GEO
100
AcDbPolyline
 90
        2
 70
   128
 43
0.0
 10
2.146144826596753
 20
2.171737695057018
 10
2.146144826596753
 20
5.318441807648053
  0
LWPOLYLINE
  5
127
100
AcDbEntity
  8
USP-GEO
100
AcDbPolyline
 90
        2
 70
   128
 43
0.0
 10
2.146144826596753
 20
2.074241053303616
 10
2.146144826596753
 20
2.171737695057018
  0
LWPOLYLINE
  5
128
100
AcDbEntity
  8
USP-GEO
100
AcDbPolyline
 90
        2
 70
   128
 43
0.0
 10
3.682935642234742
 20
16.12716325403452
 10
2.219267307911803
 20
16.12716325403452
  0
LWPOLYLINE
  5
129
100
AcDbEntity
  8
USP-GEO
100
AcDbPolyline
 90
        2
 70
   128
 43
0.0
 10
3.682935642234742
 20
16.05404077271947
 10
3.682935642234742
 20
16.12716325403452
  0
LWPOLYLINE
  5
12A
100
AcDbEntity
  8
USP-GEO
100
AcDbPolyline
 90
        2
 70
   128
 43
0.0
 10
3.682935642234742
 20
16.05404077271947
 10
2.219267307911803
 20
16.05404077271947
  0
ARC
  5
12B
100
AcDbEntity
  8
USP-GEO
100
AcDbCircle
 10
2.229838975994674
 20
16.0198643569153
 30
0.0
 40
0.038
100
AcDbArc
 50
107.188219435016
 51
164.331267104039
  0
LWPOLYLINE
  5
12C
100
AcDbEntity
  8
USP-GEO
100
AcDbPolyline
 90
        2
 70
   128
 43
0.0
 10
2.194893147473454
 20
16.02966661228112
 10
2.194893147473454
 20
15.6872096581223
  0
LWPOLYLINE
  5
12D
100
AcDbEntity
  8
USP-GEO
100
AcDbPolyline
 90
        2
 70
   128
 43
0.0
 10
2.194893147473454
 20
15.6872096581223
 10
2.146144826596753
 20
15.6872096581223
  0
LWPOLYLINE
  5
12E
100
AcDbEntity
  8
USP-GEO
100
AcDbPolyline
 90
        2
 70
   128
 43
0.0
 10
2.146144826596753
 20
16.02966661228112
 10
2.146144826596753
 20
15.6872096581223
  0
ARC
  5
12F
100
AcDbEntity
  8
USP-GEO
100
AcDbCircle
 10
2.229838975994674
 20
16.01986435691533
 30
0.0
 40
0.09
100
AcDbArc
 50
95.62692984445897
 51
173.3199532987794
  0
LWPOLYLINE
  5
130
100
AcDbEntity
  8
USP-GEO
100
AcDbPolyline
 90
        2
 70
   128
 43
0.0
 10
0.9761851255559328
 20
0.8786884838025308
 10
1.244300890377786
 20
0.8786884838025308
  0
CIRCLE
  5
131
100
AcDbEntity
  8
USP-GEO
100
AcDbCircle
 10
1.389838975994701
 20
14.05786435691525
 30
0.0
 40
0.15625
  0
LWPOLYLINE
  5
132
100
AcDbEntity
  8
USP-GEO
100
AcDbPolyline
 90
        2
 70
   128
 43
0.0
 10
1.707409938706444
 20
3.611031868941608
 10
1.585539136514693
 20
3.513535227188206
  0
LWPOLYLINE
  5
133
100
AcDbEntity
  8
USP-GEO
100
AcDbPolyline
 90
        2
 70
   128
 43
0.0
 10
1.585539136514693
 20
3.732902671133359
 10
1.707409938706444
 20
3.611031868941608
  0
LWPOLYLINE
  5
134
100
AcDbEntity
  8
USP-GEO
100
AcDbPolyline
 90
        2
 70
   128
 43
0.0
 10
1.488042494761291
 20
3.611031868941608
 10
1.585539136514693
 20
3.732902671133359
  0
LWPOLYLINE
  5
135
100
AcDbEntity
  8
USP-GEO
100
AcDbPolyline
 90
        2
 70
   128
 43
0.0
 10
1.585539136514693
 20
3.513535227188206
 10
1.488042494761291
 20
3.611031868941608
  0
LWPOLYLINE
  5
136
100
AcDbEntity
  8
USP-GEO
100
AcDbPolyline
 90
        2
 70
   128
 43
0.0
 10
0.0
 20
0.097496641753402
 10
0.0
 20
1.952370251111865
  0
ARC
  5
137
100
AcDbEntity
  8
USP-GEO
100
AcDbCircle
 10
0.1171555755769251
 20
1.948489356915244
 30
0.0
 40
0.125
100
AcDbArc
 50
87.85262477535898
 51
178.1027144730039
  0
LWPOLYLINE
  5
138
100
AcDbEntity
  8
USP-GEO
100
AcDbPolyline
 90
        2
 70
   128
 43
0.0
 10
0.146244962630103
 20
2.074241053303616
 10
0.1218708021917543
 20
2.074241053303616
  0
ARC
  5
139
100
AcDbEntity
  8
USP-GEO
100
AcDbCircle
 10
0.1398389759947012
 20
2.198489356915244
 30
0.0
 40
0.125
100
AcDbArc
 50
272.9514390452789
 51
348.2200118384244
  0
LWPOLYLINE
  5
13A
100
AcDbEntity
  8
USP-GEO
100
AcDbPolyline
 90
        2
 70
   128
 43
0.0
 10
0.2681157648218537
 20
2.171737695057018
 10
0.8786884838025308
 20
5.318441807648053
  0
ARC
  5
13B
100
AcDbEntity
  8
USP-GEO
100
AcDbCircle
 10
0.1398389759946728
 20
5.461026205613846
 30
0.0
 40
0.75
100
AcDbArc
 50
349.0772397468292
 51
0.3783688899528543
  0
LWPOLYLINE
  5
13C
100
AcDbEntity
  8
USP-GEO
100
AcDbPolyline
 90
        2
 70
   128
 43
0.0
 10
0.8786884838025308
 20
14.24791548423771
 10
0.8786884838025308
 20
5.465905478300072
  0
ARC
  5
13D
100
AcDbEntity
  8
USP-GEO
100
AcDbCircle
 10
1.389838975994701
 20
14.25008721198911
 30
0.0
 40
0.5
100
AcDbArc
 50
136.9995536213457
 51
180.2434314112854
  0
LWPOLYLINE
  5
13E
100
AcDbEntity
  8
USP-GEO
100
AcDbPolyline
 90
        2
 70
   128
 43
0.0
 10
1.024933446432633
 20
14.59037243839653
 10
1.926777382651597
 20
15.61408717680725
  0
ARC
  5
13F
100
AcDbEntity
  8
USP-GEO
100
AcDbCircle
 10
2.105021637073484
 20
15.43286435691525
 30
0.0
 40
0.25
100
AcDbArc
 50
91.71718143179775
 51
134.5252546420951
  0
LWPOLYLINE
  5
140
100
AcDbEntity
  8
USP-GEO
100
AcDbPolyline
 90
        2
 70
   128
 43
0.0
 10
2.097396505720052
 20
2.074241053303616
 10
2.121770666158401
 20
2.074241053303616
  0
ARC
  5
141
100
AcDbEntity
  8
USP-GEO
100
AcDbCircle
 10
2.117155575576923
 20
1.948489356915244
 30
0.0
 40
0.125
100
AcDbArc
 50
87.89818667714291
 51
178.1043335665935
  0
LWPOLYLINE
  5
142
100
AcDbEntity
  8
USP-GEO
100
AcDbPolyline
 90
        2
 70
   128
 43
0.0
 10
1.99989986396665
 20
0.097496641753402
 10
1.99989986396665
 20
1.952370251111865
  0
LWPOLYLINE
  5
143
100
AcDbEntity
  8
USP-GEO
100
AcDbPolyline
 90
        2
 70
   128
 43
0.0
 10
1.99989986396665
 20
0.0
 10
0.0
 20
0.0
  0
LWPOLYLINE
  5
144
100
AcDbEntity
  8
USP-GEO
100
AcDbPolyline
 90
        2
 70
   128
 43
0.0
 10
0.0
 20
0.0
 10
0.0
 20
0.097496641753402
  0
LWPOLYLINE
  5
145
100
AcDbEntity
  8
USP-GEO
100
AcDbPolyline
 90
        2
 70
   128
 43
0.0
 10
1.99989986396665
 20
0.097496641753402
 10
1.99989986396665
 20
0.0
  0
ELLIPSE
  5
146
100
AcDbEntity
  8
USP-GEO
  6
CONTINUOUS
100
AcDbEllipse
 10
0.4943744400226198
 20
1.397066731116963
 30
0.0
 11
-0.078000000000003
 21
0.000000000000001
 31
0.0
210
0.0
220
0.0
230
1.0
 40
0.7071067811865476
 41
3.499773342078265
 42
5.97752390203364
1001
ACAD
1000
RTLwPs
1070
   128
  0
CIRCLE
  5
147
100
AcDbEntity
  8
USP-GEO
100
AcDbCircle
 10
0.4943744400226198
 20
1.22911435691523
 30
0.0
 40
0.2974894956128693
  0
ELLIPSE
  5
148
100
AcDbEntity
  8
USP-GEO
  6
CONTINUOUS
100
AcDbEllipse
 10
0.4943744400226198
 20
1.43541510824687
 30
0.0
 11
-0.078000000000003
 21
0.0000000000000006
 31
0.0
210
0.0
220
0.0
230
1.0
 40
0.7071067811865476
 41
6.21367595943185
 42
6.635669427859154
1001
ACAD
1000
RTLwPs
1070
   128
  0
ELLIPSE
  5
149
100
AcDbEntity
  8
USP-GEO
  6
CONTINUOUS
100
AcDbEllipse
 10
0.4943744400226198
 20
1.43541510824687
 30
0.0
 11
-0.078000000000003
 21
0.0000000000000006
 31
0.0
210
0.0
220
0.0
230
1.0
 40
0.7071067811865476
 41
0.8509258227193456
 42
6.63072549822365
1001
ACAD
1000
RTLwPs
1070
   128
  0
ELLIPSE
  5
14A
100
AcDbEntity
  8
USP-GEO
  6
CONTINUOUS
100
AcDbEllipse
 10
0.4943744400226198
 20
1.43541510824687
 30
0.0
 11
-0.078000000000003
 21
0.0000000000000006
 31
0.0
210
0.0
220
0.0
230
1.0
 40
0.7071067811865476
 41
6.214731343249025
 42
11.9234455194887
1001
ACAD
1000
RTLwPs
1070
   128
  0
ELLIPSE
  5
14B
100
AcDbEntity
  8
USP-GEO
  6
CONTINUOUS
100
AcDbEllipse
 10
0.4943744400226198
 20
1.43541510824687
 30
0.0
 11
-0.078000000000003
 21
0.0000000000000006
 31
0.0
210
0.0
220
0.0
230
1.0
 40
0.7071067811865476
 41
0.0
 42
6.283185307179586
1001
ACAD
1000
RTLwPs
1070
   128
  0
ELLIPSE
  5
14C
100
AcDbEntity
  8
USP-GEO
  6
CONTINUOUS
100
AcDbEllipse
 10
0.4943744400226198
 20
1.43541510824687
 30
0.0
 11
-0.078000000000003
 21
0.0000000000000006
 31
0.0
210
0.0
220
0.0
230
1.0
 40
0.7071067811865476
 41
0.0
 42
6.283185307179586
1001
ACAD
1000
RTLwPs
1070
   128
  0
ELLIPSE
  5
14D
100
AcDbEntity
  8
USP-GEO
  6
CONTINUOUS
100
AcDbEllipse
 10
0.4943744400226198
 20
1.43541510824687
 30
0.0
 11
-0.078000000000003
 21
0.0000000000000006
 31
0.0
210
0.0
220
0.0
230
1.0
 40
0.7071067811865476
 41
0.8509258227193456
 42
1.51293375404295
1001
ACAD
1000
RTLwPs
1070
   128
  0
ELLIPSE
  5
14E
100
AcDbEntity
  8
USP-GEO
  6
CONTINUOUS
100
AcDbEllipse
 10
0.4943744400226198
 20
1.43541510824687
 30
0.0
 11
-0.078000000000003
 21
0.0000000000000006
 31
0.0
210
0.0
220
0.0
230
1.0
 40
0.7071067811865476
 41
4.786743214108114
 42
5.640260212309122
1001
ACAD
1000
RTLwPs
1070
   128
  0
ELLIPSE
  5
14F
100
AcDbEntity
  8
USP-GEO
  6
CONTINUOUS
100
AcDbEllipse
 10
0.4943744400226198
 20
1.43541510824687
 30
0.0
 11
-0.078000000000003
 21
0.0000000000000006
 31
0.0
210
0.0
220
0.0
230
1.0
 40
0.7071067811865476
 41
1.500539592487054
 42
1.759503218693252
1001
ACAD
1000
RTLwPs
1070
   128
  0
ELLIPSE
  5
150
100
AcDbEntity
  8
USP-GEO
  6
CONTINUOUS
100
AcDbEllipse
 10
0.4943744400226198
 20
1.43541510824687
 30
0.0
 11
-0.078000000000003
 21
0.0000000000000006
 31
0.0
210
0.0
220
0.0
230
1.0
 40
0.7071067811865476
 41
4.802638782341245
 42
10.75475063793503
1001
ACAD
1000
RTLwPs
1070
   128
  0
ELLIPSE
  5
151
100
AcDbEntity
  8
USP-GEO
  6
CONTINUOUS
100
AcDbEllipse
 10
0.4943744400226198
 20
1.43541510824687
 30
0.0
 11
-0.078000000000003
 21
0.0000000000000006
 31
0.0
210
0.0
220
0.0
230
1.0
 40
0.7071067811865476
 41
2.1671815279903
 42
8.030654131173704
1001
ACAD
1000
RTLwPs
1070
   128
  0
ELLIPSE
  5
152
100
AcDbEntity
  8
USP-GEO
  6
CONTINUOUS
100
AcDbEllipse
 10
0.4943744400226198
 20
1.43541510824687
 30
0.0
 11
-0.078000000000003
 21
0.0000000000000006
 31
0.0
210
0.0
220
0.0
230
1.0
 40
0.7071067811865476
 41
4.486714033722501
 42
10.19370446156195
1001
ACAD
1000
RTLwPs
1070
   128
  0
ELLIPSE
  5
153
100
AcDbEntity
  8
USP-GEO
  6
CONTINUOUS
100
AcDbEllipse
 10
0.4943744400226198
 20
1.43541510824687
 30
0.0
 11
-0.078000000000003
 21
0.0000000000000006
 31
0.0
210
0.0
220
0.0
230
1.0
 40
0.7071067811865476
 41
3.92486623645638
 42
9.986466500323109
1001
ACAD
1000
RTLwPs
1070
   128
  0
ELLIPSE
  5
154
100
AcDbEntity
  8
USP-GEO
  6
CONTINUOUS
100
AcDbEllipse
 10
0.4943744400226198
 20
1.43541510824687
 30
0.0
 11
-0.078000000000003
 21
0.0000000000000006
 31
0.0
210
0.0
220
0.0
230
1.0
 40
0.7071067811865476
 41
2.153916606369686
 42
2.386705311942617
1001
ACAD
1000
RTLwPs
1070
   128
  0
ELLIPSE
  5
155
100
AcDbEntity
  8
USP-GEO
  6
CONTINUOUS
100
AcDbEllipse
 10
0.4943744400226198
 20
1.43541510824687
 30
0.0
 11
-0.078000000000003
 21
0.0000000000000006
 31
0.0
210
0.0
220
0.0
230
1.0
 40
0.7071067811865476
 41
2.729077422681379
 42
8.660786252348813
1001
ACAD
1000
RTLwPs
1070
   128
  0
ELLIPSE
  5
156
100
AcDbEntity
  8
USP-GEO
  6
CONTINUOUS
100
AcDbEllipse
 10
0.4943744400226198
 20
1.43541510824687
 30
0.0
 11
-0.078000000000003
 21
0.0000000000000006
 31
0.0
210
0.0
220
0.0
230
1.0
 40
0.7071067811865476
 41
3.695094512017578
 42
9.018918172591257
1001
ACAD
1000
RTLwPs
1070
   128
  0
ARC
  5
157
100
AcDbEntity
  8
USP-GEO
100
AcDbCircle
 10
0.3068744400226198
 20
1.22911435691533
 30
0.0
 40
0.25
100
AcDbArc
 50
33.76779783982437
 51
57.89708582810386
  0
LWPOLYLINE
  5
158
100
AcDbEntity
  8
USP-GEO
100
AcDbPolyline
 90
        2
 70
   128
 43
0.0
 10
1.244300890377786
 20
0.8299401629258298
 10
1.122430088186035
 20
0.7080693607340792
  0
LWPOLYLINE
  5
159
100
AcDbEntity
  8
USP-GEO
100
AcDbPolyline
 90
        2
 70
   128
 43
0.0
 10
1.244300890377786
 20
0.8786884838025308
 10
1.244300890377786
 20
0.8299401629258298
  0
LWPOLYLINE
  5
15A
100
AcDbEntity
  8
USP-GEO
100
AcDbPolyline
 90
        2
 70
   128
 43
0.0
 10
0.9761851255559328
 20
0.8299401629258298
 10
0.9761851255559328
 20
0.8786884838025308
  0
LWPOLYLINE
  5
15B
100
AcDbEntity
  8
USP-GEO
100
AcDbPolyline
 90
        2
 70
   128
 43
0.0
 10
1.122430088186035
 20
0.7080693607340792
 10
0.9761851255559328
 20
0.8299401629258298
  0
LWPOLYLINE
  5
15C
100
AcDbEntity
  8
USP-GEO
100
AcDbPolyline
 90
        2
 70
   128
 43
0.0
 10
1.219926729939437
 20
0.8055660024874775
 10
1.122430088186035
 20
0.7568176816107766
  0
LWPOLYLINE
  5
15D
100
AcDbEntity
  8
USP-GEO
100
AcDbPolyline
 90
        2
 70
   128
 43
0.0
 10
1.122430088186035
 20
0.7568176816107766
 10
1.024933446432633
 20
0.8055660024874775
  0
LWPOLYLINE
  5
15E
100
AcDbEntity
  8
USP-GEO
100
AcDbPolyline
 90
        2
 70
   128
 43
0.0
 10
0.9761851255559328
 20
0.8543143233641785
 10
1.244300890377786
 20
0.8543143233641785
  0
TEXT
  5
15F
100
AcDbEntity
  8
USP-TXT
100
AcDbText
 10
-0.4501988455492958
 20
-0.9878246550210594
 30
0.0
 40
0.25
  1
TFL2516 - SIDE VIEW
 72
     1
 11
1.841467821117371
 21
-0.9878246550210594
 31
0.0
100
AcDbText
  0
ENDBLK
  5
161
100
AcDbEntity
  8
0
100
AcDbBlockEnd
  0
ENDSEC
  0
SECTION
  2
ENTITIES
  0
INSERT
  5
3
100
AcDbEntity
  8
USP
100
AcDbBlockReference
  2
TFL2516PR_T
 10
0.0076847430209099
 20
20.76281476781893
 30
0.0
  0
INSERT
  5
94
100
AcDbEntity
  8
USP
100
AcDbBlockReference
  2
TFL2516PR_F
 10
0.0076847430209099
 20
1.708314845138527
 30
0.0
  0
INSERT
  5
10F
100
AcDbEntity
  8
USP
100
AcDbBlockReference
  2
TFL2516PR_S
 10
10.29967398811435
 20
1.708314845138527
 30
0.0
  0
ENDSEC
  0
SECTION
  2
OBJECTS
  0
DICTIONARY
  5
179
100
AcDbDictionary
  3
ACAD_GROUP
350
177
  3
ACAD_MLINESTYLE
350
178
  0
DICTIONARY
  5
9
100
AcDbDictionary
280
     1
  3
ACAD_XREC_ROUNDTRIP
360
A
  0
DICTIONARY
  5
8E
100
AcDbDictionary
280
     1
  3
ACAD_XREC_ROUNDTRIP
360
8F
  0
DICTIONARY
  5
17C
100
AcDbDictionary
280
     1
  3
ACAD_XREC_ROUNDTRIP
360
17D
  0
DICTIONARY
  5
162
100
AcDbDictionary
280
     1
  3
ACAD_LAYOUTSELFREF
360
163
  0
DICTIONARY
  5
167
100
AcDbDictionary
280
     1
  3
ACAD_LAYOUTSELFREF
360
168
  0
DICTIONARY
  5
177
102
{ACAD_REACTORS
330
179
102
}
100
AcDbDictionary
  0
DICTIONARY
  5
178
102
{ACAD_REACTORS
330
179
102
}
100
AcDbDictionary
  3
STANDARD
350
17A
  0
XRECORD
  5
A
102
{ACAD_REACTORS
330
9
102
}
100
AcDbXrecord
102
EXTNAMES
  1
USP-GEO
  2
USP-Geo
  0
XRECORD
  5
8F
102
{ACAD_REACTORS
330
8E
102
}
100
AcDbXrecord
102
EXTNAMES
  1
USP-TXT
  2
USP-Txt
  0
XRECORD
  5
17D
102
{ACAD_REACTORS
330
17C
102
}
100
AcDbXrecord
102
ACADR14ROUNDTRIP
1000
DSTYLE
1002
{
1070
   276
 70
     2
1070
   277
 70
     5
1002
}
  0
XRECORD
  5
163
102
{ACAD_REACTORS
330
162
102
}
100
AcDbXrecord
340
2
  0
XRECORD
  5
168
102
{ACAD_REACTORS
330
167
102
}
100
AcDbXrecord
340
0
  0
MLINESTYLE
  5
17A
102
{ACAD_REACTORS
330
178
102
}
100
AcDbMlineStyle
  2
STANDARD
 70
     0
  3

 62
     0
 51
90.0
 52
90.0
 71
     2
 49
0.5
 62
   256
  6
BYLAYER
 49
-0.5
 62
   256
  6
BYLAYER
  0
ENDSEC
  0
EOF
