  0
SECTION
  2
HEADER
  9
$ACADVER
  1
AC1014
  9
$ACADMAINTVER
 70
     8
  9
$DWGCODEPAGE
  3
ANSI_1252
  9
$INSBASE
 10
0.0
 20
0.0
 30
0.0
  9
$EXTMIN
 10
-0.0027908920556107
 20
0.6059970139970418
 30
0.0
  9
$EXTMAX
 10
14.44224023328529
 20
22.10891640874189
 30
0.0
  9
$LIMMIN
 10
0.0
 20
0.0
  9
$LIMMAX
 10
12.0
 20
9.0
  9
$ORTHOMODE
 70
     0
  9
$REGENMODE
 70
     1
  9
$FILLMODE
 70
     1
  9
$QTEXTMODE
 70
     0
  9
$MIRRTEXT
 70
     0
  9
$DRAGMODE
 70
     2
  9
$LTSCALE
 40
1.5
  9
$OSMODE
 70
     0
  9
$ATTMODE
 70
     1
  9
$TEXTSIZE
 40
0.25
  9
$TRACEWID
 40
0.05
  9
$TEXTSTYLE
  7
STANDARD
  9
$CLAYER
  8
USP
  9
$CELTYPE
  6
BYLAYER
  9
$CECOLOR
 62
   256
  9
$CELTSCALE
 40
1.0
  9
$DELOBJ
 70
     1
  9
$DISPSILH
 70
     1
  9
$DIMSCALE
 40
5.0
  9
$DIMASZ
 40
0.125
  9
$DIMEXO
 40
0.0625
  9
$DIMDLI
 40
0.38
  9
$DIMRND
 40
0.0
  9
$DIMDLE
 40
0.0
  9
$DIMEXE
 40
0.09375
  9
$DIMTP
 40
0.0
  9
$DIMTM
 40
0.0
  9
$DIMTXT
 40
0.109375
  9
$DIMCEN
 40
0.0
  9
$DIMTSZ
 40
0.0
  9
$DIMTOL
 70
     0
  9
$DIMLIM
 70
     0
  9
$DIMTIH
 70
     1
  9
$DIMTOH
 70
     1
  9
$DIMSE1
 70
     0
  9
$DIMSE2
 70
     0
  9
$DIMTAD
 70
     0
  9
$DIMZIN
 70
     8
  9
$DIMBLK
  1

  9
$DIMASO
 70
     1
  9
$DIMSHO
 70
     1
  9
$DIMPOST
  1

  9
$DIMAPOST
  1

  9
$DIMALT
 70
     0
  9
$DIMALTD
 70
     2
  9
$DIMALTF
 40
25.4
  9
$DIMLFAC
 40
1.0
  9
$DIMTOFL
 70
     0
  9
$DIMTVP
 40
0.0
  9
$DIMTIX
 70
     0
  9
$DIMSOXD
 70
     0
  9
$DIMSAH
 70
     0
  9
$DIMBLK1
  1

  9
$DIMBLK2
  1

  9
$DIMSTYLE
  2
STANDARD
  9
$DIMCLRD
 70
   256
  9
$DIMCLRE
 70
   256
  9
$DIMCLRT
 70
   256
  9
$DIMTFAC
 40
1.0
  9
$DIMGAP
 40
0.09
  9
$DIMJUST
 70
     0
  9
$DIMSD1
 70
     0
  9
$DIMSD2
 70
     0
  9
$DIMTOLJ
 70
     1
  9
$DIMTZIN
 70
     0
  9
$DIMALTZ
 70
     0
  9
$DIMALTTZ
 70
     0
  9
$DIMFIT
 70
     3
  9
$DIMUPT
 70
     1
  9
$DIMUNIT
 70
     7
  9
$DIMDEC
 70
     4
  9
$DIMTDEC
 70
     4
  9
$DIMALTU
 70
     2
  9
$DIMALTTD
 70
     2
  9
$DIMTXSTY
  7
STANDARD
  9
$DIMAUNIT
 70
     0
  9
$LUNITS
 70
     5
  9
$LUPREC
 70
     6
  9
$SKETCHINC
 40
0.1
  9
$FILLETRAD
 40
0.0
  9
$AUNITS
 70
     0
  9
$AUPREC
 70
     1
  9
$MENU
  1
CUSTOM
  9
$ELEVATION
 40
0.0
  9
$PELEVATION
 40
0.0
  9
$THICKNESS
 40
0.0
  9
$LIMCHECK
 70
     0
  9
$BLIPMODE
 70
     0
  9
$CHAMFERA
 40
0.0
  9
$CHAMFERB
 40
0.0
  9
$CHAMFERC
 40
0.0
  9
$CHAMFERD
 40
0.0
  9
$SKPOLY
 70
     0
  9
$TDCREATE
 40
2451263.621564698
  9
$TDUPDATE
 40
2453025.983738599
  9
$TDINDWG
 40
1.0412091435
  9
$TDUSRTIMER
 40
1.0412091435
  9
$USRTIMER
 70
     1
  9
$ANGBASE
 50
0.0
  9
$ANGDIR
 70
     0
  9
$PDMODE
 70
     0
  9
$PDSIZE
 40
0.0
  9
$PLINEWID
 40
0.0
  9
$COORDS
 70
     2
  9
$SPLFRAME
 70
     0
  9
$SPLINETYPE
 70
     6
  9
$SPLINESEGS
 70
     8
  9
$ATTDIA
 70
     0
  9
$ATTREQ
 70
     0
  9
$HANDLING
 70
     1
  9
$HANDSEED
  5
17F
  9
$SURFTAB1
 70
     6
  9
$SURFTAB2
 70
     6
  9
$SURFTYPE
 70
     6
  9
$SURFU
 70
     6
  9
$SURFV
 70
     6
  9
$UCSNAME
  2

  9
$UCSORG
 10
0.0
 20
0.0
 30
0.0
  9
$UCSXDIR
 10
1.0
 20
0.0
 30
0.0
  9
$UCSYDIR
 10
0.0
 20
1.0
 30
0.0
  9
$PUCSNAME
  2

  9
$PUCSORG
 10
0.0
 20
0.0
 30
0.0
  9
$PUCSXDIR
 10
1.0
 20
0.0
 30
0.0
  9
$PUCSYDIR
 10
0.0
 20
1.0
 30
0.0
  9
$USERI1
 70
     0
  9
$USERI2
 70
     0
  9
$USERI3
 70
     0
  9
$USERI4
 70
     0
  9
$USERI5
 70
     0
  9
$USERR1
 40
0.0
  9
$USERR2
 40
0.0
  9
$USERR3
 40
0.0
  9
$USERR4
 40
0.0
  9
$USERR5
 40
0.0
  9
$WORLDVIEW
 70
     1
  9
$SHADEDGE
 70
     3
  9
$SHADEDIF
 70
    70
  9
$TILEMODE
 70
     1
  9
$MAXACTVP
 70
    16
  9
$PINSBASE
 10
0.0
 20
0.0
 30
0.0
  9
$PLIMCHECK
 70
     0
  9
$PEXTMIN
 10
1.000000000000000E+20
 20
1.000000000000000E+20
 30
1.000000000000000E+20
  9
$PEXTMAX
 10
-1.000000000000000E+20
 20
-1.000000000000000E+20
 30
-1.000000000000000E+20
  9
$PLIMMIN
 10
0.0
 20
0.0
  9
$PLIMMAX
 10
12.0
 20
9.0
  9
$UNITMODE
 70
     0
  9
$VISRETAIN
 70
     0
  9
$PLINEGEN
 70
     0
  9
$PSLTSCALE
 70
     0
  9
$TREEDEPTH
 70
  3020
  9
$PICKSTYLE
 70
     1
  9
$CMLSTYLE
  2
STANDARD
  9
$CMLJUST
 70
     0
  9
$CMLSCALE
 40
1.0
  9
$PROXYGRAPHICS
 70
     1
  9
$MEASUREMENT
 70
     0
  0
ENDSEC
  0
SECTION
  2
CLASSES
  0
CLASS
  1
ACDBDICTIONARYWDFLT
  2
AcDbDictionaryWithDefault
  3
AutoCAD 2000
 90
        0
280
     0
281
     0
  0
CLASS
  1
ACDBPLACEHOLDER
  2
AcDbPlaceHolder
  3
AutoCAD 2000
 90
        0
280
     0
281
     0
  0
CLASS
  1
LAYOUT
  2
AcDbLayout
  3
AutoCAD 2000
 90
        0
280
     0
281
     0
  0
CLASS
  1
DICTIONARYVAR
  2
AcDbDictionaryVar
  3
"AutoCAD"
 90
        0
280
     0
281
     0
  0
CLASS
  1
SORTENTSTABLE
  2
AcDbSortentsTable
  3
"AutoCAD"
 90
        0
280
     0
281
     0
  0
CLASS
  1
LONG_TRANSACTION
  2
AcDbLongTransaction
  3
AutoCAD 2000
 90
        0
280
     0
281
     0
  0
CLASS
  1
LWPOLYLINE
  2
AcDbPolyline
  3
"AutoCAD"
 90
        0
280
     0
281
     1
  0
CLASS
  1
HATCH
  2
AcDbHatch
  3
"ACAD_SEDONA"
 90
        0
280
     0
281
     1
  0
CLASS
  1
XRECORD
  2
AcDbXrecord
  3
"<Built In>"
 90
        0
280
     0
281
     0
  0
CLASS
  1
LONG_TRANSACTION
  2
AcDbLongTransaction
  3
AutoCAD 2000
 90
        0
280
     0
281
     0
  0
CLASS
  1
LWPOLYLINE
  2
AcDbPolyline
  3
"AutoCAD"
 90
        0
280
     0
281
     1
  0
CLASS
  1
HATCH
  2
AcDbHatch
  3
"ACAD_SEDONA"
 90
        0
280
     0
281
     1
  0
CLASS
  1
XRECORD
  2
AcDbXrecord
  3
"<Built In>"
 90
        0
280
     0
281
     0
  0
CLASS
  1
LONG_TRANSACTION
  2
AcDbLongTransaction
  3
AutoCAD 2000
 90
        0
280
     0
281
     0
  0
CLASS
  1
LWPOLYLINE
  2
AcDbPolyline
  3
"AutoCAD"
 90
        0
280
     0
281
     1
  0
CLASS
  1
HATCH
  2
AcDbHatch
  3
"ACAD_SEDONA"
 90
        0
280
     0
281
     1
  0
CLASS
  1
XRECORD
  2
AcDbXrecord
  3
"<Built In>"
 90
        0
280
     0
281
     0
  0
CLASS
  1
LONG_TRANSACTION
  2
AcDbLongTransaction
  3
AutoCAD 2000
 90
        0
280
     0
281
     0
  0
CLASS
  1
LWPOLYLINE
  2
AcDbPolyline
  3
"AutoCAD"
 90
        0
280
     0
281
     1
  0
CLASS
  1
HATCH
  2
AcDbHatch
  3
"ACAD_SEDONA"
 90
        0
280
     0
281
     1
  0
CLASS
  1
XRECORD
  2
AcDbXrecord
  3
"<Built In>"
 90
        0
280
     0
281
     0
  0
CLASS
  1
LONG_TRANSACTION
  2
AcDbLongTransaction
  3
AutoCAD 2000
 90
        0
280
     0
281
     0
  0
CLASS
  1
LWPOLYLINE
  2
AcDbPolyline
  3
"AutoCAD"
 90
        0
280
     0
281
     1
  0
CLASS
  1
HATCH
  2
AcDbHatch
  3
"ACAD_SEDONA"
 90
        0
280
     0
281
     1
  0
CLASS
  1
XRECORD
  2
AcDbXrecord
  3
"<Built In>"
 90
        0
280
     0
281
     0
  0
ENDSEC
  0
SECTION
  2
TABLES
  0
TABLE
  2
VPORT
  5
170
100
AcDbSymbolTable
 70
     1
  0
VPORT
  5
171
100
AcDbSymbolTableRecord
100
AcDbViewportTableRecord
  2
*ACTIVE
 70
     0
 10
0.0
 20
0.0
 11
1.0
 21
1.0
 12
2.660333219600811
 22
13.43651580707779
 13
0.0
 23
0.0
 14
1.0
 24
1.0
 15
0.0
 25
0.0
 16
0.0
 26
0.0
 36
1.0
 17
7.000243787299197
 27
0.8376402254617758
 37
-2.169425329892522
 40
27.47215435097114
 41
1.379227053140096
 42
50.0
 43
0.0
 44
0.0
 50
0.0
 51
0.0
 71
     0
 72
   100
 73
     1
 74
     1
 75
     0
 76
     0
 77
     0
 78
     0
  0
ENDTAB
  0
TABLE
  2
LTYPE
  5
16B
100
AcDbSymbolTable
 70
     1
  0
LTYPE
  5
16C
100
AcDbSymbolTableRecord
100
AcDbLinetypeTableRecord
  2
BYBLOCK
 70
     0
  3

 72
    65
 73
     0
 40
0.0
  0
LTYPE
  5
16D
100
AcDbSymbolTableRecord
100
AcDbLinetypeTableRecord
  2
BYLAYER
 70
     0
  3

 72
    65
 73
     0
 40
0.0
  0
LTYPE
  5
5
100
AcDbSymbolTableRecord
100
AcDbLinetypeTableRecord
  2
CONTINUOUS
 70
     0
  3
Solid line
 72
    65
 73
     0
 40
0.0
  0
ENDTAB
  0
TABLE
  2
LAYER
  5
169
100
AcDbSymbolTable
 70
     4
  0
LAYER
  5
94
100
AcDbSymbolTableRecord
100
AcDbLayerTableRecord
  2
0
 70
     0
 62
     7
  6
CONTINUOUS
  0
LAYER
  5
8
102
{ACAD_XDICTIONARY
360
9
102
}
100
AcDbSymbolTableRecord
100
AcDbLayerTableRecord
  2
USP-GEO
 70
     0
 62
     7
  6
CONTINUOUS
  0
LAYER
  5
8F
102
{ACAD_XDICTIONARY
360
90
102
}
100
AcDbSymbolTableRecord
100
AcDbLayerTableRecord
  2
USP-TXT
 70
     0
 62
     7
  6
CONTINUOUS
  0
LAYER
  5
4
100
AcDbSymbolTableRecord
100
AcDbLayerTableRecord
  2
USP
 70
     0
 62
     7
  6
CONTINUOUS
  0
ENDTAB
  0
TABLE
  2
STYLE
  5
16A
100
AcDbSymbolTable
 70
     1
  0
STYLE
  5
92
100
AcDbSymbolTableRecord
100
AcDbTextStyleTableRecord
  2
STANDARD
 70
     0
 40
0.0
 41
1.0
 50
0.0
 71
     0
 42
0.25
  3
txt
  4

  0
ENDTAB
  0
TABLE
  2
VIEW
  5
16E
100
AcDbSymbolTable
 70
     0
  0
ENDTAB
  0
TABLE
  2
UCS
  5
16F
100
AcDbSymbolTable
 70
     0
  0
ENDTAB
  0
TABLE
  2
APPID
  5
172
100
AcDbSymbolTable
 70
     1
  0
APPID
  5
D
100
AcDbSymbolTableRecord
100
AcDbRegAppTableRecord
  2
ACAD
 70
     0
  0
ENDTAB
  0
TABLE
  2
DIMSTYLE
  5
173
100
AcDbSymbolTable
 70
     1
  0
DIMSTYLE
105
179
102
{ACAD_XDICTIONARY
360
17A
102
}
100
AcDbSymbolTableRecord
100
AcDbDimStyleTableRecord
  2
STANDARD
 70
     0
  3

  4

  5

  6

  7

 40
1.0
 41
0.125
 42
0.0625
 43
0.38
 44
0.09375
 45
0.0
 46
0.0
 47
0.0
 48
0.0
140
0.109375
141
0.0
142
0.0
143
25.4
144
1.0
145
0.0
146
1.0
147
0.09
 71
     0
 72
     0
 73
     1
 74
     1
 75
     0
 76
     0
 77
     0
 78
     8
170
     0
171
     2
172
     0
173
     0
174
     0
175
     0
176
     0
177
     0
178
     0
270
     7
271
     4
272
     4
273
     2
274
     2
340
92
275
     0
280
     0
281
     0
282
     0
283
     1
284
     0
285
     0
286
     0
287
     3
288
     0
  0
ENDTAB
  0
TABLE
  2
BLOCK_RECORD
  5
1
100
AcDbSymbolTable
 70
     3
  0
BLOCK_RECORD
  5
2
102
{ACAD_XDICTIONARY
360
160
102
}
100
AcDbSymbolTableRecord
100
AcDbBlockTableRecord
  2
*MODEL_SPACE
  0
BLOCK_RECORD
  5
164
102
{ACAD_XDICTIONARY
360
165
102
}
100
AcDbSymbolTableRecord
100
AcDbBlockTableRecord
  2
*PAPER_SPACE
  0
BLOCK_RECORD
  5
6
100
AcDbSymbolTableRecord
100
AcDbBlockTableRecord
  2
TFL2514PR_T
  0
BLOCK_RECORD
  5
97
100
AcDbSymbolTableRecord
100
AcDbBlockTableRecord
  2
TFL2514PR_F
  0
BLOCK_RECORD
  5
112
100
AcDbSymbolTableRecord
100
AcDbBlockTableRecord
  2
TFL2514PR_S
  0
ENDTAB
  0
ENDSEC
  0
SECTION
  2
BLOCKS
  0
BLOCK
  5
162
100
AcDbEntity
  8
0
100
AcDbBlockBegin
  2
*MODEL_SPACE
 70
     0
 10
0.0
 20
0.0
 30
0.0
  3
*MODEL_SPACE
  1

  0
ENDBLK
  5
163
100
AcDbEntity
  8
0
100
AcDbBlockEnd
  0
BLOCK
  5
167
100
AcDbEntity
 67
     1
  8
0
100
AcDbBlockBegin
  2
*PAPER_SPACE
 70
     0
 10
0.0
 20
0.0
 30
0.0
  3
*PAPER_SPACE
  1

  0
ENDBLK
  5
168
100
AcDbEntity
 67
     1
  8
0
100
AcDbBlockEnd
  0
BLOCK
  5
93
100
AcDbEntity
  8
0
100
AcDbBlockBegin
  2
TFL2514PR_T
 70
     0
 10
0.0
 20
0.0
 30
0.0
  3
TFL2514PR_T
  1

  0
LWPOLYLINE
  5
7
100
AcDbEntity
  8
USP-GEO
100
AcDbPolyline
 90
        2
 70
   128
 43
0.0
 10
6.55009854351983
 20
2.184468334722581
 10
4.653292285165861
 20
2.184468334722581
  0
LWPOLYLINE
  5
B
100
AcDbEntity
  8
USP-GEO
100
AcDbPolyline
 90
        2
 70
   128
 43
0.0
 10
1.896806258353967
 20
2.184468334722581
 10
0.0
 20
2.184468334722581
  0
ELLIPSE
  5
C
100
AcDbEntity
  8
USP-GEO
  6
CONTINUOUS
100
AcDbEllipse
 10
4.7376023483509
 20
0.4867508037134947
 30
0.0
 11
0.0
 21
-0.078000000000003
 31
0.0
210
0.0
220
0.0
230
1.0
 40
0.7071067811865475
 41
3.851919059021327
 42
5.404818115738751
1001
ACAD
1000
RTLwPs
1070
   128
  0
ELLIPSE
  5
E
100
AcDbEntity
  8
USP-GEO
  6
CONTINUOUS
100
AcDbEllipse
 10
4.7376023483509
 20
0.4867508037134947
 30
0.0
 11
0.0
 21
-0.078000000000003
 31
0.0
210
0.0
220
0.0
230
1.0
 40
0.7071067811865475
 41
3.414274859720249
 42
3.865681040603355
1001
ACAD
1000
RTLwPs
1070
   128
  0
ELLIPSE
  5
F
100
AcDbEntity
  8
USP-GEO
  6
CONTINUOUS
100
AcDbEllipse
 10
4.7376023483509
 20
0.4867508037134947
 30
0.0
 11
0.0
 21
-0.078000000000003
 31
0.0
210
0.0
220
0.0
230
1.0
 40
0.7071067811865475
 41
5.39120282116898
 42
5.941580758758112
1001
ACAD
1000
RTLwPs
1070
   128
  0
ELLIPSE
  5
10
100
AcDbEntity
  8
USP-GEO
  6
CONTINUOUS
100
AcDbEllipse
 10
4.7376023483509
 20
0.4867508037134947
 30
0.0
 11
0.0
 21
-0.078000000000003
 31
0.0
210
0.0
220
0.0
230
1.0
 40
0.7071067811865475
 41
3.430933143073545
 42
9.361621755557246
1001
ACAD
1000
RTLwPs
1070
   128
  0
ELLIPSE
  5
11
100
AcDbEntity
  8
USP-GEO
  6
CONTINUOUS
100
AcDbEllipse
 10
4.7376023483509
 20
0.4867508037134947
 30
0.0
 11
0.0
 21
-0.078000000000003
 31
0.0
210
0.0
220
0.0
230
1.0
 40
0.7071067811865475
 41
5.921360357439094
 42
6.386167731429669
1001
ACAD
1000
RTLwPs
1070
   128
  0
ELLIPSE
  5
12
100
AcDbEntity
  8
USP-GEO
  6
CONTINUOUS
100
AcDbEllipse
 10
4.7376023483509
 20
0.4867508037134947
 30
0.0
 11
0.0
 21
-0.078000000000003
 31
0.0
210
0.0
220
0.0
230
1.0
 40
0.7071067811865475
 41
0.0
 42
6.283185307179586
1001
ACAD
1000
RTLwPs
1070
   128
  0
ELLIPSE
  5
13
100
AcDbEntity
  8
USP-GEO
  6
CONTINUOUS
100
AcDbEllipse
 10
4.7376023483509
 20
0.4867508037134947
 30
0.0
 11
0.0
 21
-0.078000000000003
 31
0.0
210
0.0
220
0.0
230
1.0
 40
0.7071067811865475
 41
0.4945870583245005
 42
6.363416182367719
1001
ACAD
1000
RTLwPs
1070
   128
  0
ELLIPSE
  5
14
100
AcDbEntity
  8
USP-GEO
  6
CONTINUOUS
100
AcDbEllipse
 10
4.7376023483509
 20
0.4867508037134947
 30
0.0
 11
0.0
 21
-0.078000000000003
 31
0.0
210
0.0
220
0.0
230
1.0
 40
0.7071067811865475
 41
3.07843644837766
 42
8.411542434143701
1001
ACAD
1000
RTLwPs
1070
   128
  0
ELLIPSE
  5
15
100
AcDbEntity
  8
USP-GEO
  6
CONTINUOUS
100
AcDbEllipse
 10
4.7376023483509
 20
0.4867508037134947
 30
0.0
 11
0.0
 21
-0.078000000000003
 31
0.0
210
0.0
220
0.0
230
1.0
 40
0.7071067811865475
 41
0.512191393343339
 42
2.118205086181869
1001
ACAD
1000
RTLwPs
1070
   128
  0
ELLIPSE
  5
16
100
AcDbEntity
  8
USP-GEO
  6
CONTINUOUS
100
AcDbEllipse
 10
4.699253971220993
 20
0.4867508037134947
 30
0.0
 11
0.0
 21
-0.078000000000003
 31
0.0
210
0.0
220
0.0
230
1.0
 40
0.7071067811865475
 41
2.822642482803712
 42
8.676704352741838
1001
ACAD
1000
RTLwPs
1070
   128
  0
ELLIPSE
  5
17
100
AcDbEntity
  8
USP-GEO
  6
CONTINUOUS
100
AcDbEllipse
 10
4.699253971220993
 20
0.4867508037134947
 30
0.0
 11
0.0
 21
-0.078000000000003
 31
0.0
210
0.0
220
0.0
230
1.0
 40
0.7071067811865475
 41
0.9278254376100949
 42
6.700027966399058
1001
ACAD
1000
RTLwPs
1070
   128
  0
ELLIPSE
  5
18
100
AcDbEntity
  8
USP-GEO
  6
CONTINUOUS
100
AcDbEllipse
 10
4.699253971220993
 20
0.4867508037134947
 30
0.0
 11
0.0
 21
-0.078000000000003
 31
0.0
210
0.0
220
0.0
230
1.0
 40
0.7071067811865475
 41
1.190746478336644
 42
7.1985985836541
1001
ACAD
1000
RTLwPs
1070
   128
  0
ELLIPSE
  5
19
100
AcDbEntity
  8
USP-GEO
  6
CONTINUOUS
100
AcDbEllipse
 10
4.699253971220993
 20
0.4867508037134947
 30
0.0
 11
0.0
 21
-0.078000000000003
 31
0.0
210
0.0
220
0.0
230
1.0
 40
0.7071067811865475
 41
2.380656116208167
 42
7.482728568650758
1001
ACAD
1000
RTLwPs
1070
   128
  0
CIRCLE
  5
1A
100
AcDbEntity
  8
USP-GEO
100
AcDbCircle
 10
6.354368196601704
 20
3.184215339685582
 30
0.0
 40
0.09
  0
CIRCLE
  5
1B
100
AcDbEntity
  8
USP-GEO
100
AcDbCircle
 10
4.954368196601699
 20
3.384215339685571
 30
0.0
 40
0.09
  0
LWPOLYLINE
  5
1C
100
AcDbEntity
  8
USP-GEO
100
AcDbPolyline
 90
        2
 70
   128
 43
0.0
 10
6.55009854351983
 20
3.684499315326736
 10
4.653292285165861
 20
3.684499315326736
  0
LWPOLYLINE
  5
1D
100
AcDbEntity
  8
USP-GEO
100
AcDbPolyline
 90
        2
 70
   128
 43
0.0
 10
4.653292285165861
 20
3.684499315326736
 10
4.653292285165861
 20
2.228554476694782
  0
LWPOLYLINE
  5
1E
100
AcDbEntity
  8
USP-GEO
100
AcDbPolyline
 90
        2
 70
   128
 43
0.0
 10
4.521033859249257
 20
0.0
 10
4.521033859249257
 20
0.1102153549305065
  0
LWPOLYLINE
  5
1F
100
AcDbEntity
  8
USP-GEO
100
AcDbPolyline
 90
        2
 70
   128
 43
0.0
 10
4.521033859249257
 20
0.1102153549305065
 10
4.521033859249257
 20
0.1322584259166071
  0
LWPOLYLINE
  5
20
100
AcDbEntity
  8
USP-GEO
100
AcDbPolyline
 90
        2
 70
   128
 43
0.0
 10
4.521033859249257
 20
0.1322584259166071
 10
4.521033859249257
 20
0.2645168518332106
  0
LWPOLYLINE
  5
21
100
AcDbEntity
  8
USP-GEO
100
AcDbPolyline
 90
        2
 70
   128
 43
0.0
 10
4.521033859249257
 20
0.2645168518332106
 10
4.587163072207559
 20
0.2645168518332106
  0
LWPOLYLINE
  5
22
100
AcDbEntity
  8
USP-GEO
100
AcDbPolyline
 90
        2
 70
   128
 43
0.0
 10
4.521033859249257
 20
0.2645168518332106
 10
4.521033859249257
 20
0.8828249929933349
  0
LWPOLYLINE
  5
23
100
AcDbEntity
  8
USP-GEO
100
AcDbPolyline
 90
        2
 70
   128
 43
0.0
 10
4.521033859249257
 20
0.8828249929933349
 10
4.522136012798561
 20
0.8828249929933349
  0
LWPOLYLINE
  5
24
100
AcDbEntity
  8
USP-GEO
100
AcDbPolyline
 90
        2
 70
   128
 43
0.0
 10
4.521033859249257
 20
0.8828249929933349
 10
4.587163072207559
 20
0.8828249929933349
  0
LWPOLYLINE
  5
25
100
AcDbEntity
  8
USP-GEO
100
AcDbPolyline
 90
        2
 70
   128
 43
0.0
 10
4.521033859249257
 20
0.8828249929933349
 10
4.521033859249257
 20
1.015083418909938
  0
LWPOLYLINE
  5
26
100
AcDbEntity
  8
USP-GEO
100
AcDbPolyline
 90
        2
 70
   128
 43
0.0
 10
4.521033859249257
 20
1.015083418909938
 10
4.521033859249257
 20
1.918849329340069
  0
CIRCLE
  5
27
100
AcDbEntity
  8
USP-GEO
100
AcDbCircle
 10
1.608234997437058
 20
3.384215339685557
 30
0.0
 40
0.09
  0
CIRCLE
  5
28
100
AcDbEntity
  8
USP-GEO
100
AcDbCircle
 10
0.208234997437053
 20
3.184215339685568
 30
0.0
 40
0.09
  0
LWPOLYLINE
  5
29
100
AcDbEntity
  8
USP-GEO
100
AcDbPolyline
 90
        2
 70
   128
 43
0.0
 10
0.0
 20
3.684499315326736
 10
1.896806258353967
 20
3.684499315326736
  0
LWPOLYLINE
  5
2A
100
AcDbEntity
  8
USP-GEO
100
AcDbPolyline
 90
        2
 70
   128
 43
0.0
 10
0.0
 20
3.684499315326736
 10
0.0
 20
2.228554476694782
  0
LWPOLYLINE
  5
2B
100
AcDbEntity
  8
USP-GEO
100
AcDbPolyline
 90
        2
 70
   128
 43
0.0
 10
2.02906468427057
 20
0.8828249929933349
 10
1.984978542298369
 20
0.8828249929933349
  0
LWPOLYLINE
  5
2C
100
AcDbEntity
  8
USP-GEO
100
AcDbPolyline
 90
        2
 70
   128
 43
0.0
 10
2.02906468427057
 20
0.2645168518332106
 10
1.984978542298369
 20
0.2645168518332106
  0
LWPOLYLINE
  5
2D
100
AcDbEntity
  8
USP-GEO
100
AcDbPolyline
 90
        2
 70
   128
 43
0.0
 10
2.02906468427057
 20
0.1102153549305065
 10
2.02906468427057
 20
0.0
  0
LWPOLYLINE
  5
2E
100
AcDbEntity
  8
USP-GEO
100
AcDbPolyline
 90
        2
 70
   128
 43
0.0
 10
2.02906468427057
 20
0.1322584259166071
 10
2.02906468427057
 20
0.1102153549305065
  0
LWPOLYLINE
  5
2F
100
AcDbEntity
  8
USP-GEO
100
AcDbPolyline
 90
        2
 70
   128
 43
0.0
 10
2.02906468427057
 20
0.2645168518332106
 10
2.02906468427057
 20
0.1322584259166071
  0
LWPOLYLINE
  5
30
100
AcDbEntity
  8
USP-GEO
100
AcDbPolyline
 90
        2
 70
   128
 43
0.0
 10
2.02906468427057
 20
0.8828249929933349
 10
2.02906468427057
 20
0.2645168518332106
  0
LWPOLYLINE
  5
31
100
AcDbEntity
  8
USP-GEO
100
AcDbPolyline
 90
        2
 70
   128
 43
0.0
 10
2.02906468427057
 20
0.8828249929933349
 10
2.030166837819876
 20
0.8828249929933349
  0
LWPOLYLINE
  5
32
100
AcDbEntity
  8
USP-GEO
100
AcDbPolyline
 90
        2
 70
   128
 43
0.0
 10
2.02906468427057
 20
1.015083418909938
 10
2.02906468427057
 20
0.8828249929933349
  0
LWPOLYLINE
  5
33
100
AcDbEntity
  8
USP-GEO
100
AcDbPolyline
 90
        2
 70
   128
 43
0.0
 10
2.02906468427057
 20
1.918849329340069
 10
2.02906468427057
 20
1.015083418909938
  0
LWPOLYLINE
  5
34
100
AcDbEntity
  8
USP-GEO
100
AcDbPolyline
 90
        2
 70
   128
 43
0.0
 10
2.02906468427057
 20
2.096296050778178
 10
2.02906468427057
 20
1.918849329340069
  0
LWPOLYLINE
  5
35
100
AcDbEntity
  8
USP-GEO
100
AcDbPolyline
 90
        2
 70
   128
 43
0.0
 10
2.02906468427057
 20
1.984978542298371
 10
2.073150826242773
 20
1.984978542298371
  0
LWPOLYLINE
  5
36
100
AcDbEntity
  8
USP-GEO
100
AcDbPolyline
 90
        2
 70
   128
 43
0.0
 10
2.02906468427057
 20
0.0
 10
1.984978542298369
 20
0.0
  0
LWPOLYLINE
  5
37
100
AcDbEntity
  8
USP-GEO
100
AcDbPolyline
 90
        2
 70
   128
 43
0.0
 10
2.073150826242773
 20
0.0
 10
2.02906468427057
 20
0.0
  0
LWPOLYLINE
  5
38
100
AcDbEntity
  8
USP-GEO
100
AcDbPolyline
 90
        2
 70
   128
 43
0.0
 10
4.521033859249257
 20
0.0
 10
4.587163072207559
 20
0.0
  0
LWPOLYLINE
  5
39
100
AcDbEntity
  8
USP-GEO
100
AcDbPolyline
 90
        2
 70
   128
 43
0.0
 10
2.073150826242773
 20
0.0
 10
4.498990788263157
 20
0.0
  0
LWPOLYLINE
  5
3A
100
AcDbEntity
  8
USP-GEO
100
AcDbPolyline
 90
        2
 70
   128
 43
0.0
 10
4.498990788263157
 20
1.984978542298371
 10
2.073150826242773
 20
1.984978542298371
  0
LWPOLYLINE
  5
3B
100
AcDbEntity
  8
USP-GEO
100
AcDbPolyline
 90
        2
 70
   128
 43
0.0
 10
2.910787523714599
 20
0.4849475616942165
 10
3.021002878645104
 20
0.3747322067637135
  0
LWPOLYLINE
  5
3C
100
AcDbEntity
  8
USP-GEO
100
AcDbPolyline
 90
        2
 70
   128
 43
0.0
 10
2.778529097797996
 20
0.3747322067637135
 10
2.910787523714599
 20
0.4849475616942165
  0
LWPOLYLINE
  5
3D
100
AcDbEntity
  8
USP-GEO
100
AcDbPolyline
 90
        2
 70
   128
 43
0.0
 10
2.910787523714599
 20
0.24247378084711
 10
2.778529097797996
 20
0.3747322067637135
  0
LWPOLYLINE
  5
3E
100
AcDbEntity
  8
USP-GEO
100
AcDbPolyline
 90
        2
 70
   128
 43
0.0
 10
3.021002878645104
 20
0.3747322067637135
 10
2.910787523714599
 20
0.24247378084711
  0
LWPOLYLINE
  5
3F
100
AcDbEntity
  8
USP-GEO
100
AcDbPolyline
 90
        2
 70
   128
 43
0.0
 10
3.661354090791329
 20
0.4849475616942165
 10
3.771569445721834
 20
0.3747322067637135
  0
LWPOLYLINE
  5
40
100
AcDbEntity
  8
USP-GEO
100
AcDbPolyline
 90
        2
 70
   128
 43
0.0
 10
3.529095664874725
 20
0.3747322067637135
 10
3.661354090791329
 20
0.4849475616942165
  0
LWPOLYLINE
  5
41
100
AcDbEntity
  8
USP-GEO
100
AcDbPolyline
 90
        2
 70
   128
 43
0.0
 10
3.661354090791329
 20
0.24247378084711
 10
3.529095664874725
 20
0.3747322067637135
  0
LWPOLYLINE
  5
42
100
AcDbEntity
  8
USP-GEO
100
AcDbPolyline
 90
        2
 70
   128
 43
0.0
 10
3.771569445721834
 20
0.3747322067637135
 10
3.661354090791329
 20
0.24247378084711
  0
LWPOLYLINE
  5
43
100
AcDbEntity
  8
USP-GEO
100
AcDbPolyline
 90
        2
 70
   128
 43
0.0
 10
4.521033859249257
 20
0.0
 10
4.498990788263157
 20
0.0
  0
LWPOLYLINE
  5
44
100
AcDbEntity
  8
USP-GEO
100
AcDbPolyline
 90
        2
 70
   128
 43
0.0
 10
4.498990788263157
 20
1.984978542298371
 10
4.521033859249257
 20
1.984978542298371
  0
LWPOLYLINE
  5
45
100
AcDbEntity
  8
USP-GEO
100
AcDbPolyline
 90
        2
 70
   128
 43
0.0
 10
4.609206143193659
 20
2.184468334722581
 10
4.653292285165861
 20
2.184468334722581
  0
LWPOLYLINE
  5
46
100
AcDbEntity
  8
USP-GEO
100
AcDbPolyline
 90
        2
 70
   128
 43
0.0
 10
4.587163072207559
 20
2.096296050778178
 10
4.588265225756865
 20
2.096296050778178
  0
LWPOLYLINE
  5
47
100
AcDbEntity
  8
USP-GEO
100
AcDbPolyline
 90
        2
 70
   128
 43
0.0
 10
4.521033859249257
 20
1.918849329340069
 10
4.521033859249257
 20
2.096296050778178
  0
LWPOLYLINE
  5
48
100
AcDbEntity
  8
USP-GEO
100
AcDbPolyline
 90
        2
 70
   128
 43
0.0
 10
4.587163072207559
 20
2.096296050778178
 10
4.609206143193659
 20
2.140382192750379
  0
LWPOLYLINE
  5
49
100
AcDbEntity
  8
USP-GEO
100
AcDbPolyline
 90
        2
 70
   128
 43
0.0
 10
4.587163072207559
 20
2.184468334722581
 10
4.587163072207559
 20
2.140382192750379
  0
LWPOLYLINE
  5
4A
100
AcDbEntity
  8
USP-GEO
100
AcDbPolyline
 90
        2
 70
   128
 43
0.0
 10
4.543076930235358
 20
2.140382192750379
 10
4.587163072207559
 20
2.140382192750379
  0
LWPOLYLINE
  5
4B
100
AcDbEntity
  8
USP-GEO
100
AcDbPolyline
 90
        2
 70
   128
 43
0.0
 10
4.609206143193659
 20
2.184468334722581
 10
4.587163072207559
 20
2.184468334722581
  0
ARC
  5
4C
100
AcDbEntity
  8
USP-GEO
100
AcDbCircle
 10
4.621301597019257
 20
2.094215339685579
 30
0.0
 40
0.09
100
AcDbArc
 50
110.7193072200527
 51
149.4516264595175
  0
LWPOLYLINE
  5
4D
100
AcDbEntity
  8
USP-GEO
100
AcDbPolyline
 90
        2
 70
   128
 43
0.0
 10
4.543076930235358
 20
2.140382192750379
 10
4.521033859249257
 20
2.096296050778178
  0
LWPOLYLINE
  5
4E
100
AcDbEntity
  8
USP-GEO
100
AcDbPolyline
 90
        2
 70
   128
 43
0.0
 10
4.521033859249257
 20
2.096296050778178
 10
4.522136012798561
 20
2.096296050778178
  0
LWPOLYLINE
  5
4F
100
AcDbEntity
  8
USP-GEO
100
AcDbPolyline
 90
        2
 70
   128
 43
0.0
 10
4.587163072207559
 20
2.140382192750379
 10
4.653292285165861
 20
2.140382192750379
  0
LWPOLYLINE
  5
50
100
AcDbEntity
  8
USP-GEO
100
AcDbPolyline
 90
        2
 70
   128
 43
0.0
 10
6.55009854351983
 20
3.684499315326736
 10
6.55009854351983
 20
2.228554476694782
  0
LWPOLYLINE
  5
51
100
AcDbEntity
  8
USP-GEO
100
AcDbPolyline
 90
        2
 70
   128
 43
0.0
 10
6.55009854351983
 20
2.140382192750379
 10
4.653292285165861
 20
2.140382192750379
  0
LWPOLYLINE
  5
52
100
AcDbEntity
  8
USP-GEO
100
AcDbPolyline
 90
        2
 70
   128
 43
0.0
 10
4.653292285165861
 20
2.140382192750379
 10
4.653292285165861
 20
2.228554476694782
  0
LWPOLYLINE
  5
53
100
AcDbEntity
  8
USP-GEO
100
AcDbPolyline
 90
        2
 70
   128
 43
0.0
 10
6.55009854351983
 20
2.228554476694782
 10
6.55009854351983
 20
2.140382192750379
  0
LWPOLYLINE
  5
54
100
AcDbEntity
  8
USP-GEO
100
AcDbPolyline
 90
        2
 70
   128
 43
0.0
 10
1.984978542298369
 20
2.184468334722581
 10
1.984978542298369
 20
2.140382192750379
  0
LWPOLYLINE
  5
55
100
AcDbEntity
  8
USP-GEO
100
AcDbPolyline
 90
        2
 70
   128
 43
0.0
 10
2.02906468427057
 20
2.140382192750379
 10
1.984978542298369
 20
2.140382192750379
  0
LWPOLYLINE
  5
56
100
AcDbEntity
  8
USP-GEO
100
AcDbPolyline
 90
        2
 70
   128
 43
0.0
 10
2.02906468427057
 20
2.096296050778178
 10
2.02906468427057
 20
2.140382192750379
  0
ARC
  5
57
100
AcDbEntity
  8
USP-GEO
100
AcDbCircle
 10
1.941301597019272
 20
2.094215339685579
 30
0.0
 40
0.09
100
AcDbArc
 50
27.7461441491281
 51
64.17584907103078
  0
LWPOLYLINE
  5
58
100
AcDbEntity
  8
USP-GEO
100
AcDbPolyline
 90
        2
 70
   128
 43
0.0
 10
1.984978542298369
 20
2.184468334722581
 10
1.940892400326168
 20
2.184468334722581
  0
LWPOLYLINE
  5
59
100
AcDbEntity
  8
USP-GEO
100
AcDbPolyline
 90
        2
 70
   128
 43
0.0
 10
2.02906468427057
 20
2.096296050778178
 10
2.030166837819876
 20
2.096296050778178
  0
LWPOLYLINE
  5
5A
100
AcDbEntity
  8
USP-GEO
100
AcDbPolyline
 90
        2
 70
   128
 43
0.0
 10
1.896806258353967
 20
2.140382192750379
 10
1.984978542298369
 20
2.140382192750379
  0
LWPOLYLINE
  5
5B
100
AcDbEntity
  8
USP-GEO
100
AcDbPolyline
 90
        2
 70
   128
 43
0.0
 10
1.896806258353967
 20
3.684499315326736
 10
1.896806258353967
 20
2.228554476694782
  0
LWPOLYLINE
  5
5C
100
AcDbEntity
  8
USP-GEO
100
AcDbPolyline
 90
        2
 70
   128
 43
0.0
 10
1.896806258353967
 20
2.228554476694782
 10
1.896806258353967
 20
2.140382192750379
  0
LWPOLYLINE
  5
5D
100
AcDbEntity
  8
USP-GEO
100
AcDbPolyline
 90
        2
 70
   128
 43
0.0
 10
1.896806258353967
 20
2.140382192750379
 10
0.0
 20
2.140382192750379
  0
LWPOLYLINE
  5
5E
100
AcDbEntity
  8
USP-GEO
100
AcDbPolyline
 90
        2
 70
   128
 43
0.0
 10
0.0
 20
2.140382192750379
 10
0.0
 20
2.228554476694782
  0
LWPOLYLINE
  5
5F
100
AcDbEntity
  8
USP-GEO
100
AcDbPolyline
 90
        2
 70
   128
 43
0.0
 10
1.896806258353967
 20
2.184468334722581
 10
1.940892400326168
 20
2.184468334722581
  0
LWPOLYLINE
  5
60
100
AcDbEntity
  8
USP-GEO
100
AcDbPolyline
 90
        2
 70
   128
 43
0.0
 10
1.984978542298369
 20
1.918849329340069
 10
1.984978542298369
 20
2.096296050778178
  0
LWPOLYLINE
  5
61
100
AcDbEntity
  8
USP-GEO
100
AcDbPolyline
 90
        2
 70
   128
 43
0.0
 10
1.984978542298369
 20
1.015083418909938
 10
1.984978542298369
 20
1.918849329340069
  0
LWPOLYLINE
  5
62
100
AcDbEntity
  8
USP-GEO
100
AcDbPolyline
 90
        2
 70
   128
 43
0.0
 10
1.984978542298369
 20
0.8828249929933349
 10
1.984978542298369
 20
1.015083418909938
  0
LWPOLYLINE
  5
63
100
AcDbEntity
  8
USP-GEO
100
AcDbPolyline
 90
        2
 70
   128
 43
0.0
 10
1.984978542298369
 20
0.8828249929933349
 10
1.986080695847675
 20
0.8828249929933349
  0
LWPOLYLINE
  5
64
100
AcDbEntity
  8
USP-GEO
100
AcDbPolyline
 90
        2
 70
   128
 43
0.0
 10
1.984978542298369
 20
0.2645168518332106
 10
1.984978542298369
 20
0.8828249929933349
  0
LWPOLYLINE
  5
65
100
AcDbEntity
  8
USP-GEO
100
AcDbPolyline
 90
        2
 70
   128
 43
0.0
 10
1.984978542298369
 20
0.2645168518332106
 10
1.984978542298369
 20
0.1322584259166071
  0
LWPOLYLINE
  5
66
100
AcDbEntity
  8
USP-GEO
100
AcDbPolyline
 90
        2
 70
   128
 43
0.0
 10
1.984978542298369
 20
0.1322584259166071
 10
1.984978542298369
 20
0.1102153549305065
  0
LWPOLYLINE
  5
67
100
AcDbEntity
  8
USP-GEO
100
AcDbPolyline
 90
        2
 70
   128
 43
0.0
 10
1.984978542298369
 20
0.0
 10
1.984978542298369
 20
0.1102153549305065
  0
LWPOLYLINE
  5
68
100
AcDbEntity
  8
USP-GEO
100
AcDbPolyline
 90
        2
 70
   128
 43
0.0
 10
1.984978542298369
 20
2.096296050778178
 10
1.986080695847675
 20
2.096296050778178
  0
LWPOLYLINE
  5
69
100
AcDbEntity
  8
USP-GEO
100
AcDbPolyline
 90
        2
 70
   128
 43
0.0
 10
1.940892400326168
 20
2.140382192750379
 10
1.984978542298369
 20
2.096296050778178
  0
LWPOLYLINE
  5
6A
100
AcDbEntity
  8
USP-GEO
100
AcDbPolyline
 90
        2
 70
   128
 43
0.0
 10
4.587163072207559
 20
0.1102153549305065
 10
4.587163072207559
 20
0.0
  0
LWPOLYLINE
  5
6B
100
AcDbEntity
  8
USP-GEO
100
AcDbPolyline
 90
        2
 70
   128
 43
0.0
 10
4.587163072207559
 20
0.1322584259166071
 10
4.587163072207559
 20
0.1102153549305065
  0
LWPOLYLINE
  5
6C
100
AcDbEntity
  8
USP-GEO
100
AcDbPolyline
 90
        2
 70
   128
 43
0.0
 10
4.587163072207559
 20
0.1322584259166071
 10
4.587163072207559
 20
0.2645168518332106
  0
LWPOLYLINE
  5
6D
100
AcDbEntity
  8
USP-GEO
100
AcDbPolyline
 90
        2
 70
   128
 43
0.0
 10
4.587163072207559
 20
0.2645168518332106
 10
4.587163072207559
 20
0.8828249929933349
  0
LWPOLYLINE
  5
6E
100
AcDbEntity
  8
USP-GEO
100
AcDbPolyline
 90
        2
 70
   128
 43
0.0
 10
4.587163072207559
 20
0.8828249929933349
 10
4.588265225756865
 20
0.8828249929933349
  0
LWPOLYLINE
  5
6F
100
AcDbEntity
  8
USP-GEO
100
AcDbPolyline
 90
        2
 70
   128
 43
0.0
 10
4.587163072207559
 20
1.015083418909938
 10
4.587163072207559
 20
0.8828249929933349
  0
LWPOLYLINE
  5
70
100
AcDbEntity
  8
USP-GEO
100
AcDbPolyline
 90
        2
 70
   128
 43
0.0
 10
4.587163072207559
 20
1.015083418909938
 10
4.587163072207559
 20
1.918849329340069
  0
LWPOLYLINE
  5
71
100
AcDbEntity
  8
USP-GEO
100
AcDbPolyline
 90
        2
 70
   128
 43
0.0
 10
4.587163072207559
 20
2.096296050778178
 10
4.587163072207559
 20
1.918849329340069
  0
ELLIPSE
  5
72
100
AcDbEntity
  8
USP-GEO
  6
CONTINUOUS
100
AcDbEllipse
 10
1.863349222817536
 20
0.2992508037134946
 30
0.0
 11
0.0
 21
-0.078000000000003
 31
0.0
210
0.0
220
0.0
230
1.0
 40
0.7071067811865475
 41
4.0984475809599
 42
5.141965417691546
1001
ACAD
1000
RTLwPs
1070
   128
  0
ELLIPSE
  5
73
100
AcDbEntity
  8
USP-GEO
  6
CONTINUOUS
100
AcDbEllipse
 10
1.863349222817536
 20
0.2992508037134946
 30
0.0
 11
0.0
 21
-0.078000000000003
 31
0.0
210
0.0
220
0.0
230
1.0
 40
0.7071067811865475
 41
5.600083063575559
 42
11.41749692040844
1001
ACAD
1000
RTLwPs
1070
   128
  0
ELLIPSE
  5
74
100
AcDbEntity
  8
USP-GEO
  6
CONTINUOUS
100
AcDbEllipse
 10
1.863349222817536
 20
0.2992508037134946
 30
0.0
 11
0.0
 21
-0.078000000000003
 31
0.0
210
0.0
220
0.0
230
1.0
 40
0.7071067811865475
 41
3.675733862276148
 42
4.107996466414398
1001
ACAD
1000
RTLwPs
1070
   128
  0
ELLIPSE
  5
75
100
AcDbEntity
  8
USP-GEO
  6
CONTINUOUS
100
AcDbEllipse
 10
1.863349222817536
 20
0.2992508037134946
 30
0.0
 11
0.0
 21
-0.078000000000003
 31
0.0
210
0.0
220
0.0
230
1.0
 40
0.7071067811865475
 41
3.690893249442802
 42
9.621352321093011
1001
ACAD
1000
RTLwPs
1070
   128
  0
ELLIPSE
  5
76
100
AcDbEntity
  8
USP-GEO
  6
CONTINUOUS
100
AcDbEllipse
 10
1.863349222817536
 20
0.2992508037134946
 30
0.0
 11
0.0
 21
-0.078000000000003
 31
0.0
210
0.0
220
0.0
230
1.0
 40
0.7071067811865475
 41
6.024371381760533
 42
11.90000687130414
1001
ACAD
1000
RTLwPs
1070
   128
  0
ELLIPSE
  5
77
100
AcDbEntity
  8
USP-GEO
  6
CONTINUOUS
100
AcDbEllipse
 10
1.825000845687632
 20
0.2992508037134946
 30
0.0
 11
0.0
 21
-0.078000000000003
 31
0.0
210
0.0
220
0.0
230
1.0
 40
0.7071067811865475
 41
4.603431515615831
 42
10.88460988706331
1001
ACAD
1000
RTLwPs
1070
   128
  0
ELLIPSE
  5
78
100
AcDbEntity
  8
USP-GEO
  6
CONTINUOUS
100
AcDbEllipse
 10
1.825000845687632
 20
0.2992508037134946
 30
0.0
 11
0.0
 21
-0.078000000000003
 31
0.0
210
0.0
220
0.0
230
1.0
 40
0.7071067811865475
 41
3.92061468505698
 42
5.53443229778305
1001
ACAD
1000
RTLwPs
1070
   128
  0
ELLIPSE
  5
79
100
AcDbEntity
  8
USP-GEO
  6
CONTINUOUS
100
AcDbEllipse
 10
1.825000845687632
 20
0.2992508037134946
 30
0.0
 11
0.0
 21
-0.078000000000003
 31
0.0
210
0.0
220
0.0
230
1.0
 40
0.7071067811865475
 41
3.439137680088618
 42
3.93517125807044
1001
ACAD
1000
RTLwPs
1070
   128
  0
ELLIPSE
  5
7A
100
AcDbEntity
  8
USP-GEO
  6
CONTINUOUS
100
AcDbEllipse
 10
1.825000845687632
 20
0.2992508037134946
 30
0.0
 11
0.0
 21
-0.078000000000003
 31
0.0
210
0.0
220
0.0
230
1.0
 40
0.7071067811865475
 41
0.0
 42
6.283185307179586
1001
ACAD
1000
RTLwPs
1070
   128
  0
ELLIPSE
  5
7B
100
AcDbEntity
  8
USP-GEO
  6
CONTINUOUS
100
AcDbEllipse
 10
1.825000845687632
 20
0.2992508037134946
 30
0.0
 11
0.0
 21
-0.078000000000003
 31
0.0
210
0.0
220
0.0
230
1.0
 40
0.7071067811865475
 41
5.51990082467176
 42
6.404210170029921
1001
ACAD
1000
RTLwPs
1070
   128
  0
ELLIPSE
  5
7C
100
AcDbEntity
  8
USP-GEO
  6
CONTINUOUS
100
AcDbEllipse
 10
1.825000845687632
 20
0.2992508037134946
 30
0.0
 11
0.0
 21
-0.078000000000003
 31
0.0
210
0.0
220
0.0
230
1.0
 40
0.7071067811865475
 41
3.439137680088618
 42
9.29845551442116
1001
ACAD
1000
RTLwPs
1070
   128
  0
ELLIPSE
  5
7D
100
AcDbEntity
  8
USP-GEO
  6
CONTINUOUS
100
AcDbEllipse
 10
1.825000845687632
 20
0.2992508037134946
 30
0.0
 11
0.0
 21
-0.078000000000003
 31
0.0
210
0.0
220
0.0
230
1.0
 40
0.7071067811865475
 41
0.6042791019813804
 42
6.384679429371603
1001
ACAD
1000
RTLwPs
1070
   128
  0
ELLIPSE
  5
7E
100
AcDbEntity
  8
USP-GEO
  6
CONTINUOUS
100
AcDbEllipse
 10
1.825000845687632
 20
0.2992508037134946
 30
0.0
 11
0.0
 21
-0.078000000000003
 31
0.0
210
0.0
220
0.0
230
1.0
 40
0.7071067811865475
 41
3.035642066113343
 42
8.929647862651604
1001
ACAD
1000
RTLwPs
1070
   128
  0
ELLIPSE
  5
7F
100
AcDbEntity
  8
USP-GEO
  6
CONTINUOUS
100
AcDbEllipse
 10
1.825000845687632
 20
0.2992508037134946
 30
0.0
 11
0.0
 21
-0.078000000000003
 31
0.0
210
0.0
220
0.0
230
1.0
 40
0.7071067811865475
 41
0.0
 42
6.283185307179586
1001
ACAD
1000
RTLwPs
1070
   128
  0
ELLIPSE
  5
80
100
AcDbEntity
  8
USP-GEO
  6
CONTINUOUS
100
AcDbEllipse
 10
1.825000845687632
 20
0.2992508037134946
 30
0.0
 11
0.0
 21
-0.078000000000003
 31
0.0
210
0.0
220
0.0
230
1.0
 40
0.7071067811865475
 41
2.662588258172187
 42
8.492915298305447
1001
ACAD
1000
RTLwPs
1070
   128
  0
ELLIPSE
  5
81
100
AcDbEntity
  8
USP-GEO
  6
CONTINUOUS
100
AcDbEllipse
 10
1.825000845687632
 20
0.2992508037134946
 30
0.0
 11
0.0
 21
-0.078000000000003
 31
0.0
210
0.0
220
0.0
230
1.0
 40
0.7071067811865475
 41
1.120951585559526
 42
6.887464409160966
1001
ACAD
1000
RTLwPs
1070
   128
  0
ELLIPSE
  5
82
100
AcDbEntity
  8
USP-GEO
  6
CONTINUOUS
100
AcDbEllipse
 10
1.825000845687632
 20
0.2992508037134946
 30
0.0
 11
0.0
 21
-0.078000000000003
 31
0.0
210
0.0
220
0.0
230
1.0
 40
0.7071067811865475
 41
1.112315406924689
 42
2.220249184091967
1001
ACAD
1000
RTLwPs
1070
   128
  0
ELLIPSE
  5
83
100
AcDbEntity
  8
USP-GEO
  6
CONTINUOUS
100
AcDbEllipse
 10
1.825000845687632
 20
0.2992508037134946
 30
0.0
 11
0.0
 21
-0.078000000000003
 31
0.0
210
0.0
220
0.0
230
1.0
 40
0.7071067811865475
 41
1.702913813123844
 42
7.983268482638488
1001
ACAD
1000
RTLwPs
1070
   128
  0
LWPOLYLINE
  5
84
100
AcDbEntity
  8
USP-GEO
100
AcDbPolyline
 90
        2
 70
   128
 43
0.0
 10
2.183366181173276
 20
1.125298773840441
 10
2.073150826242773
 20
1.257557199757048
  0
LWPOLYLINE
  5
85
100
AcDbEntity
  8
USP-GEO
100
AcDbPolyline
 90
        2
 70
   128
 43
0.0
 10
2.073150826242773
 20
0.9930403479238378
 10
2.183366181173276
 20
1.125298773840441
  0
LWPOLYLINE
  5
86
100
AcDbEntity
  8
USP-GEO
100
AcDbPolyline
 90
        2
 70
   128
 43
0.0
 10
2.02906468427057
 20
0.9930403479238378
 10
2.073150826242773
 20
0.9930403479238378
  0
LWPOLYLINE
  5
87
100
AcDbEntity
  8
USP-GEO
100
AcDbPolyline
 90
        2
 70
   128
 43
0.0
 10
2.073150826242773
 20
1.257557199757048
 10
2.02906468427057
 20
1.257557199757048
  0
LWPOLYLINE
  5
88
100
AcDbEntity
  8
USP-GEO
100
AcDbPolyline
 90
        2
 70
   128
 43
0.0
 10
4.476947717277056
 20
1.257557199757048
 10
4.521033859249257
 20
1.257557199757048
  0
LWPOLYLINE
  5
89
100
AcDbEntity
  8
USP-GEO
100
AcDbPolyline
 90
        2
 70
   128
 43
0.0
 10
4.366732362346551
 20
1.125298773840441
 10
4.476947717277056
 20
1.257557199757048
  0
LWPOLYLINE
  5
8A
100
AcDbEntity
  8
USP-GEO
100
AcDbPolyline
 90
        2
 70
   128
 43
0.0
 10
4.476947717277056
 20
0.9930403479238378
 10
4.366732362346551
 20
1.125298773840441
  0
LWPOLYLINE
  5
8B
100
AcDbEntity
  8
USP-GEO
100
AcDbPolyline
 90
        2
 70
   128
 43
0.0
 10
4.521033859249257
 20
0.9930403479238378
 10
4.476947717277056
 20
0.9930403479238378
  0
ARC
  5
8C
100
AcDbEntity
  8
USP-GEO
100
AcDbCircle
 10
2.031301597019272
 20
0.2992508037134946
 30
0.0
 40
0.302
100
AcDbArc
 50
98.89706202599477
 51
261.2006389781279
  0
ARC
  5
8D
100
AcDbEntity
  8
USP-GEO
100
AcDbCircle
 10
4.531301597019258
 20
0.4867508037134947
 30
0.0
 40
0.302
100
AcDbArc
 50
280.9634945858198
 51
79.68074588347445
  0
TEXT
  5
8E
100
AcDbEntity
  8
USP-TXT
100
AcDbText
 10
1.077737473919631
 20
-0.9511847942639697
 30
0.0
 40
0.25
  1
TFL2514 - TOP VIEW
 72
     1
 11
3.286070807252965
 21
-0.9511847942639697
 31
0.0
100
AcDbText
  0
ENDBLK
  5
95
100
AcDbEntity
  8
0
100
AcDbBlockEnd
  0
BLOCK
  5
10F
100
AcDbEntity
  8
0
100
AcDbBlockBegin
  2
TFL2514PR_F
 70
     0
 10
0.0
 20
0.0
 30
0.0
  3
TFL2514PR_F
  1

  0
LWPOLYLINE
  5
98
100
AcDbEntity
  8
USP-GEO
100
AcDbPolyline
 90
        2
 70
   128
 43
0.0
 10
6.55109723669437
 20
14.07670513172391
 10
4.654290978340401
 20
14.07670513172391
  0
LWPOLYLINE
  5
99
100
AcDbEntity
  8
USP-GEO
100
AcDbPolyline
 90
        2
 70
   128
 43
0.0
 10
1.897804951528507
 20
14.07670513172391
 10
0.0009986931745404
 20
14.07670513172391
  0
LWPOLYLINE
  5
9A
100
AcDbEntity
  8
USP-GEO
100
AcDbPolyline
 90
        2
 70
   128
 43
0.0
 10
4.676334049326501
 20
1.501133134153455
 10
4.786549404257006
 20
1.390917779222952
  0
LWPOLYLINE
  5
9B
100
AcDbEntity
  8
USP-GEO
100
AcDbPolyline
 90
        2
 70
   128
 43
0.0
 10
4.522032552423797
 20
1.941994553875471
 10
4.522032552423797
 20
2.074252979792074
  0
LWPOLYLINE
  5
9C
100
AcDbEntity
  8
USP-GEO
100
AcDbPolyline
 90
        2
 70
   128
 43
0.0
 10
4.522032552423797
 20
2.074252979792074
 10
4.588161765382099
 20
2.074252979792074
  0
LWPOLYLINE
  5
9D
100
AcDbEntity
  8
USP-GEO
100
AcDbPolyline
 90
        2
 70
   128
 43
0.0
 10
4.522032552423797
 20
2.074252979792074
 10
4.522032552423797
 20
2.184468334722581
  0
LWPOLYLINE
  5
9E
100
AcDbEntity
  8
USP-GEO
100
AcDbPolyline
 90
        2
 70
   128
 43
0.0
 10
4.522032552423797
 20
2.184468334722581
 10
4.588161765382099
 20
2.184468334722581
  0
LWPOLYLINE
  5
9F
100
AcDbEntity
  8
USP-GEO
100
AcDbPolyline
 90
        2
 70
   128
 43
0.0
 10
4.522032552423797
 20
2.184468334722581
 10
4.522032552423797
 20
5.317890875396797
  0
LWPOLYLINE
  5
A0
100
AcDbEntity
  8
USP-GEO
100
AcDbPolyline
 90
        2
 70
   128
 43
0.0
 10
4.522032552423797
 20
5.317890875396797
 10
4.522032552423797
 20
5.472192372299501
  0
LWPOLYLINE
  5
A1
100
AcDbEntity
  8
USP-GEO
100
AcDbPolyline
 90
        2
 70
   128
 43
0.0
 10
4.522032552423797
 20
5.472192372299501
 10
4.522032552423797
 20
12.26807115731435
  0
LWPOLYLINE
  5
A2
100
AcDbEntity
  8
USP-GEO
100
AcDbPolyline
 90
        2
 70
   128
 43
0.0
 10
4.522032552423797
 20
12.26807115731435
 10
4.522032552423797
 20
12.59871722210586
  0
LWPOLYLINE
  5
A3
100
AcDbEntity
  8
USP-GEO
100
AcDbPolyline
 90
        2
 70
   128
 43
0.0
 10
4.522032552423797
 20
12.59871722210586
 10
4.522032552423797
 20
13.6138006410158
  0
LWPOLYLINE
  5
A4
100
AcDbEntity
  8
USP-GEO
100
AcDbPolyline
 90
        2
 70
   128
 43
0.0
 10
2.030063377445111
 20
2.184468334722581
 10
1.985977235472909
 20
2.184468334722581
  0
LWPOLYLINE
  5
A5
100
AcDbEntity
  8
USP-GEO
100
AcDbPolyline
 90
        2
 70
   128
 43
0.0
 10
2.030063377445111
 20
2.074252979792074
 10
1.985977235472909
 20
2.074252979792074
  0
LWPOLYLINE
  5
A6
100
AcDbEntity
  8
USP-GEO
100
AcDbPolyline
 90
        2
 70
   128
 43
0.0
 10
2.030063377445111
 20
2.074252979792074
 10
2.030063377445111
 20
1.941994553875471
  0
LWPOLYLINE
  5
A7
100
AcDbEntity
  8
USP-GEO
100
AcDbPolyline
 90
        2
 70
   128
 43
0.0
 10
2.030063377445111
 20
2.184468334722581
 10
2.030063377445111
 20
2.074252979792074
  0
LWPOLYLINE
  5
A8
100
AcDbEntity
  8
USP-GEO
100
AcDbPolyline
 90
        2
 70
   128
 43
0.0
 10
2.030063377445111
 20
5.317890875396797
 10
2.030063377445111
 20
2.184468334722581
  0
LWPOLYLINE
  5
A9
100
AcDbEntity
  8
USP-GEO
100
AcDbPolyline
 90
        2
 70
   128
 43
0.0
 10
2.030063377445111
 20
5.472192372299501
 10
2.030063377445111
 20
5.317890875396797
  0
LWPOLYLINE
  5
AA
100
AcDbEntity
  8
USP-GEO
100
AcDbPolyline
 90
        2
 70
   128
 43
0.0
 10
2.030063377445111
 20
12.26807115731435
 10
2.030063377445111
 20
5.472192372299501
  0
LWPOLYLINE
  5
AB
100
AcDbEntity
  8
USP-GEO
100
AcDbPolyline
 90
        2
 70
   128
 43
0.0
 10
2.030063377445111
 20
12.59871722210586
 10
2.030063377445111
 20
12.26807115731435
  0
LWPOLYLINE
  5
AC
100
AcDbEntity
  8
USP-GEO
100
AcDbPolyline
 90
        2
 70
   128
 43
0.0
 10
2.030063377445111
 20
13.6138006410158
 10
2.030063377445111
 20
12.59871722210586
  0
LWPOLYLINE
  5
AD
100
AcDbEntity
  8
USP-GEO
100
AcDbPolyline
 90
        2
 70
   128
 43
0.0
 10
2.030063377445111
 20
13.7019729249602
 10
2.030063377445111
 20
13.6138006410158
  0
LWPOLYLINE
  5
AE
100
AcDbEntity
  8
USP-GEO
100
AcDbPolyline
 90
        2
 70
   128
 43
0.0
 10
2.030063377445111
 20
1.941994553875471
 10
2.030063377445111
 20
0.0881722839444024
  0
ARC
  5
AF
100
AcDbEntity
  8
USP-GEO
100
AcDbCircle
 10
2.070300290193798
 20
0.1069649652708158
 30
0.0
 40
0.038
100
AcDbArc
 50
205.0349629560145
 51
275.3848611484712
  0
LWPOLYLINE
  5
B0
100
AcDbEntity
  8
USP-GEO
100
AcDbPolyline
 90
        2
 70
   128
 43
0.0
 10
4.522032552423797
 20
0.0881722839444024
 10
4.522032552423797
 20
1.941994553875471
  0
ARC
  5
B1
100
AcDbEntity
  8
USP-GEO
100
AcDbCircle
 10
4.494300290193783
 20
0.1069649652708158
 30
0.0
 40
0.09
100
AcDbArc
 50
273.0445463243611
 51
348.678102271408
  0
LWPOLYLINE
  5
B2
100
AcDbEntity
  8
USP-GEO
100
AcDbPolyline
 90
        2
 70
   128
 43
0.0
 10
2.074149519417314
 20
0.0
 10
4.499989481437697
 20
0.0
  0
ARC
  5
B3
100
AcDbEntity
  8
USP-GEO
100
AcDbCircle
 10
2.070300290193798
 20
0.1069649652708158
 30
0.0
 40
0.09
100
AcDbArc
 50
192.56391364343
 51
272.0609501592403
  0
LWPOLYLINE
  5
B4
100
AcDbEntity
  8
USP-GEO
100
AcDbPolyline
 90
        2
 70
   128
 43
0.0
 10
2.074149519417314
 20
0.0661292129583018
 10
4.499989481437697
 20
0.0661292129583018
  0
ARC
  5
B5
100
AcDbEntity
  8
USP-GEO
100
AcDbCircle
 10
4.494300290193783
 20
0.1069649652708158
 30
0.0
 40
0.038
100
AcDbArc
 50
277.9313316664977
 51
325.8765918253445
  0
LWPOLYLINE
  5
B6
100
AcDbEntity
  8
USP-GEO
100
AcDbPolyline
 90
        2
 70
   128
 43
0.0
 10
4.610204836368199
 20
2.074252979792074
 10
4.588161765382099
 20
2.074252979792074
  0
LWPOLYLINE
  5
B7
100
AcDbEntity
  8
USP-GEO
100
AcDbPolyline
 90
        2
 70
   128
 43
0.0
 10
4.588161765382099
 20
13.7019729249602
 10
4.589263918931405
 20
13.7019729249602
  0
LWPOLYLINE
  5
B8
100
AcDbEntity
  8
USP-GEO
100
AcDbPolyline
 90
        2
 70
   128
 43
0.0
 10
4.522032552423797
 20
13.6138006410158
 10
4.522032552423797
 20
13.7019729249602
  0
LWPOLYLINE
  5
B9
100
AcDbEntity
  8
USP-GEO
100
AcDbPolyline
 90
        2
 70
   128
 43
0.0
 10
4.588161765382099
 20
13.7019729249602
 10
4.610204836368199
 20
13.7019729249602
  0
LWPOLYLINE
  5
BA
100
AcDbEntity
  8
USP-GEO
100
AcDbPolyline
 90
        2
 70
   128
 43
0.0
 10
4.544075623409898
 20
13.7019729249602
 10
4.588161765382099
 20
13.7019729249602
  0
LWPOLYLINE
  5
BB
100
AcDbEntity
  8
USP-GEO
100
AcDbPolyline
 90
        2
 70
   128
 43
0.0
 10
4.544075623409898
 20
13.7019729249602
 10
4.522032552423797
 20
13.7019729249602
  0
LWPOLYLINE
  5
BC
100
AcDbEntity
  8
USP-GEO
100
AcDbPolyline
 90
        2
 70
   128
 43
0.0
 10
4.522032552423797
 20
13.7019729249602
 10
4.523134705973101
 20
13.7019729249602
  0
ARC
  5
BD
100
AcDbEntity
  8
USP-GEO
100
AcDbCircle
 10
6.549482951272802
 20
13.79984890377434
 30
0.0
 40
0.1058839385034389
100
AcDbArc
 50
270.9449035135439
 51
271.5897725521219
  0
ARC
  5
BE
100
AcDbEntity
  8
USP-GEO
100
AcDbCircle
 10
6.549482951272802
 20
13.44396496527091
 30
0.0
 40
0.25
100
AcDbArc
 50
89.6415206150557
 51
139.2024239612279
  0
LWPOLYLINE
  5
BF
100
AcDbEntity
  8
USP-GEO
100
AcDbPolyline
 90
        2
 70
   128
 43
0.0
 10
5.448943687389331
 20
12.59871722210586
 10
6.352709597819461
 20
13.6138006410158
  0
ARC
  5
C0
100
AcDbEntity
  8
USP-GEO
100
AcDbCircle
 10
5.834300290193989
 20
12.26118782034476
 30
0.0
 40
0.5
100
AcDbArc
 50
138.7852563383852
 51
179.204231006184
  0
LWPOLYLINE
  5
C1
100
AcDbEntity
  8
USP-GEO
100
AcDbPolyline
 90
        2
 70
   128
 43
0.0
 10
5.338728332458829
 20
12.26807115731435
 10
5.338728332458829
 20
5.472192372299501
  0
ARC
  5
C2
100
AcDbEntity
  8
USP-GEO
100
AcDbCircle
 10
4.584300290193989
 20
5.472126813969496
 30
0.0
 40
0.75
100
AcDbArc
 50
348.1076242362261
 51
0.0049788918244116
  0
LWPOLYLINE
  5
C3
100
AcDbEntity
  8
USP-GEO
100
AcDbPolyline
 90
        2
 70
   128
 43
0.0
 10
4.698377120312604
 20
2.184468334722581
 10
5.316685261472728
 20
5.317890875396797
  0
ARC
  5
C4
100
AcDbEntity
  8
USP-GEO
100
AcDbCircle
 10
4.584300290194017
 20
2.209589965270893
 30
0.0
 40
0.125
100
AcDbArc
 50
280.8357940785207
 51
347.5807356277286
  0
LWPOLYLINE
  5
C5
100
AcDbEntity
  8
USP-GEO
100
AcDbPolyline
 90
        2
 70
   128
 43
0.0
 10
4.610204836368199
 20
13.7019729249602
 10
4.588161765382099
 20
13.7019729249602
  0
ARC
  5
C6
100
AcDbEntity
  8
USP-GEO
100
AcDbCircle
 10
4.549482951272802
 20
13.79984890377434
 30
0.0
 40
0.1058839385034389
100
AcDbArc
 50
291.5630342357845
 51
6.714700432546978
  0
LWPOLYLINE
  5
C7
100
AcDbEntity
  8
USP-GEO
100
AcDbPolyline
 90
        2
 70
   128
 43
0.0
 10
4.654290978340401
 20
13.8121882798907
 10
4.654290978340401
 20
14.03261898975171
  0
CIRCLE
  5
C8
100
AcDbEntity
  8
USP-GEO
100
AcDbCircle
 10
5.030366889776241
 20
13.06896496527091
 30
0.0
 40
0.09
  0
LWPOLYLINE
  5
C9
100
AcDbEntity
  8
USP-GEO
100
AcDbPolyline
 90
        2
 70
   128
 43
0.0
 10
5.006980114118014
 20
4.743668876208872
 10
4.896764759187509
 20
4.633453521278369
  0
LWPOLYLINE
  5
CA
100
AcDbEntity
  8
USP-GEO
100
AcDbPolyline
 90
        2
 70
   128
 43
0.0
 10
4.896764759187509
 20
4.853884231139376
 10
5.006980114118014
 20
4.743668876208872
  0
LWPOLYLINE
  5
CB
100
AcDbEntity
  8
USP-GEO
100
AcDbPolyline
 90
        2
 70
   128
 43
0.0
 10
4.786549404257006
 20
4.743668876208872
 10
4.896764759187509
 20
4.853884231139376
  0
LWPOLYLINE
  5
CC
100
AcDbEntity
  8
USP-GEO
100
AcDbPolyline
 90
        2
 70
   128
 43
0.0
 10
4.896764759187509
 20
4.633453521278369
 10
4.786549404257006
 20
4.743668876208872
  0
LWPOLYLINE
  5
CD
100
AcDbEntity
  8
USP-GEO
100
AcDbPolyline
 90
        2
 70
   128
 43
0.0
 10
6.55109723669437
 20
13.7019729249602
 10
6.55109723669437
 20
14.03261898975171
  0
LWPOLYLINE
  5
CE
100
AcDbEntity
  8
USP-GEO
100
AcDbPolyline
 90
        2
 70
   128
 43
0.0
 10
4.654290978340401
 20
14.03261898975171
 10
4.654290978340401
 20
14.12079127369611
  0
LWPOLYLINE
  5
CF
100
AcDbEntity
  8
USP-GEO
100
AcDbPolyline
 90
        2
 70
   128
 43
0.0
 10
4.654290978340401
 20
14.12079127369611
 10
6.55109723669437
 20
14.12079127369611
  0
LWPOLYLINE
  5
D0
100
AcDbEntity
  8
USP-GEO
100
AcDbPolyline
 90
        2
 70
   128
 43
0.0
 10
6.55109723669437
 20
14.12079127369611
 10
6.55109723669437
 20
14.03261898975171
  0
LWPOLYLINE
  5
D1
100
AcDbEntity
  8
USP-GEO
100
AcDbPolyline
 90
        2
 70
   128
 43
0.0
 10
2.030063377445111
 20
13.7019729249602
 10
1.985977235472909
 20
13.7019729249602
  0
LWPOLYLINE
  5
D2
100
AcDbEntity
  8
USP-GEO
100
AcDbPolyline
 90
        2
 70
   128
 43
0.0
 10
2.030063377445111
 20
13.7019729249602
 10
2.031165530994417
 20
13.7019729249602
  0
LWPOLYLINE
  5
D3
100
AcDbEntity
  8
USP-GEO
100
AcDbPolyline
 90
        2
 70
   128
 43
0.0
 10
2.030063377445111
 20
13.7019729249602
 10
2.031165530994417
 20
13.7019729249602
  0
LWPOLYLINE
  5
D4
100
AcDbEntity
  8
USP-GEO
100
AcDbPolyline
 90
        2
 70
   128
 43
0.0
 10
1.567158886736996
 20
4.743668876208872
 10
1.677374241667499
 20
4.853884231139376
  0
LWPOLYLINE
  5
D5
100
AcDbEntity
  8
USP-GEO
100
AcDbPolyline
 90
        2
 70
   128
 43
0.0
 10
1.677374241667499
 20
4.633453521278369
 10
1.567158886736996
 20
4.743668876208872
  0
LWPOLYLINE
  5
D6
100
AcDbEntity
  8
USP-GEO
100
AcDbPolyline
 90
        2
 70
   128
 43
0.0
 10
1.787589596598004
 20
4.743668876208872
 10
1.677374241667499
 20
4.633453521278369
  0
LWPOLYLINE
  5
D7
100
AcDbEntity
  8
USP-GEO
100
AcDbPolyline
 90
        2
 70
   128
 43
0.0
 10
1.677374241667499
 20
4.853884231139376
 10
1.787589596598004
 20
4.743668876208872
  0
CIRCLE
  5
D8
100
AcDbEntity
  8
USP-GEO
100
AcDbCircle
 10
1.534233690611567
 20
13.06896496527079
 30
0.0
 40
0.09
  0
ARC
  5
D9
100
AcDbEntity
  8
USP-GEO
100
AcDbCircle
 10
1.980300290193791
 20
2.209589965270797
 30
0.0
 40
0.125
100
AcDbArc
 50
191.2251831134057
 51
254.1558385219072
  0
LWPOLYLINE
  5
DA
100
AcDbEntity
  8
USP-GEO
100
AcDbPolyline
 90
        2
 70
   128
 43
0.0
 10
1.853718809556306
 20
2.184468334722581
 10
1.23541066839618
 20
5.317890875396797
  0
ARC
  5
DB
100
AcDbEntity
  8
USP-GEO
100
AcDbCircle
 10
1.980300290193819
 20
5.472126813969429
 30
0.0
 40
0.75
100
AcDbArc
 50
179.9949573527332
 51
191.6982824992942
  0
LWPOLYLINE
  5
DC
100
AcDbEntity
  8
USP-GEO
100
AcDbPolyline
 90
        2
 70
   128
 43
0.0
 10
1.23541066839618
 20
12.26807115731435
 10
1.23541066839618
 20
5.472192372299501
  0
ARC
  5
DD
100
AcDbEntity
  8
USP-GEO
100
AcDbCircle
 10
0.7303002901938202
 20
12.26118782034465
 30
0.0
 40
0.5
100
AcDbArc
 50
0.780743702371495
 51
42.15340555030123
  0
LWPOLYLINE
  5
DE
100
AcDbEntity
  8
USP-GEO
100
AcDbPolyline
 90
        2
 70
   128
 43
0.0
 10
1.103152242479576
 20
12.59871722210586
 10
0.1993863320494474
 20
13.6138006410158
  0
ARC
  5
DF
100
AcDbEntity
  8
USP-GEO
100
AcDbCircle
 10
0.0151176291150067
 20
13.4439649652708
 30
0.0
 40
0.25
100
AcDbArc
 50
42.66595922948641
 51
88.24084179079241
  0
ARC
  5
E0
100
AcDbEntity
  8
USP-GEO
100
AcDbCircle
 10
0.0151176291150067
 20
13.79984890377423
 30
0.0
 40
0.1058839385034389
100
AcDbArc
 50
261.7915172575004
 51
274.6286269504183
  0
LWPOLYLINE
  5
E1
100
AcDbEntity
  8
USP-GEO
100
AcDbPolyline
 90
        2
 70
   128
 43
0.0
 10
0.0009986931745404
 20
13.7019729249602
 10
0.0009986931745404
 20
14.03261898975171
  0
ARC
  5
E2
100
AcDbEntity
  8
USP-GEO
100
AcDbCircle
 10
2.015117629115006
 20
13.79984890377423
 30
0.0
 40
0.1058839385034389
100
AcDbArc
 50
173.9954993837643
 51
253.4202717147319
  0
LWPOLYLINE
  5
E3
100
AcDbEntity
  8
USP-GEO
100
AcDbPolyline
 90
        2
 70
   128
 43
0.0
 10
1.985977235472909
 20
13.7019729249602
 10
1.941891093500708
 20
13.7019729249602
  0
LWPOLYLINE
  5
E4
100
AcDbEntity
  8
USP-GEO
100
AcDbPolyline
 90
        2
 70
   128
 43
0.0
 10
1.897804951528507
 20
13.8121882798907
 10
1.897804951528507
 20
14.03261898975171
  0
LWPOLYLINE
  5
E5
100
AcDbEntity
  8
USP-GEO
100
AcDbPolyline
 90
        2
 70
   128
 43
0.0
 10
0.0009986931745404
 20
14.12079127369611
 10
1.897804951528507
 20
14.12079127369611
  0
LWPOLYLINE
  5
E6
100
AcDbEntity
  8
USP-GEO
100
AcDbPolyline
 90
        2
 70
   128
 43
0.0
 10
1.897804951528507
 20
14.12079127369611
 10
1.897804951528507
 20
14.03261898975171
  0
LWPOLYLINE
  5
E7
100
AcDbEntity
  8
USP-GEO
100
AcDbPolyline
 90
        2
 70
   128
 43
0.0
 10
0.0009986931745404
 20
14.03261898975171
 10
0.0009986931745404
 20
14.12079127369611
  0
LWPOLYLINE
  5
E8
100
AcDbEntity
  8
USP-GEO
100
AcDbPolyline
 90
        2
 70
   128
 43
0.0
 10
1.985977235472909
 20
13.6138006410158
 10
1.985977235472909
 20
13.7019729249602
  0
LWPOLYLINE
  5
E9
100
AcDbEntity
  8
USP-GEO
100
AcDbPolyline
 90
        2
 70
   128
 43
0.0
 10
1.985977235472909
 20
12.59871722210586
 10
1.985977235472909
 20
13.6138006410158
  0
LWPOLYLINE
  5
EA
100
AcDbEntity
  8
USP-GEO
100
AcDbPolyline
 90
        2
 70
   128
 43
0.0
 10
1.985977235472909
 20
12.26807115731435
 10
1.985977235472909
 20
12.59871722210586
  0
LWPOLYLINE
  5
EB
100
AcDbEntity
  8
USP-GEO
100
AcDbPolyline
 90
        2
 70
   128
 43
0.0
 10
1.985977235472909
 20
12.26807115731435
 10
1.985977235472909
 20
5.472192372299501
  0
LWPOLYLINE
  5
EC
100
AcDbEntity
  8
USP-GEO
100
AcDbPolyline
 90
        2
 70
   128
 43
0.0
 10
1.985977235472909
 20
5.472192372299501
 10
1.985977235472909
 20
5.317890875396797
  0
LWPOLYLINE
  5
ED
100
AcDbEntity
  8
USP-GEO
100
AcDbPolyline
 90
        2
 70
   128
 43
0.0
 10
1.985977235472909
 20
2.184468334722581
 10
1.985977235472909
 20
5.317890875396797
  0
LWPOLYLINE
  5
EE
100
AcDbEntity
  8
USP-GEO
100
AcDbPolyline
 90
        2
 70
   128
 43
0.0
 10
1.985977235472909
 20
2.184468334722581
 10
1.985977235472909
 20
2.074252979792074
  0
LWPOLYLINE
  5
EF
100
AcDbEntity
  8
USP-GEO
100
AcDbPolyline
 90
        2
 70
   128
 43
0.0
 10
1.985977235472909
 20
1.941994553875471
 10
1.985977235472909
 20
2.074252979792074
  0
LWPOLYLINE
  5
F0
100
AcDbEntity
  8
USP-GEO
100
AcDbPolyline
 90
        2
 70
   128
 43
0.0
 10
1.985977235472909
 20
1.941994553875471
 10
1.985977235472909
 20
0.0881722839444024
  0
LWPOLYLINE
  5
F1
100
AcDbEntity
  8
USP-GEO
100
AcDbPolyline
 90
        2
 70
   128
 43
0.0
 10
1.985977235472909
 20
13.7019729249602
 10
1.987079389022215
 20
13.7019729249602
  0
LWPOLYLINE
  5
F2
100
AcDbEntity
  8
USP-GEO
100
AcDbPolyline
 90
        2
 70
   128
 43
0.0
 10
1.985977235472909
 20
2.074252979792074
 10
1.941891093500708
 20
2.074252979792074
  0
LWPOLYLINE
  5
F3
100
AcDbEntity
  8
USP-GEO
100
AcDbPolyline
 90
        2
 70
   128
 43
0.0
 10
1.941891093500708
 20
13.7019729249602
 10
1.985977235472909
 20
13.7019729249602
  0
LWPOLYLINE
  5
F4
100
AcDbEntity
  8
USP-GEO
100
AcDbPolyline
 90
        2
 70
   128
 43
0.0
 10
4.588161765382099
 20
0.0881722839444024
 10
4.588161765382099
 20
1.941994553875471
  0
LWPOLYLINE
  5
F5
100
AcDbEntity
  8
USP-GEO
100
AcDbPolyline
 90
        2
 70
   128
 43
0.0
 10
4.588161765382099
 20
2.074252979792074
 10
4.588161765382099
 20
1.941994553875471
  0
LWPOLYLINE
  5
F6
100
AcDbEntity
  8
USP-GEO
100
AcDbPolyline
 90
        2
 70
   128
 43
0.0
 10
4.588161765382099
 20
2.074252979792074
 10
4.588161765382099
 20
2.184468334722581
  0
LWPOLYLINE
  5
F7
100
AcDbEntity
  8
USP-GEO
100
AcDbPolyline
 90
        2
 70
   128
 43
0.0
 10
4.588161765382099
 20
2.184468334722581
 10
4.588161765382099
 20
5.317890875396797
  0
LWPOLYLINE
  5
F8
100
AcDbEntity
  8
USP-GEO
100
AcDbPolyline
 90
        2
 70
   128
 43
0.0
 10
4.588161765382099
 20
5.317890875396797
 10
4.588161765382099
 20
5.472192372299501
  0
LWPOLYLINE
  5
F9
100
AcDbEntity
  8
USP-GEO
100
AcDbPolyline
 90
        2
 70
   128
 43
0.0
 10
4.588161765382099
 20
12.26807115731435
 10
4.588161765382099
 20
5.472192372299501
  0
LWPOLYLINE
  5
FA
100
AcDbEntity
  8
USP-GEO
100
AcDbPolyline
 90
        2
 70
   128
 43
0.0
 10
4.588161765382099
 20
12.59871722210586
 10
4.588161765382099
 20
12.26807115731435
  0
LWPOLYLINE
  5
FB
100
AcDbEntity
  8
USP-GEO
100
AcDbPolyline
 90
        2
 70
   128
 43
0.0
 10
4.588161765382099
 20
12.59871722210586
 10
4.588161765382099
 20
13.6138006410158
  0
LWPOLYLINE
  5
FC
100
AcDbEntity
  8
USP-GEO
100
AcDbPolyline
 90
        2
 70
   128
 43
0.0
 10
4.588161765382099
 20
13.7019729249602
 10
4.588161765382099
 20
13.6138006410158
  0
LWPOLYLINE
  5
FD
100
AcDbEntity
  8
USP-GEO
100
AcDbPolyline
 90
        2
 70
   128
 43
0.0
 10
1.875761880542406
 20
1.501133134153455
 10
1.765546525611904
 20
1.390917779222952
  0
LWPOLYLINE
  5
FE
100
AcDbEntity
  8
USP-GEO
100
AcDbPolyline
 90
        2
 70
   128
 43
0.0
 10
2.074149519417314
 20
0.8828249929933313
 10
2.184364874347817
 20
0.7946527090489291
  0
LWPOLYLINE
  5
FF
100
AcDbEntity
  8
USP-GEO
100
AcDbPolyline
 90
        2
 70
   128
 43
0.0
 10
2.162321803361716
 20
0.7505665670767279
 10
2.184364874347817
 20
0.7946527090489291
  0
LWPOLYLINE
  5
100
100
AcDbEntity
  8
USP-GEO
100
AcDbPolyline
 90
        2
 70
   128
 43
0.0
 10
2.162321803361716
 20
0.7505665670767279
 10
2.052106448431213
 20
0.8387388510211302
  0
LWPOLYLINE
  5
101
100
AcDbEntity
  8
USP-GEO
100
AcDbPolyline
 90
        2
 70
   128
 43
0.0
 10
2.030063377445111
 20
0.9048680639794319
 10
2.074149519417314
 20
0.8828249929933313
  0
LWPOLYLINE
  5
102
100
AcDbEntity
  8
USP-GEO
100
AcDbPolyline
 90
        2
 70
   128
 43
0.0
 10
2.052106448431213
 20
0.8387388510211302
 10
2.074149519417314
 20
0.8828249929933313
  0
LWPOLYLINE
  5
103
100
AcDbEntity
  8
USP-GEO
100
AcDbPolyline
 90
        2
 70
   128
 43
0.0
 10
2.052106448431213
 20
0.8387388510211302
 10
2.030063377445111
 20
0.8387388510211302
  0
LWPOLYLINE
  5
104
100
AcDbEntity
  8
USP-GEO
100
AcDbPolyline
 90
        2
 70
   128
 43
0.0
 10
4.411817197493294
 20
0.7505665670767279
 10
4.367731055521091
 20
0.7946527090489291
  0
LWPOLYLINE
  5
105
100
AcDbEntity
  8
USP-GEO
100
AcDbPolyline
 90
        2
 70
   128
 43
0.0
 10
4.477946410451596
 20
0.8828249929933313
 10
4.367731055521091
 20
0.7946527090489291
  0
LWPOLYLINE
  5
106
100
AcDbEntity
  8
USP-GEO
100
AcDbPolyline
 90
        2
 70
   128
 43
0.0
 10
4.411817197493294
 20
0.7505665670767279
 10
4.522032552423797
 20
0.8387388510211302
  0
LWPOLYLINE
  5
107
100
AcDbEntity
  8
USP-GEO
100
AcDbPolyline
 90
        2
 70
   128
 43
0.0
 10
4.522032552423797
 20
0.8387388510211302
 10
4.523134705973101
 20
0.8387388510211302
  0
LWPOLYLINE
  5
108
100
AcDbEntity
  8
USP-GEO
100
AcDbPolyline
 90
        2
 70
   128
 43
0.0
 10
4.522032552423797
 20
0.8387388510211302
 10
4.477946410451596
 20
0.8828249929933313
  0
LWPOLYLINE
  5
109
100
AcDbEntity
  8
USP-GEO
100
AcDbPolyline
 90
        2
 70
   128
 43
0.0
 10
4.522032552423797
 20
0.9048680639794319
 10
4.477946410451596
 20
0.8828249929933313
  0
ARC
  5
10A
100
AcDbEntity
  8
USP-GEO
100
AcDbCircle
 10
2.032300290193798
 20
1.240214965270915
 30
0.0
 40
0.302
100
AcDbArc
 50
99.29731308857915
 51
120.9617395159937
  0
ARC
  5
10B
100
AcDbEntity
  8
USP-GEO
100
AcDbCircle
 10
2.032300290193798
 20
1.240214965270915
 30
0.0
 40
0.302
100
AcDbArc
 50
150.5356786218811
 51
261.5895535644895
  0
ARC
  5
10C
100
AcDbEntity
  8
USP-GEO
100
AcDbCircle
 10
4.532300290193783
 20
1.240214965270816
 30
0.0
 40
0.302
100
AcDbArc
 50
280.1094938736228
 51
30.65678392188511
  0
ARC
  5
10D
100
AcDbEntity
  8
USP-GEO
100
AcDbCircle
 10
4.532300290193783
 20
1.240214965270816
 30
0.0
 40
0.302
100
AcDbArc
 50
61.1001360488744
 51
78.83241821119196
  0
TEXT
  5
10E
100
AcDbEntity
  8
USP-TXT
100
AcDbText
 10
0.8287361670941738
 20
-0.8728092588531968
 30
0.0
 40
0.25
  1
TFL2514 - FRONT VIEW
 72
     1
 11
3.287069500427505
 21
-0.8728092588531968
 31
0.0
100
AcDbText
  0
ENDBLK
  5
110
100
AcDbEntity
  8
0
100
AcDbBlockEnd
  0
BLOCK
  5
15E
100
AcDbEntity
  8
0
100
AcDbBlockBegin
  2
TFL2514PR_S
 70
     0
 10
0.0
 20
0.0
 30
0.0
  3
TFL2514PR_S
  1

  0
LWPOLYLINE
  5
113
100
AcDbEntity
  8
USP-GEO
100
AcDbPolyline
 90
        2
 70
   128
 43
0.0
 10
2.007021613284472
 20
0.0661292129583018
 10
0.0
 20
0.0661292129583018
  0
ELLIPSE
  5
114
100
AcDbEntity
  8
USP-GEO
  6
CONTINUOUS
100
AcDbEllipse
 10
0.5073062649460241
 20
1.446515716602458
 30
0.0
 11
-0.078000000000003
 21
-0.0000000000000001
 31
0.0
210
0.0
220
0.0
230
1.0
 40
0.7071067811865476
 41
6.055370860613383
 42
6.919407667618892
1001
ACAD
1000
RTLwPs
1070
   128
  0
ELLIPSE
  5
115
100
AcDbEntity
  8
USP-GEO
  6
CONTINUOUS
100
AcDbEllipse
 10
0.5073062649460241
 20
1.446515716602458
 30
0.0
 11
-0.078000000000003
 21
-0.0000000000000001
 31
0.0
210
0.0
220
0.0
230
1.0
 40
0.7071067811865476
 41
5.661072804937097
 42
6.059085069823344
1001
ACAD
1000
RTLwPs
1070
   128
  0
ELLIPSE
  5
116
100
AcDbEntity
  8
USP-GEO
  6
CONTINUOUS
100
AcDbEllipse
 10
0.5073062649460241
 20
1.446515716602458
 30
0.0
 11
-0.078000000000003
 21
-0.0000000000000001
 31
0.0
210
0.0
220
0.0
230
1.0
 40
0.7071067811865476
 41
0.628113188222444
 42
1.319870788256344
1001
ACAD
1000
RTLwPs
1070
   128
  0
ELLIPSE
  5
117
100
AcDbEntity
  8
USP-GEO
  6
CONTINUOUS
100
AcDbEllipse
 10
0.5073062649460241
 20
1.446515716602458
 30
0.0
 11
-0.078000000000003
 21
-0.0000000000000001
 31
0.0
210
0.0
220
0.0
230
1.0
 40
0.7071067811865476
 41
1.306762525094461
 42
1.866256726293193
1001
ACAD
1000
RTLwPs
1070
   128
  0
ELLIPSE
  5
118
100
AcDbEntity
  8
USP-GEO
  6
CONTINUOUS
100
AcDbEllipse
 10
0.5073062649460241
 20
1.446515716602458
 30
0.0
 11
-0.078000000000003
 21
-0.0000000000000001
 31
0.0
210
0.0
220
0.0
230
1.0
 40
0.7071067811865476
 41
4.411935318030764
 42
5.669106555884629
1001
ACAD
1000
RTLwPs
1070
   128
  0
ELLIPSE
  5
119
100
AcDbEntity
  8
USP-GEO
  6
CONTINUOUS
100
AcDbEllipse
 10
0.5073062649460241
 20
1.446515716602458
 30
0.0
 11
-0.078000000000003
 21
-0.0000000000000001
 31
0.0
210
0.0
220
0.0
230
1.0
 40
0.7071067811865476
 41
1.853378199024733
 42
2.099903137457203
1001
ACAD
1000
RTLwPs
1070
   128
  0
ELLIPSE
  5
11A
100
AcDbEntity
  8
USP-GEO
  6
CONTINUOUS
100
AcDbEllipse
 10
0.5073062649460241
 20
1.446515716602458
 30
0.0
 11
-0.078000000000003
 21
-0.0000000000000001
 31
0.0
210
0.0
220
0.0
230
1.0
 40
0.7071067811865476
 41
4.425006574987739
 42
10.21117855742828
1001
ACAD
1000
RTLwPs
1070
   128
  0
ELLIPSE
  5
11B
100
AcDbEntity
  8
USP-GEO
  6
CONTINUOUS
100
AcDbEllipse
 10
0.5073062649460241
 20
1.446515716602458
 30
0.0
 11
-0.078000000000003
 21
-0.0000000000000001
 31
0.0
210
0.0
220
0.0
230
1.0
 40
0.7071067811865476
 41
2.532435053752248
 42
8.372578638346249
1001
ACAD
1000
RTLwPs
1070
   128
  0
ELLIPSE
  5
11C
100
AcDbEntity
  8
USP-GEO
  6
CONTINUOUS
100
AcDbEllipse
 10
0.5073062649460241
 20
1.446515716602458
 30
0.0
 11
-0.078000000000003
 21
-0.0000000000000001
 31
0.0
210
0.0
220
0.0
230
1.0
 40
0.7071067811865476
 41
3.940124246759623
 42
9.640339934441627
1001
ACAD
1000
RTLwPs
1070
   128
  0
ELLIPSE
  5
11D
100
AcDbEntity
  8
USP-GEO
  6
CONTINUOUS
100
AcDbEllipse
 10
0.5073062649460241
 20
1.446515716602458
 30
0.0
 11
-0.078000000000003
 21
-0.0000000000000001
 31
0.0
210
0.0
220
0.0
230
1.0
 40
0.7071067811865476
 41
3.36059352478715
 42
8.807932901433833
1001
ACAD
1000
RTLwPs
1070
   128
  0
ELLIPSE
  5
11E
100
AcDbEntity
  8
USP-GEO
  6
CONTINUOUS
100
AcDbEllipse
 10
0.5073062649460241
 20
1.446515716602458
 30
0.0
 11
-0.078000000000003
 21
-0.0000000000000001
 31
0.0
210
0.0
220
0.0
230
1.0
 40
0.7071067811865476
 41
2.960588041211678
 42
2.962755941075171
1001
ACAD
1000
RTLwPs
1070
   128
  0
ELLIPSE
  5
11F
100
AcDbEntity
  8
USP-GEO
  6
CONTINUOUS
100
AcDbEllipse
 10
0.5073062649460241
 20
1.408167339472552
 30
0.0
 11
-0.078000000000003
 21
-0.0000000000000001
 31
0.0
210
0.0
220
0.0
230
1.0
 40
0.7071067811865476
 41
3.242555428178419
 42
6.17980906010458
1001
ACAD
1000
RTLwPs
1070
   128
  0
LWPOLYLINE
  5
120
100
AcDbEntity
  8
USP-GEO
100
AcDbPolyline
 90
        2
 70
   128
 43
0.0
 10
2.206511405708681
 20
2.184468334722581
 10
2.161323110187176
 20
2.184468334722581
  0
LWPOLYLINE
  5
121
100
AcDbEntity
  8
USP-GEO
100
AcDbPolyline
 90
        2
 70
   128
 43
0.0
 10
2.206511405708681
 20
2.074252979792074
 10
2.139280039201075
 20
2.074252979792074
  0
LWPOLYLINE
  5
122
100
AcDbEntity
  8
USP-GEO
100
AcDbPolyline
 90
        2
 70
   128
 43
0.0
 10
2.007021613284472
 20
0.0881722839444024
 10
2.007021613284472
 20
0.0
  0
LWPOLYLINE
  5
123
100
AcDbEntity
  8
USP-GEO
100
AcDbPolyline
 90
        2
 70
   128
 43
0.0
 10
2.007021613284472
 20
0.0
 10
0.0
 20
0.0
  0
LWPOLYLINE
  5
124
100
AcDbEntity
  8
USP-GEO
100
AcDbPolyline
 90
        2
 70
   128
 43
0.0
 10
0.0
 20
0.0
 10
0.0
 20
0.0881722839444024
  0
LWPOLYLINE
  5
125
100
AcDbEntity
  8
USP-GEO
100
AcDbPolyline
 90
        2
 70
   128
 43
0.0
 10
2.161323110187176
 20
2.074252979792074
 10
2.117236968214974
 20
2.074252979792074
  0
LWPOLYLINE
  5
126
100
AcDbEntity
  8
USP-GEO
100
AcDbPolyline
 90
        2
 70
   128
 43
0.0
 10
2.206511405708681
 20
2.184468334722581
 10
2.206511405708681
 20
2.074252979792074
  0
LWPOLYLINE
  5
127
100
AcDbEntity
  8
USP-GEO
100
AcDbPolyline
 90
        2
 70
   128
 43
0.0
 10
2.206511405708681
 20
5.317890875396797
 10
2.206511405708681
 20
2.184468334722581
  0
LWPOLYLINE
  5
128
100
AcDbEntity
  8
USP-GEO
100
AcDbPolyline
 90
        2
 70
   128
 43
0.0
 10
2.206511405708681
 20
5.472192372299501
 10
2.206511405708681
 20
5.317890875396797
  0
LWPOLYLINE
  5
129
100
AcDbEntity
  8
USP-GEO
100
AcDbPolyline
 90
        2
 70
   128
 43
0.0
 10
2.206511405708681
 20
12.26807115731435
 10
2.206511405708681
 20
5.472192372299501
  0
LWPOLYLINE
  5
12A
100
AcDbEntity
  8
USP-GEO
100
AcDbPolyline
 90
        2
 70
   128
 43
0.0
 10
2.206511405708681
 20
12.59871722210586
 10
2.206511405708681
 20
12.26807115731435
  0
LWPOLYLINE
  5
12B
100
AcDbEntity
  8
USP-GEO
100
AcDbPolyline
 90
        2
 70
   128
 43
0.0
 10
2.206511405708681
 20
13.6138006410158
 10
2.206511405708681
 20
12.59871722210586
  0
LWPOLYLINE
  5
12C
100
AcDbEntity
  8
USP-GEO
100
AcDbPolyline
 90
        2
 70
   128
 43
0.0
 10
2.206511405708681
 20
13.7019729249602
 10
2.206511405708681
 20
13.6138006410158
  0
LWPOLYLINE
  5
12D
100
AcDbEntity
  8
USP-GEO
100
AcDbPolyline
 90
        2
 70
   128
 43
0.0
 10
2.206511405708681
 20
13.7019729249602
 10
2.207613559257985
 20
13.7019729249602
  0
LWPOLYLINE
  5
12E
100
AcDbEntity
  8
USP-GEO
100
AcDbPolyline
 90
        2
 70
   128
 43
0.0
 10
2.117236968214974
 20
13.7019729249602
 10
2.118339121764279
 20
13.7019729249602
  0
LWPOLYLINE
  5
12F
100
AcDbEntity
  8
USP-GEO
100
AcDbPolyline
 90
        2
 70
   128
 43
0.0
 10
2.117236968214974
 20
13.7019729249602
 10
2.161323110187176
 20
13.7019729249602
  0
LWPOLYLINE
  5
130
100
AcDbEntity
  8
USP-GEO
100
AcDbPolyline
 90
        2
 70
   128
 43
0.0
 10
2.206511405708681
 20
2.074252979792074
 10
2.207613559257985
 20
2.074252979792074
  0
LWPOLYLINE
  5
131
100
AcDbEntity
  8
USP-GEO
100
AcDbPolyline
 90
        2
 70
   128
 43
0.0
 10
2.161323110187176
 20
13.7019729249602
 10
2.16242526373648
 20
13.7019729249602
  0
LWPOLYLINE
  5
132
100
AcDbEntity
  8
USP-GEO
100
AcDbPolyline
 90
        2
 70
   128
 43
0.0
 10
2.161323110187176
 20
13.7019729249602
 10
2.161323110187176
 20
13.6138006410158
  0
LWPOLYLINE
  5
133
100
AcDbEntity
  8
USP-GEO
100
AcDbPolyline
 90
        2
 70
   128
 43
0.0
 10
2.161323110187176
 20
12.59871722210586
 10
2.161323110187176
 20
13.6138006410158
  0
LWPOLYLINE
  5
134
100
AcDbEntity
  8
USP-GEO
100
AcDbPolyline
 90
        2
 70
   128
 43
0.0
 10
2.161323110187176
 20
12.59871722210586
 10
2.161323110187176
 20
12.26807115731435
  0
LWPOLYLINE
  5
135
100
AcDbEntity
  8
USP-GEO
100
AcDbPolyline
 90
        2
 70
   128
 43
0.0
 10
2.161323110187176
 20
12.26807115731435
 10
2.161323110187176
 20
5.472192372299501
  0
LWPOLYLINE
  5
136
100
AcDbEntity
  8
USP-GEO
100
AcDbPolyline
 90
        2
 70
   128
 43
0.0
 10
2.161323110187176
 20
5.317890875396797
 10
2.161323110187176
 20
5.472192372299501
  0
LWPOLYLINE
  5
137
100
AcDbEntity
  8
USP-GEO
100
AcDbPolyline
 90
        2
 70
   128
 43
0.0
 10
2.161323110187176
 20
2.184468334722581
 10
2.161323110187176
 20
5.317890875396797
  0
LWPOLYLINE
  5
138
100
AcDbEntity
  8
USP-GEO
100
AcDbPolyline
 90
        2
 70
   128
 43
0.0
 10
2.161323110187176
 20
2.074252979792074
 10
2.161323110187176
 20
2.184468334722581
  0
LWPOLYLINE
  5
139
100
AcDbEntity
  8
USP-GEO
100
AcDbPolyline
 90
        2
 70
   128
 43
0.0
 10
3.705440232763528
 20
14.12079127369611
 10
2.250597547680882
 20
14.12079127369611
  0
LWPOLYLINE
  5
13A
100
AcDbEntity
  8
USP-GEO
100
AcDbPolyline
 90
        2
 70
   128
 43
0.0
 10
3.705440232763528
 20
14.07670513172391
 10
3.705440232763528
 20
14.12079127369611
  0
LWPOLYLINE
  5
13B
100
AcDbEntity
  8
USP-GEO
100
AcDbPolyline
 90
        2
 70
   128
 43
0.0
 10
3.705440232763528
 20
14.07670513172391
 10
2.250597547680882
 20
14.07670513172391
  0
ARC
  5
13C
100
AcDbEntity
  8
USP-GEO
100
AcDbCircle
 10
2.242770800918108
 20
14.0309649652709
 30
0.0
 40
0.038
100
AcDbArc
 50
80.28997533754068
 51
177.3881811881558
  0
LWPOLYLINE
  5
13D
100
AcDbEntity
  8
USP-GEO
100
AcDbPolyline
 90
        2
 70
   128
 43
0.0
 10
2.206511405708681
 20
14.03261898975171
 10
2.206511405708681
 20
13.7019729249602
  0
LWPOLYLINE
  5
13E
100
AcDbEntity
  8
USP-GEO
100
AcDbPolyline
 90
        2
 70
   128
 43
0.0
 10
2.206511405708681
 20
13.7019729249602
 10
2.161323110187176
 20
13.7019729249602
  0
LWPOLYLINE
  5
13F
100
AcDbEntity
  8
USP-GEO
100
AcDbPolyline
 90
        2
 70
   128
 43
0.0
 10
2.161323110187176
 20
13.7019729249602
 10
2.161323110187176
 20
14.03261898975171
  0
ARC
  5
140
100
AcDbEntity
  8
USP-GEO
100
AcDbCircle
 10
2.242770800918108
 20
14.0309649652709
 30
0.0
 40
0.09
100
AcDbArc
 50
85.02028017019009
 51
178.8366079310834
  0
CIRCLE
  5
141
100
AcDbEntity
  8
USP-GEO
100
AcDbCircle
 10
0.5073062649460241
 20
1.240214965270816
 30
0.0
 40
0.2974894956128705
  0
LWPOLYLINE
  5
142
100
AcDbEntity
  8
USP-GEO
100
AcDbPolyline
 90
        2
 70
   128
 43
0.0
 10
1.257557199757044
 20
0.8607819220072308
 10
1.125298773840441
 20
0.7064804251045267
  0
LWPOLYLINE
  5
143
100
AcDbEntity
  8
USP-GEO
100
AcDbPolyline
 90
        2
 70
   128
 43
0.0
 10
0.9930403479238378
 20
0.9048680639794319
 10
1.257557199757044
 20
0.9048680639794319
  0
LWPOLYLINE
  5
144
100
AcDbEntity
  8
USP-GEO
100
AcDbPolyline
 90
        2
 70
   128
 43
0.0
 10
1.500030980604154
 20
3.61837010236843
 10
1.610246335534657
 20
3.729687610848237
  0
LWPOLYLINE
  5
145
100
AcDbEntity
  8
USP-GEO
100
AcDbPolyline
 90
        2
 70
   128
 43
0.0
 10
1.610246335534657
 20
3.508154747437927
 10
1.500030980604154
 20
3.61837010236843
  0
LWPOLYLINE
  5
146
100
AcDbEntity
  8
USP-GEO
100
AcDbPolyline
 90
        2
 70
   128
 43
0.0
 10
1.72046169046516
 20
3.61837010236843
 10
1.610246335534657
 20
3.508154747437927
  0
LWPOLYLINE
  5
147
100
AcDbEntity
  8
USP-GEO
100
AcDbPolyline
 90
        2
 70
   128
 43
0.0
 10
1.610246335534657
 20
3.729687610848237
 10
1.72046169046516
 20
3.61837010236843
  0
CIRCLE
  5
148
100
AcDbEntity
  8
USP-GEO
100
AcDbCircle
 10
1.402770800918105
 20
12.06896496527084
 30
0.0
 40
0.15625
  0
ARC
  5
149
100
AcDbEntity
  8
USP-GEO
100
AcDbCircle
 10
2.130087400500329
 20
1.959589965270829
 30
0.0
 40
0.125
100
AcDbArc
 50
85.41634848373375
 51
188.1367566205768
  0
LWPOLYLINE
  5
14A
100
AcDbEntity
  8
USP-GEO
100
AcDbPolyline
 90
        2
 70
   128
 43
0.0
 10
2.007021613284472
 20
0.0881722839444024
 10
2.007021613284472
 20
1.941994553875471
  0
LWPOLYLINE
  5
14B
100
AcDbEntity
  8
USP-GEO
100
AcDbPolyline
 90
        2
 70
   128
 43
0.0
 10
0.0
 20
0.0881722839444024
 10
0.0
 20
1.941994553875471
  0
ARC
  5
14C
100
AcDbEntity
  8
USP-GEO
100
AcDbCircle
 10
0.1300874005003294
 20
1.959589965270829
 30
0.0
 40
0.125
100
AcDbArc
 50
88.91529336800322
 51
187.7029865291447
  0
LWPOLYLINE
  5
14D
100
AcDbEntity
  8
USP-GEO
100
AcDbPolyline
 90
        2
 70
   128
 43
0.0
 10
0.1543014969027041
 20
2.074252979792074
 10
0.1322584259166035
 20
2.074252979792074
  0
ARC
  5
14E
100
AcDbEntity
  8
USP-GEO
100
AcDbCircle
 10
0.1527708009181055
 20
2.209589965270829
 30
0.0
 40
0.125
100
AcDbArc
 50
270.6480023175135
 51
347.3299781588154
  0
LWPOLYLINE
  5
14F
100
AcDbEntity
  8
USP-GEO
100
AcDbPolyline
 90
        2
 70
   128
 43
0.0
 10
0.2645168518332071
 20
2.184468334722581
 10
0.8828249929933349
 20
5.317890875396797
  0
ARC
  5
150
100
AcDbEntity
  8
USP-GEO
100
AcDbCircle
 10
0.152770800918077
 20
5.472126813969431
 30
0.0
 40
0.75
100
AcDbArc
 50
348.0707426261691
 51
0.0049943216122092
  0
LWPOLYLINE
  5
151
100
AcDbEntity
  8
USP-GEO
100
AcDbPolyline
 90
        2
 70
   128
 43
0.0
 10
0.9048680639794355
 20
12.26807115731435
 10
0.9048680639794355
 20
5.472192372299501
  0
ARC
  5
152
100
AcDbEntity
  8
USP-GEO
100
AcDbCircle
 10
1.402770800918105
 20
12.26118782034469
 30
0.0
 40
0.5
100
AcDbArc
 50
137.2896306306064
 51
179.2079556793799
  0
LWPOLYLINE
  5
153
100
AcDbEntity
  8
USP-GEO
100
AcDbPolyline
 90
        2
 70
   128
 43
0.0
 10
1.037126489896039
 20
12.59871722210586
 10
1.940892400326166
 20
13.6138006410158
  0
ARC
  5
154
100
AcDbEntity
  8
USP-GEO
100
AcDbCircle
 10
2.11795346199689
 20
13.44396496527084
 30
0.0
 40
0.25
100
AcDbArc
 50
90.15911123157547
 51
136.1932204120187
  0
LWPOLYLINE
  5
155
100
AcDbEntity
  8
USP-GEO
100
AcDbPolyline
 90
        2
 70
   128
 43
0.0
 10
2.117236968214974
 20
2.074252979792074
 10
2.139280039201075
 20
2.074252979792074
  0
ARC
  5
156
100
AcDbEntity
  8
USP-GEO
100
AcDbCircle
 10
0.319806264946024
 20
1.240214965270915
 30
0.0
 40
0.25
100
AcDbArc
 50
35.62189684166664
 51
53.48781189300338
  0
LWPOLYLINE
  5
157
100
AcDbEntity
  8
USP-GEO
100
AcDbPolyline
 90
        2
 70
   128
 43
0.0
 10
1.257557199757044
 20
0.9048680639794319
 10
1.257557199757044
 20
0.8607819220072308
  0
LWPOLYLINE
  5
158
100
AcDbEntity
  8
USP-GEO
100
AcDbPolyline
 90
        2
 70
   128
 43
0.0
 10
0.9930403479238378
 20
0.8607819220072308
 10
0.9930403479238378
 20
0.9048680639794319
  0
LWPOLYLINE
  5
159
100
AcDbEntity
  8
USP-GEO
100
AcDbPolyline
 90
        2
 70
   128
 43
0.0
 10
1.125298773840441
 20
0.7064804251045267
 10
0.9930403479238378
 20
0.8607819220072308
  0
LWPOLYLINE
  5
15A
100
AcDbEntity
  8
USP-GEO
100
AcDbPolyline
 90
        2
 70
   128
 43
0.0
 10
0.9930403479238378
 20
0.8607819220072308
 10
1.257557199757044
 20
0.8607819220072308
  0
LWPOLYLINE
  5
15B
100
AcDbEntity
  8
USP-GEO
100
AcDbPolyline
 90
        2
 70
   128
 43
0.0
 10
1.213471057784843
 20
0.8166957800350296
 10
1.125298773840441
 20
0.7505665670767279
  0
LWPOLYLINE
  5
15C
100
AcDbEntity
  8
USP-GEO
100
AcDbPolyline
 90
        2
 70
   128
 43
0.0
 10
1.125298773840441
 20
0.7505665670767279
 10
1.037126489896039
 20
0.8166957800350296
  0
TEXT
  5
15D
100
AcDbEntity
  8
USP-TXT
100
AcDbText
 10
-0.4389465502849026
 20
-0.8728092588531968
 30
0.0
 40
0.25
  1
TFL2514 - SIDE VIEW
 72
     1
 11
1.852720116381764
 21
-0.8728092588531968
 31
0.0
100
AcDbText
  0
ENDBLK
  5
15F
100
AcDbEntity
  8
0
100
AcDbBlockEnd
  0
ENDSEC
  0
SECTION
  2
ENTITIES
  0
INSERT
  5
3
100
AcDbEntity
  8
USP
100
AcDbBlockReference
  2
TFL2514PR_T
 10
-0.0017714680187027
 20
18.42441709341516
 30
0.0
  0
INSERT
  5
96
100
AcDbEntity
  8
USP
100
AcDbBlockReference
  2
TFL2514PR_F
 10
-0.002770161193243
 20
1.478806272850238
 30
0.0
  0
INSERT
  5
111
100
AcDbEntity
  8
USP
100
AcDbBlockReference
  2
TFL2514PR_S
 10
10.29785345023685
 20
1.478806272850238
 30
0.0
  0
ENDSEC
  0
SECTION
  2
OBJECTS
  0
DICTIONARY
  5
177
100
AcDbDictionary
  3
ACAD_GROUP
350
175
  3
ACAD_MLINESTYLE
350
176
  0
DICTIONARY
  5
9
100
AcDbDictionary
280
     1
  3
ACAD_XREC_ROUNDTRIP
360
A
  0
DICTIONARY
  5
90
100
AcDbDictionary
280
     1
  3
ACAD_XREC_ROUNDTRIP
360
91
  0
DICTIONARY
  5
17A
100
AcDbDictionary
280
     1
  3
ACAD_XREC_ROUNDTRIP
360
17B
  0
DICTIONARY
  5
160
100
AcDbDictionary
280
     1
  3
ACAD_LAYOUTSELFREF
360
161
  0
DICTIONARY
  5
165
100
AcDbDictionary
280
     1
  3
ACAD_LAYOUTSELFREF
360
166
  0
DICTIONARY
  5
175
102
{ACAD_REACTORS
330
177
102
}
100
AcDbDictionary
  0
DICTIONARY
  5
176
102
{ACAD_REACTORS
330
177
102
}
100
AcDbDictionary
  3
STANDARD
350
178
  0
XRECORD
  5
A
102
{ACAD_REACTORS
330
9
102
}
100
AcDbXrecord
102
EXTNAMES
  1
USP-GEO
  2
USP-Geo
  0
XRECORD
  5
91
102
{ACAD_REACTORS
330
90
102
}
100
AcDbXrecord
102
EXTNAMES
  1
USP-TXT
  2
USP-Txt
  0
XRECORD
  5
17B
102
{ACAD_REACTORS
330
17A
102
}
100
AcDbXrecord
102
ACADR14ROUNDTRIP
1000
DSTYLE
1002
{
1070
   276
 70
     2
1070
   277
 70
     5
1002
}
  0
XRECORD
  5
161
102
{ACAD_REACTORS
330
160
102
}
100
AcDbXrecord
340
2
  0
XRECORD
  5
166
102
{ACAD_REACTORS
330
165
102
}
100
AcDbXrecord
340
0
  0
MLINESTYLE
  5
178
102
{ACAD_REACTORS
330
176
102
}
100
AcDbMlineStyle
  2
STANDARD
 70
     0
  3

 62
     0
 51
90.0
 52
90.0
 71
     2
 49
0.5
 62
   256
  6
BYLAYER
 49
-0.5
 62
   256
  6
BYLAYER
  0
ENDSEC
  0
EOF
