  0
SECTION
  2
HEADER
  9
$ACADVER
  1
AC1014
  9
$ACADMAINTVER
 70
     8
  9
$DWGCODEPAGE
  3
ANSI_1252
  9
$INSBASE
 10
0.0
 20
0.0
 30
0.0
  9
$EXTMIN
 10
0.0015477833445077
 20
0.0003155678464299
 30
0.0
  9
$EXTMAX
 10
14.42278225993698
 20
20.69426672515121
 30
0.0
  9
$LIMMIN
 10
0.0
 20
0.0
  9
$LIMMAX
 10
12.0
 20
9.0
  9
$ORTHOMODE
 70
     0
  9
$REGENMODE
 70
     1
  9
$FILLMODE
 70
     1
  9
$QTEXTMODE
 70
     0
  9
$MIRRTEXT
 70
     0
  9
$DRAGMODE
 70
     2
  9
$LTSCALE
 40
1.5
  9
$OSMODE
 70
     0
  9
$ATTMODE
 70
     1
  9
$TEXTSIZE
 40
0.25
  9
$TRACEWID
 40
0.05
  9
$TEXTSTYLE
  7
STANDARD
  9
$CLAYER
  8
USP
  9
$CELTYPE
  6
BYLAYER
  9
$CECOLOR
 62
   256
  9
$CELTSCALE
 40
1.0
  9
$DELOBJ
 70
     1
  9
$DISPSILH
 70
     1
  9
$DIMSCALE
 40
5.0
  9
$DIMASZ
 40
0.125
  9
$DIMEXO
 40
0.0625
  9
$DIMDLI
 40
0.38
  9
$DIMRND
 40
0.0
  9
$DIMDLE
 40
0.0
  9
$DIMEXE
 40
0.09375
  9
$DIMTP
 40
0.0
  9
$DIMTM
 40
0.0
  9
$DIMTXT
 40
0.109375
  9
$DIMCEN
 40
0.0
  9
$DIMTSZ
 40
0.0
  9
$DIMTOL
 70
     0
  9
$DIMLIM
 70
     0
  9
$DIMTIH
 70
     1
  9
$DIMTOH
 70
     1
  9
$DIMSE1
 70
     0
  9
$DIMSE2
 70
     0
  9
$DIMTAD
 70
     0
  9
$DIMZIN
 70
     8
  9
$DIMBLK
  1

  9
$DIMASO
 70
     1
  9
$DIMSHO
 70
     1
  9
$DIMPOST
  1

  9
$DIMAPOST
  1

  9
$DIMALT
 70
     0
  9
$DIMALTD
 70
     2
  9
$DIMALTF
 40
25.4
  9
$DIMLFAC
 40
1.0
  9
$DIMTOFL
 70
     0
  9
$DIMTVP
 40
0.0
  9
$DIMTIX
 70
     0
  9
$DIMSOXD
 70
     0
  9
$DIMSAH
 70
     0
  9
$DIMBLK1
  1

  9
$DIMBLK2
  1

  9
$DIMSTYLE
  2
STANDARD
  9
$DIMCLRD
 70
   256
  9
$DIMCLRE
 70
   256
  9
$DIMCLRT
 70
   256
  9
$DIMTFAC
 40
1.0
  9
$DIMGAP
 40
0.09
  9
$DIMJUST
 70
     0
  9
$DIMSD1
 70
     0
  9
$DIMSD2
 70
     0
  9
$DIMTOLJ
 70
     1
  9
$DIMTZIN
 70
     0
  9
$DIMALTZ
 70
     0
  9
$DIMALTTZ
 70
     0
  9
$DIMFIT
 70
     3
  9
$DIMUPT
 70
     1
  9
$DIMUNIT
 70
     7
  9
$DIMDEC
 70
     4
  9
$DIMTDEC
 70
     4
  9
$DIMALTU
 70
     2
  9
$DIMALTTD
 70
     2
  9
$DIMTXSTY
  7
STANDARD
  9
$DIMAUNIT
 70
     0
  9
$LUNITS
 70
     5
  9
$LUPREC
 70
     6
  9
$SKETCHINC
 40
0.1
  9
$FILLETRAD
 40
0.0
  9
$AUNITS
 70
     0
  9
$AUPREC
 70
     1
  9
$MENU
  1
CUSTOM
  9
$ELEVATION
 40
0.0
  9
$PELEVATION
 40
0.0
  9
$THICKNESS
 40
0.0
  9
$LIMCHECK
 70
     0
  9
$BLIPMODE
 70
     0
  9
$CHAMFERA
 40
0.0
  9
$CHAMFERB
 40
0.0
  9
$CHAMFERC
 40
0.0
  9
$CHAMFERD
 40
0.0
  9
$SKPOLY
 70
     0
  9
$TDCREATE
 40
2451263.621564698
  9
$TDUPDATE
 40
2453025.985568032
  9
$TDINDWG
 40
1.0377486574
  9
$TDUSRTIMER
 40
1.0377486574
  9
$USRTIMER
 70
     1
  9
$ANGBASE
 50
0.0
  9
$ANGDIR
 70
     0
  9
$PDMODE
 70
     0
  9
$PDSIZE
 40
0.0
  9
$PLINEWID
 40
0.0
  9
$COORDS
 70
     2
  9
$SPLFRAME
 70
     0
  9
$SPLINETYPE
 70
     6
  9
$SPLINESEGS
 70
     8
  9
$ATTDIA
 70
     0
  9
$ATTREQ
 70
     0
  9
$HANDLING
 70
     1
  9
$HANDSEED
  5
17D
  9
$SURFTAB1
 70
     6
  9
$SURFTAB2
 70
     6
  9
$SURFTYPE
 70
     6
  9
$SURFU
 70
     6
  9
$SURFV
 70
     6
  9
$UCSNAME
  2

  9
$UCSORG
 10
0.0
 20
0.0
 30
0.0
  9
$UCSXDIR
 10
1.0
 20
0.0
 30
0.0
  9
$UCSYDIR
 10
0.0
 20
1.0
 30
0.0
  9
$PUCSNAME
  2

  9
$PUCSORG
 10
0.0
 20
0.0
 30
0.0
  9
$PUCSXDIR
 10
1.0
 20
0.0
 30
0.0
  9
$PUCSYDIR
 10
0.0
 20
1.0
 30
0.0
  9
$USERI1
 70
     0
  9
$USERI2
 70
     0
  9
$USERI3
 70
     0
  9
$USERI4
 70
     0
  9
$USERI5
 70
     0
  9
$USERR1
 40
0.0
  9
$USERR2
 40
0.0
  9
$USERR3
 40
0.0
  9
$USERR4
 40
0.0
  9
$USERR5
 40
0.0
  9
$WORLDVIEW
 70
     1
  9
$SHADEDGE
 70
     3
  9
$SHADEDIF
 70
    70
  9
$TILEMODE
 70
     1
  9
$MAXACTVP
 70
    16
  9
$PINSBASE
 10
0.0
 20
0.0
 30
0.0
  9
$PLIMCHECK
 70
     0
  9
$PEXTMIN
 10
1.000000000000000E+20
 20
1.000000000000000E+20
 30
1.000000000000000E+20
  9
$PEXTMAX
 10
-1.000000000000000E+20
 20
-1.000000000000000E+20
 30
-1.000000000000000E+20
  9
$PLIMMIN
 10
0.0
 20
0.0
  9
$PLIMMAX
 10
12.0
 20
9.0
  9
$UNITMODE
 70
     0
  9
$VISRETAIN
 70
     0
  9
$PLINEGEN
 70
     0
  9
$PSLTSCALE
 70
     0
  9
$TREEDEPTH
 70
  3020
  9
$PICKSTYLE
 70
     1
  9
$CMLSTYLE
  2
STANDARD
  9
$CMLJUST
 70
     0
  9
$CMLSCALE
 40
1.0
  9
$PROXYGRAPHICS
 70
     1
  9
$MEASUREMENT
 70
     0
  0
ENDSEC
  0
SECTION
  2
CLASSES
  0
CLASS
  1
ACDBDICTIONARYWDFLT
  2
AcDbDictionaryWithDefault
  3
AutoCAD 2000
 90
        0
280
     0
281
     0
  0
CLASS
  1
ACDBPLACEHOLDER
  2
AcDbPlaceHolder
  3
AutoCAD 2000
 90
        0
280
     0
281
     0
  0
CLASS
  1
LAYOUT
  2
AcDbLayout
  3
AutoCAD 2000
 90
        0
280
     0
281
     0
  0
CLASS
  1
DICTIONARYVAR
  2
AcDbDictionaryVar
  3
"AutoCAD"
 90
        0
280
     0
281
     0
  0
CLASS
  1
SORTENTSTABLE
  2
AcDbSortentsTable
  3
"AutoCAD"
 90
        0
280
     0
281
     0
  0
CLASS
  1
LONG_TRANSACTION
  2
AcDbLongTransaction
  3
AutoCAD 2000
 90
        0
280
     0
281
     0
  0
CLASS
  1
LWPOLYLINE
  2
AcDbPolyline
  3
"AutoCAD"
 90
        0
280
     0
281
     1
  0
CLASS
  1
HATCH
  2
AcDbHatch
  3
"ACAD_SEDONA"
 90
        0
280
     0
281
     1
  0
CLASS
  1
XRECORD
  2
AcDbXrecord
  3
"<Built In>"
 90
        0
280
     0
281
     0
  0
CLASS
  1
LONG_TRANSACTION
  2
AcDbLongTransaction
  3
AutoCAD 2000
 90
        0
280
     0
281
     0
  0
CLASS
  1
LWPOLYLINE
  2
AcDbPolyline
  3
"AutoCAD"
 90
        0
280
     0
281
     1
  0
CLASS
  1
HATCH
  2
AcDbHatch
  3
"ACAD_SEDONA"
 90
        0
280
     0
281
     1
  0
CLASS
  1
XRECORD
  2
AcDbXrecord
  3
"<Built In>"
 90
        0
280
     0
281
     0
  0
CLASS
  1
LONG_TRANSACTION
  2
AcDbLongTransaction
  3
AutoCAD 2000
 90
        0
280
     0
281
     0
  0
CLASS
  1
LWPOLYLINE
  2
AcDbPolyline
  3
"AutoCAD"
 90
        0
280
     0
281
     1
  0
CLASS
  1
HATCH
  2
AcDbHatch
  3
"ACAD_SEDONA"
 90
        0
280
     0
281
     1
  0
CLASS
  1
XRECORD
  2
AcDbXrecord
  3
"<Built In>"
 90
        0
280
     0
281
     0
  0
CLASS
  1
LONG_TRANSACTION
  2
AcDbLongTransaction
  3
AutoCAD 2000
 90
        0
280
     0
281
     0
  0
CLASS
  1
LWPOLYLINE
  2
AcDbPolyline
  3
"AutoCAD"
 90
        0
280
     0
281
     1
  0
CLASS
  1
HATCH
  2
AcDbHatch
  3
"ACAD_SEDONA"
 90
        0
280
     0
281
     1
  0
CLASS
  1
XRECORD
  2
AcDbXrecord
  3
"<Built In>"
 90
        0
280
     0
281
     0
  0
CLASS
  1
LONG_TRANSACTION
  2
AcDbLongTransaction
  3
AutoCAD 2000
 90
        0
280
     0
281
     0
  0
CLASS
  1
LWPOLYLINE
  2
AcDbPolyline
  3
"AutoCAD"
 90
        0
280
     0
281
     1
  0
CLASS
  1
HATCH
  2
AcDbHatch
  3
"ACAD_SEDONA"
 90
        0
280
     0
281
     1
  0
CLASS
  1
XRECORD
  2
AcDbXrecord
  3
"<Built In>"
 90
        0
280
     0
281
     0
  0
ENDSEC
  0
SECTION
  2
TABLES
  0
TABLE
  2
VPORT
  5
16E
100
AcDbSymbolTable
 70
     1
  0
VPORT
  5
16F
100
AcDbSymbolTableRecord
100
AcDbViewportTableRecord
  2
*ACTIVE
 70
     0
 10
0.0
 20
0.0
 11
1.0
 21
1.0
 12
2.57047169223405
 22
13.06764284184988
 13
0.0
 23
0.0
 14
1.0
 24
1.0
 15
0.0
 25
0.0
 16
0.0
 26
0.0
 36
1.0
 17
6.990477122535789
 27
0.0866179332331836
 37
-1.949555171770978
 40
26.43762335435811
 41
1.379227053140096
 42
50.0
 43
0.0
 44
0.0
 50
0.0
 51
0.0
 71
     0
 72
   100
 73
     1
 74
     1
 75
     0
 76
     0
 77
     0
 78
     0
  0
ENDTAB
  0
TABLE
  2
LTYPE
  5
169
100
AcDbSymbolTable
 70
     1
  0
LTYPE
  5
16A
100
AcDbSymbolTableRecord
100
AcDbLinetypeTableRecord
  2
BYBLOCK
 70
     0
  3

 72
    65
 73
     0
 40
0.0
  0
LTYPE
  5
16B
100
AcDbSymbolTableRecord
100
AcDbLinetypeTableRecord
  2
BYLAYER
 70
     0
  3

 72
    65
 73
     0
 40
0.0
  0
LTYPE
  5
5
100
AcDbSymbolTableRecord
100
AcDbLinetypeTableRecord
  2
CONTINUOUS
 70
     0
  3
Solid line
 72
    65
 73
     0
 40
0.0
  0
ENDTAB
  0
TABLE
  2
LAYER
  5
167
100
AcDbSymbolTable
 70
     4
  0
LAYER
  5
93
100
AcDbSymbolTableRecord
100
AcDbLayerTableRecord
  2
0
 70
     0
 62
     7
  6
CONTINUOUS
  0
LAYER
  5
8
102
{ACAD_XDICTIONARY
360
9
102
}
100
AcDbSymbolTableRecord
100
AcDbLayerTableRecord
  2
USP-GEO
 70
     0
 62
     7
  6
CONTINUOUS
  0
LAYER
  5
8E
102
{ACAD_XDICTIONARY
360
8F
102
}
100
AcDbSymbolTableRecord
100
AcDbLayerTableRecord
  2
USP-TXT
 70
     0
 62
     7
  6
CONTINUOUS
  0
LAYER
  5
4
100
AcDbSymbolTableRecord
100
AcDbLayerTableRecord
  2
USP
 70
     0
 62
     7
  6
CONTINUOUS
  0
ENDTAB
  0
TABLE
  2
STYLE
  5
168
100
AcDbSymbolTable
 70
     1
  0
STYLE
  5
91
100
AcDbSymbolTableRecord
100
AcDbTextStyleTableRecord
  2
STANDARD
 70
     0
 40
0.0
 41
1.0
 50
0.0
 71
     0
 42
0.25
  3
txt
  4

  0
ENDTAB
  0
TABLE
  2
VIEW
  5
16C
100
AcDbSymbolTable
 70
     0
  0
ENDTAB
  0
TABLE
  2
UCS
  5
16D
100
AcDbSymbolTable
 70
     0
  0
ENDTAB
  0
TABLE
  2
APPID
  5
170
100
AcDbSymbolTable
 70
     1
  0
APPID
  5
5D
100
AcDbSymbolTableRecord
100
AcDbRegAppTableRecord
  2
ACAD
 70
     0
  0
ENDTAB
  0
TABLE
  2
DIMSTYLE
  5
171
100
AcDbSymbolTable
 70
     1
  0
DIMSTYLE
105
177
102
{ACAD_XDICTIONARY
360
178
102
}
100
AcDbSymbolTableRecord
100
AcDbDimStyleTableRecord
  2
STANDARD
 70
     0
  3

  4

  5

  6

  7

 40
1.0
 41
0.125
 42
0.0625
 43
0.38
 44
0.09375
 45
0.0
 46
0.0
 47
0.0
 48
0.0
140
0.109375
141
0.0
142
0.0
143
25.4
144
1.0
145
0.0
146
1.0
147
0.09
 71
     0
 72
     0
 73
     1
 74
     1
 75
     0
 76
     0
 77
     0
 78
     8
170
     0
171
     2
172
     0
173
     0
174
     0
175
     0
176
     0
177
     0
178
     0
270
     7
271
     4
272
     4
273
     2
274
     2
340
91
275
     0
280
     0
281
     0
282
     0
283
     1
284
     0
285
     0
286
     0
287
     3
288
     0
  0
ENDTAB
  0
TABLE
  2
BLOCK_RECORD
  5
1
100
AcDbSymbolTable
 70
     3
  0
BLOCK_RECORD
  5
2
102
{ACAD_XDICTIONARY
360
15E
102
}
100
AcDbSymbolTableRecord
100
AcDbBlockTableRecord
  2
*MODEL_SPACE
  0
BLOCK_RECORD
  5
162
102
{ACAD_XDICTIONARY
360
163
102
}
100
AcDbSymbolTableRecord
100
AcDbBlockTableRecord
  2
*PAPER_SPACE
  0
BLOCK_RECORD
  5
6
100
AcDbSymbolTableRecord
100
AcDbBlockTableRecord
  2
TFL2513PR_T
  0
BLOCK_RECORD
  5
96
100
AcDbSymbolTableRecord
100
AcDbBlockTableRecord
  2
TFL2513PR_F
  0
BLOCK_RECORD
  5
111
100
AcDbSymbolTableRecord
100
AcDbBlockTableRecord
  2
TFL2513PR_S
  0
ENDTAB
  0
ENDSEC
  0
SECTION
  2
BLOCKS
  0
BLOCK
  5
160
100
AcDbEntity
  8
0
100
AcDbBlockBegin
  2
*MODEL_SPACE
 70
     0
 10
0.0
 20
0.0
 30
0.0
  3
*MODEL_SPACE
  1

  0
ENDBLK
  5
161
100
AcDbEntity
  8
0
100
AcDbBlockEnd
  0
BLOCK
  5
165
100
AcDbEntity
 67
     1
  8
0
100
AcDbBlockBegin
  2
*PAPER_SPACE
 70
     0
 10
0.0
 20
0.0
 30
0.0
  3
*PAPER_SPACE
  1

  0
ENDBLK
  5
166
100
AcDbEntity
 67
     1
  8
0
100
AcDbBlockEnd
  0
BLOCK
  5
92
100
AcDbEntity
  8
0
100
AcDbBlockBegin
  2
TFL2513PR_T
 70
     0
 10
0.0
 20
0.0
 30
0.0
  3
TFL2513PR_T
  1

  0
LWPOLYLINE
  5
7
100
AcDbEntity
  8
USP-GEO
100
AcDbPolyline
 90
        2
 70
   128
 43
0.0
 10
6.565304283150481
 20
2.209755149985596
 10
4.645437647238626
 20
2.209755149985596
  0
LWPOLYLINE
  5
B
100
AcDbEntity
  8
USP-GEO
100
AcDbPolyline
 90
        2
 70
   128
 43
0.0
 10
1.90026563318089
 20
2.209755149985596
 10
0.0
 20
2.209755149985596
  0
CIRCLE
  5
C
100
AcDbEntity
  8
USP-GEO
100
AcDbCircle
 10
4.950890800565662
 20
3.396070657048095
 30
0.0
 40
0.09
  0
CIRCLE
  5
D
100
AcDbEntity
  8
USP-GEO
100
AcDbCircle
 10
6.350890800565668
 20
3.196070657048107
 30
0.0
 40
0.09
  0
LWPOLYLINE
  5
E
100
AcDbEntity
  8
USP-GEO
100
AcDbPolyline
 90
        2
 70
   128
 43
0.0
 10
6.565304283150481
 20
3.696336462370865
 10
4.645437647238626
 20
3.696336462370865
  0
LWPOLYLINE
  5
F
100
AcDbEntity
  8
USP-GEO
100
AcDbPolyline
 90
        2
 70
   128
 43
0.0
 10
4.645437647238626
 20
3.696336462370865
 10
4.645437647238626
 20
2.251020418892888
  0
LWPOLYLINE
  5
10
100
AcDbEntity
  8
USP-GEO
100
AcDbPolyline
 90
        2
 70
   128
 43
0.0
 10
4.521641840516744
 20
0.2682242478974111
 10
4.583539743877686
 20
0.2682242478974111
  0
LWPOLYLINE
  5
11
100
AcDbEntity
  8
USP-GEO
100
AcDbPolyline
 90
        2
 70
   128
 43
0.0
 10
4.521641840516744
 20
0.9078359159604687
 10
4.583539743877686
 20
0.9078359159604687
  0
LWPOLYLINE
  5
12
100
AcDbEntity
  8
USP-GEO
100
AcDbPolyline
 90
        2
 70
   128
 43
0.0
 10
4.54227447497039
 20
2.147857246624656
 10
4.583539743877686
 20
2.147857246624656
  0
LWPOLYLINE
  5
13
100
AcDbEntity
  8
USP-GEO
100
AcDbPolyline
 90
        2
 70
   128
 43
0.0
 10
4.521641840516744
 20
0.0
 10
4.583539743877686
 20
0.0
  0
LWPOLYLINE
  5
14
100
AcDbEntity
  8
USP-GEO
100
AcDbPolyline
 90
        2
 70
   128
 43
0.0
 10
2.024061439902773
 20
0.9078359159604687
 10
1.982796170995479
 20
0.9078359159604687
  0
LWPOLYLINE
  5
15
100
AcDbEntity
  8
USP-GEO
100
AcDbPolyline
 90
        2
 70
   128
 43
0.0
 10
2.024061439902773
 20
0.2682242478974111
 10
1.982796170995479
 20
0.2682242478974111
  0
LWPOLYLINE
  5
16
100
AcDbEntity
  8
USP-GEO
100
AcDbPolyline
 90
        2
 70
   128
 43
0.0
 10
2.024061439902773
 20
0.0
 10
1.982796170995479
 20
0.0
  0
LWPOLYLINE
  5
17
100
AcDbEntity
  8
USP-GEO
100
AcDbPolyline
 90
        2
 70
   128
 43
0.0
 10
1.90026563318089
 20
2.147857246624656
 10
1.982796170995479
 20
2.147857246624656
  0
LWPOLYLINE
  5
18
100
AcDbEntity
  8
USP-GEO
100
AcDbPolyline
 90
        2
 70
   128
 43
0.0
 10
1.90026563318089
 20
2.209755149985596
 10
1.941530902088183
 20
2.209755149985596
  0
LWPOLYLINE
  5
19
100
AcDbEntity
  8
USP-GEO
100
AcDbPolyline
 90
        2
 70
   128
 43
0.0
 10
1.982796170995479
 20
2.189122515531948
 10
1.982796170995479
 20
2.147857246624656
  0
LWPOLYLINE
  5
1A
100
AcDbEntity
  8
USP-GEO
100
AcDbPolyline
 90
        2
 70
   128
 43
0.0
 10
1.982796170995479
 20
2.147857246624656
 10
2.024061439902773
 20
2.147857246624656
  0
LWPOLYLINE
  5
1B
100
AcDbEntity
  8
USP-GEO
100
AcDbPolyline
 90
        2
 70
   128
 43
0.0
 10
2.024061439902773
 20
2.127224612171008
 10
2.024061439902773
 20
2.147857246624656
  0
ARC
  5
1C
100
AcDbEntity
  8
USP-GEO
100
AcDbCircle
 10
1.937824200983275
 20
2.106070657048075
 30
0.0
 40
0.09
100
AcDbArc
 50
25.85268883480717
 51
61.56478110536946
  0
LWPOLYLINE
  5
1D
100
AcDbEntity
  8
USP-GEO
100
AcDbPolyline
 90
        2
 70
   128
 43
0.0
 10
1.982796170995479
 20
2.189122515531948
 10
1.941530902088183
 20
2.209755149985596
  0
LWPOLYLINE
  5
1E
100
AcDbEntity
  8
USP-GEO
100
AcDbPolyline
 90
        2
 70
   128
 43
0.0
 10
2.024061439902773
 20
2.105560345994678
 10
2.024061439902773
 20
2.127224612171008
  0
LWPOLYLINE
  5
1F
100
AcDbEntity
  8
USP-GEO
100
AcDbPolyline
 90
        2
 70
   128
 43
0.0
 10
1.982796170995479
 20
2.127224612171008
 10
1.982796170995479
 20
2.105560345994678
  0
LWPOLYLINE
  5
20
100
AcDbEntity
  8
USP-GEO
100
AcDbPolyline
 90
        2
 70
   128
 43
0.0
 10
1.941530902088183
 20
2.147857246624656
 10
1.982796170995479
 20
2.127224612171008
  0
CIRCLE
  5
21
100
AcDbEntity
  8
USP-GEO
100
AcDbCircle
 10
0.2047576014010737
 20
3.19607065704805
 30
0.0
 40
0.09
  0
CIRCLE
  5
22
100
AcDbEntity
  8
USP-GEO
100
AcDbCircle
 10
1.604757601401079
 20
3.396070657048039
 30
0.0
 40
0.09
  0
LWPOLYLINE
  5
23
100
AcDbEntity
  8
USP-GEO
100
AcDbPolyline
 90
        2
 70
   128
 43
0.0
 10
0.0
 20
3.696336462370865
 10
0.0
 20
2.251020418892888
  0
LWPOLYLINE
  5
24
100
AcDbEntity
  8
USP-GEO
100
AcDbPolyline
 90
        2
 70
   128
 43
0.0
 10
0.0
 20
3.696336462370865
 10
1.90026563318089
 20
3.696336462370865
  0
LWPOLYLINE
  5
25
100
AcDbEntity
  8
USP-GEO
100
AcDbPolyline
 90
        2
 70
   128
 43
0.0
 10
1.90026563318089
 20
3.696336462370865
 10
1.90026563318089
 20
2.251020418892888
  0
LWPOLYLINE
  5
26
100
AcDbEntity
  8
USP-GEO
100
AcDbPolyline
 90
        2
 70
   128
 43
0.0
 10
1.90026563318089
 20
2.251020418892888
 10
1.90026563318089
 20
2.147857246624656
  0
LWPOLYLINE
  5
27
100
AcDbEntity
  8
USP-GEO
100
AcDbPolyline
 90
        2
 70
   128
 43
0.0
 10
1.90026563318089
 20
2.147857246624656
 10
0.0
 20
2.147857246624656
  0
LWPOLYLINE
  5
28
100
AcDbEntity
  8
USP-GEO
100
AcDbPolyline
 90
        2
 70
   128
 43
0.0
 10
0.0
 20
2.147857246624656
 10
0.0
 20
2.251020418892888
  0
LWPOLYLINE
  5
29
100
AcDbEntity
  8
USP-GEO
100
AcDbPolyline
 90
        2
 70
   128
 43
0.0
 10
4.583539743877686
 20
2.189122515531948
 10
4.583539743877686
 20
2.147857246624656
  0
LWPOLYLINE
  5
2A
100
AcDbEntity
  8
USP-GEO
100
AcDbPolyline
 90
        2
 70
   128
 43
0.0
 10
4.62480501278498
 20
2.209755149985596
 10
4.583539743877686
 20
2.189122515531948
  0
ARC
  5
2B
100
AcDbEntity
  8
USP-GEO
100
AcDbCircle
 10
4.617824200983267
 20
2.106070657048103
 30
0.0
 40
0.09
100
AcDbArc
 50
112.4312182775299
 51
151.0529976563832
  0
LWPOLYLINE
  5
2C
100
AcDbEntity
  8
USP-GEO
100
AcDbPolyline
 90
        2
 70
   128
 43
0.0
 10
4.54227447497039
 20
2.147857246624656
 10
4.521641840516744
 20
2.127224612171008
  0
LWPOLYLINE
  5
2D
100
AcDbEntity
  8
USP-GEO
100
AcDbPolyline
 90
        2
 70
   128
 43
0.0
 10
4.521641840516744
 20
2.127224612171008
 10
4.521641840516744
 20
2.105560345994678
  0
LWPOLYLINE
  5
2E
100
AcDbEntity
  8
USP-GEO
100
AcDbPolyline
 90
        2
 70
   128
 43
0.0
 10
4.583539743877686
 20
2.105560345994678
 10
4.583539743877686
 20
2.127224612171008
  0
LWPOLYLINE
  5
2F
100
AcDbEntity
  8
USP-GEO
100
AcDbPolyline
 90
        2
 70
   128
 43
0.0
 10
4.583539743877686
 20
2.127224612171008
 10
4.62480501278498
 20
2.147857246624656
  0
LWPOLYLINE
  5
30
100
AcDbEntity
  8
USP-GEO
100
AcDbPolyline
 90
        2
 70
   128
 43
0.0
 10
4.62480501278498
 20
2.209755149985596
 10
4.645437647238626
 20
2.209755149985596
  0
LWPOLYLINE
  5
31
100
AcDbEntity
  8
USP-GEO
100
AcDbPolyline
 90
        2
 70
   128
 43
0.0
 10
4.583539743877686
 20
2.147857246624656
 10
4.645437647238626
 20
2.147857246624656
  0
LWPOLYLINE
  5
32
100
AcDbEntity
  8
USP-GEO
100
AcDbPolyline
 90
        2
 70
   128
 43
0.0
 10
6.565304283150481
 20
3.696336462370865
 10
6.565304283150481
 20
2.251020418892888
  0
LWPOLYLINE
  5
33
100
AcDbEntity
  8
USP-GEO
100
AcDbPolyline
 90
        2
 70
   128
 43
0.0
 10
6.565304283150481
 20
2.147857246624656
 10
4.645437647238626
 20
2.147857246624656
  0
LWPOLYLINE
  5
34
100
AcDbEntity
  8
USP-GEO
100
AcDbPolyline
 90
        2
 70
   128
 43
0.0
 10
4.645437647238626
 20
2.147857246624656
 10
4.645437647238626
 20
2.251020418892888
  0
LWPOLYLINE
  5
35
100
AcDbEntity
  8
USP-GEO
100
AcDbPolyline
 90
        2
 70
   128
 43
0.0
 10
6.565304283150481
 20
2.251020418892888
 10
6.565304283150481
 20
2.147857246624656
  0
LWPOLYLINE
  5
36
100
AcDbEntity
  8
USP-GEO
100
AcDbPolyline
 90
        2
 70
   128
 43
0.0
 10
1.982796170995479
 20
1.940499270365503
 10
1.982796170995479
 20
2.105560345994678
  0
LWPOLYLINE
  5
37
100
AcDbEntity
  8
USP-GEO
100
AcDbPolyline
 90
        2
 70
   128
 43
0.0
 10
1.982796170995479
 20
1.032663354405034
 10
1.982796170995479
 20
1.940499270365503
  0
LWPOLYLINE
  5
38
100
AcDbEntity
  8
USP-GEO
100
AcDbPolyline
 90
        2
 70
   128
 43
0.0
 10
1.982796170995479
 20
0.9078359159604687
 10
1.982796170995479
 20
1.032663354405034
  0
LWPOLYLINE
  5
39
100
AcDbEntity
  8
USP-GEO
100
AcDbPolyline
 90
        2
 70
   128
 43
0.0
 10
1.982796170995479
 20
0.9078359159604687
 10
1.982796170995479
 20
0.8872032815068244
  0
LWPOLYLINE
  5
3A
100
AcDbEntity
  8
USP-GEO
100
AcDbPolyline
 90
        2
 70
   128
 43
0.0
 10
1.982796170995479
 20
0.2682242478974111
 10
1.982796170995479
 20
0.8872032815068244
  0
LWPOLYLINE
  5
3B
100
AcDbEntity
  8
USP-GEO
100
AcDbPolyline
 90
        2
 70
   128
 43
0.0
 10
1.982796170995479
 20
0.2682242478974111
 10
1.982796170995479
 20
0.1444284411755312
  0
LWPOLYLINE
  5
3C
100
AcDbEntity
  8
USP-GEO
100
AcDbPolyline
 90
        2
 70
   128
 43
0.0
 10
1.982796170995479
 20
0.1444284411755312
 10
1.982796170995479
 20
0.1237958067218834
  0
LWPOLYLINE
  5
3D
100
AcDbEntity
  8
USP-GEO
100
AcDbPolyline
 90
        2
 70
   128
 43
0.0
 10
1.982796170995479
 20
0.0
 10
1.982796170995479
 20
0.1237958067218834
  0
LWPOLYLINE
  5
3E
100
AcDbEntity
  8
USP-GEO
100
AcDbPolyline
 90
        2
 70
   128
 43
0.0
 10
2.024061439902773
 20
0.1237958067218834
 10
2.024061439902773
 20
0.0
  0
LWPOLYLINE
  5
3F
100
AcDbEntity
  8
USP-GEO
100
AcDbPolyline
 90
        2
 70
   128
 43
0.0
 10
2.024061439902773
 20
0.1444284411755312
 10
2.024061439902773
 20
0.1237958067218834
  0
LWPOLYLINE
  5
40
100
AcDbEntity
  8
USP-GEO
100
AcDbPolyline
 90
        2
 70
   128
 43
0.0
 10
2.024061439902773
 20
0.2682242478974111
 10
2.024061439902773
 20
0.1444284411755312
  0
LWPOLYLINE
  5
41
100
AcDbEntity
  8
USP-GEO
100
AcDbPolyline
 90
        2
 70
   128
 43
0.0
 10
2.024061439902773
 20
0.8872032815068244
 10
2.024061439902773
 20
0.2682242478974111
  0
LWPOLYLINE
  5
42
100
AcDbEntity
  8
USP-GEO
100
AcDbPolyline
 90
        2
 70
   128
 43
0.0
 10
2.024061439902773
 20
0.9078359159604687
 10
2.024061439902773
 20
0.8872032815068244
  0
LWPOLYLINE
  5
43
100
AcDbEntity
  8
USP-GEO
100
AcDbPolyline
 90
        2
 70
   128
 43
0.0
 10
2.024061439902773
 20
1.032663354405034
 10
2.024061439902773
 20
0.9078359159604687
  0
LWPOLYLINE
  5
44
100
AcDbEntity
  8
USP-GEO
100
AcDbPolyline
 90
        2
 70
   128
 43
0.0
 10
2.024061439902773
 20
1.940499270365503
 10
2.024061439902773
 20
1.032663354405034
  0
LWPOLYLINE
  5
45
100
AcDbEntity
  8
USP-GEO
100
AcDbPolyline
 90
        2
 70
   128
 43
0.0
 10
2.024061439902773
 20
2.105560345994678
 10
2.024061439902773
 20
1.940499270365503
  0
LWPOLYLINE
  5
46
100
AcDbEntity
  8
USP-GEO
100
AcDbPolyline
 90
        2
 70
   128
 43
0.0
 10
2.065326708810067
 20
0.0
 10
2.024061439902773
 20
0.0
  0
LWPOLYLINE
  5
47
100
AcDbEntity
  8
USP-GEO
100
AcDbPolyline
 90
        2
 70
   128
 43
0.0
 10
2.065326708810067
 20
0.0
 10
4.480376571609451
 20
0.0
  0
LWPOLYLINE
  5
48
100
AcDbEntity
  8
USP-GEO
100
AcDbPolyline
 90
        2
 70
   128
 43
0.0
 10
2.911264721409594
 20
0.5158158613411779
 10
3.035060528131475
 20
0.3713874201656466
  0
LWPOLYLINE
  5
49
100
AcDbEntity
  8
USP-GEO
100
AcDbPolyline
 90
        2
 70
   128
 43
0.0
 10
2.766836280234064
 20
0.3713874201656466
 10
2.911264721409594
 20
0.5158158613411779
  0
LWPOLYLINE
  5
4A
100
AcDbEntity
  8
USP-GEO
100
AcDbPolyline
 90
        2
 70
   128
 43
0.0
 10
2.911264721409594
 20
0.2475916134437632
 10
2.766836280234064
 20
0.3713874201656466
  0
LWPOLYLINE
  5
4B
100
AcDbEntity
  8
USP-GEO
100
AcDbPolyline
 90
        2
 70
   128
 43
0.0
 10
3.035060528131475
 20
0.3713874201656466
 10
2.911264721409594
 20
0.2475916134437632
  0
LWPOLYLINE
  5
4C
100
AcDbEntity
  8
USP-GEO
100
AcDbPolyline
 90
        2
 70
   128
 43
0.0
 10
3.65507119346357
 20
0.5158158613411779
 10
3.778867000185451
 20
0.3713874201656466
  0
LWPOLYLINE
  5
4D
100
AcDbEntity
  8
USP-GEO
100
AcDbPolyline
 90
        2
 70
   128
 43
0.0
 10
3.530243755019006
 20
0.3713874201656466
 10
3.65507119346357
 20
0.5158158613411779
  0
LWPOLYLINE
  5
4E
100
AcDbEntity
  8
USP-GEO
100
AcDbPolyline
 90
        2
 70
   128
 43
0.0
 10
3.65507119346357
 20
0.2475916134437632
 10
3.530243755019006
 20
0.3713874201656466
  0
LWPOLYLINE
  5
4F
100
AcDbEntity
  8
USP-GEO
100
AcDbPolyline
 90
        2
 70
   128
 43
0.0
 10
3.778867000185451
 20
0.3713874201656466
 10
3.65507119346357
 20
0.2475916134437632
  0
LWPOLYLINE
  5
50
100
AcDbEntity
  8
USP-GEO
100
AcDbPolyline
 90
        2
 70
   128
 43
0.0
 10
4.521641840516744
 20
0.0
 10
4.480376571609451
 20
0.0
  0
LWPOLYLINE
  5
51
100
AcDbEntity
  8
USP-GEO
100
AcDbPolyline
 90
        2
 70
   128
 43
0.0
 10
4.480376571609451
 20
2.002397173726443
 10
4.521641840516744
 20
2.002397173726443
  0
LWPOLYLINE
  5
52
100
AcDbEntity
  8
USP-GEO
100
AcDbPolyline
 90
        2
 70
   128
 43
0.0
 10
4.480376571609451
 20
2.002397173726443
 10
2.065326708810067
 20
2.002397173726443
  0
LWPOLYLINE
  5
53
100
AcDbEntity
  8
USP-GEO
100
AcDbPolyline
 90
        2
 70
   128
 43
0.0
 10
2.024061439902773
 20
2.002397173726443
 10
2.065326708810067
 20
2.002397173726443
  0
LWPOLYLINE
  5
54
100
AcDbEntity
  8
USP-GEO
100
AcDbPolyline
 90
        2
 70
   128
 43
0.0
 10
4.583539743877686
 20
0.1237958067218834
 10
4.583539743877686
 20
0.0
  0
LWPOLYLINE
  5
55
100
AcDbEntity
  8
USP-GEO
100
AcDbPolyline
 90
        2
 70
   128
 43
0.0
 10
4.583539743877686
 20
0.1444284411755312
 10
4.583539743877686
 20
0.1237958067218834
  0
LWPOLYLINE
  5
56
100
AcDbEntity
  8
USP-GEO
100
AcDbPolyline
 90
        2
 70
   128
 43
0.0
 10
4.583539743877686
 20
0.1444284411755312
 10
4.583539743877686
 20
0.2682242478974111
  0
LWPOLYLINE
  5
57
100
AcDbEntity
  8
USP-GEO
100
AcDbPolyline
 90
        2
 70
   128
 43
0.0
 10
4.583539743877686
 20
0.2682242478974111
 10
4.583539743877686
 20
0.8872032815068244
  0
LWPOLYLINE
  5
58
100
AcDbEntity
  8
USP-GEO
100
AcDbPolyline
 90
        2
 70
   128
 43
0.0
 10
4.583539743877686
 20
0.8872032815068244
 10
4.583539743877686
 20
0.9078359159604687
  0
LWPOLYLINE
  5
59
100
AcDbEntity
  8
USP-GEO
100
AcDbPolyline
 90
        2
 70
   128
 43
0.0
 10
4.583539743877686
 20
1.032663354405034
 10
4.583539743877686
 20
0.9078359159604687
  0
LWPOLYLINE
  5
5A
100
AcDbEntity
  8
USP-GEO
100
AcDbPolyline
 90
        2
 70
   128
 43
0.0
 10
4.583539743877686
 20
1.032663354405034
 10
4.583539743877686
 20
1.940499270365503
  0
LWPOLYLINE
  5
5B
100
AcDbEntity
  8
USP-GEO
100
AcDbPolyline
 90
        2
 70
   128
 43
0.0
 10
4.583539743877686
 20
2.105560345994678
 10
4.583539743877686
 20
1.940499270365503
  0
ELLIPSE
  5
5C
100
AcDbEntity
  8
USP-GEO
  6
CONTINUOUS
100
AcDbEllipse
 10
4.695776575184996
 20
0.4986061210760333
 30
0.0
 11
0.0
 21
-0.078000000000003
 31
0.0
210
0.0
220
0.0
230
1.0
 40
0.7071067811865475
 41
0.8104449866907229
 42
6.528404007877922
1001
ACAD
1000
RTLwPs
1070
   128
  0
ELLIPSE
  5
5E
100
AcDbEntity
  8
USP-GEO
  6
CONTINUOUS
100
AcDbEllipse
 10
4.695776575184996
 20
0.4986061210760333
 30
0.0
 11
0.0
 21
-0.078000000000003
 31
0.0
210
0.0
220
0.0
230
1.0
 40
0.7071067811865475
 41
2.937820024259589
 42
8.747905588260568
1001
ACAD
1000
RTLwPs
1070
   128
  0
ELLIPSE
  5
5F
100
AcDbEntity
  8
USP-GEO
  6
CONTINUOUS
100
AcDbEllipse
 10
4.695776575184996
 20
0.4986061210760333
 30
0.0
 11
0.0
 21
-0.078000000000003
 31
0.0
210
0.0
220
0.0
230
1.0
 40
0.7071067811865475
 41
1.259272996452223
 42
7.077868330371472
1001
ACAD
1000
RTLwPs
1070
   128
  0
ELLIPSE
  5
60
100
AcDbEntity
  8
USP-GEO
  6
CONTINUOUS
100
AcDbEllipse
 10
4.695776575184996
 20
0.4986061210760333
 30
0.0
 11
0.0
 21
-0.078000000000003
 31
0.0
210
0.0
220
0.0
230
1.0
 40
0.7071067811865475
 41
2.480067521999394
 42
8.322862715892666
1001
ACAD
1000
RTLwPs
1070
   128
  0
ELLIPSE
  5
61
100
AcDbEntity
  8
USP-GEO
  6
CONTINUOUS
100
AcDbEllipse
 10
4.695776575184996
 20
0.4986061210760333
 30
0.0
 11
0.0
 21
-0.078000000000003
 31
0.0
210
0.0
220
0.0
230
1.0
 40
0.7071067811865475
 41
2.031925345162038
 42
7.548057029058486
1001
ACAD
1000
RTLwPs
1070
   128
  0
ELLIPSE
  5
62
100
AcDbEntity
  8
USP-GEO
  6
CONTINUOUS
100
AcDbEllipse
 10
4.734124952314903
 20
0.4986061210760333
 30
0.0
 11
0.0
 21
-0.078000000000003
 31
0.0
210
0.0
220
0.0
230
1.0
 40
0.7071067811865475
 41
4.189193065708935
 42
5.310358652179575
1001
ACAD
1000
RTLwPs
1070
   128
  0
ELLIPSE
  5
63
100
AcDbEntity
  8
USP-GEO
  6
CONTINUOUS
100
AcDbEllipse
 10
4.734124952314903
 20
0.4986061210760333
 30
0.0
 11
0.0
 21
-0.078000000000003
 31
0.0
210
0.0
220
0.0
230
1.0
 40
0.7071067811865475
 41
5.300166908635587
 42
5.774477887798327
1001
ACAD
1000
RTLwPs
1070
   128
  0
ELLIPSE
  5
64
100
AcDbEntity
  8
USP-GEO
  6
CONTINUOUS
100
AcDbEllipse
 10
4.734124952314903
 20
0.4986061210760333
 30
0.0
 11
0.0
 21
-0.078000000000003
 31
0.0
210
0.0
220
0.0
230
1.0
 40
0.7071067811865475
 41
4.198659687157461
 42
9.856307584067003
1001
ACAD
1000
RTLwPs
1070
   128
  0
ELLIPSE
  5
65
100
AcDbEntity
  8
USP-GEO
  6
CONTINUOUS
100
AcDbEllipse
 10
4.734124952314903
 20
0.4986061210760333
 30
0.0
 11
0.0
 21
-0.078000000000003
 31
0.0
210
0.0
220
0.0
230
1.0
 40
0.7071067811865475
 41
5.757602972423045
 42
6.172676744415268
1001
ACAD
1000
RTLwPs
1070
   128
  0
ELLIPSE
  5
66
100
AcDbEntity
  8
USP-GEO
  6
CONTINUOUS
100
AcDbEllipse
 10
4.734124952314903
 20
0.4986061210760333
 30
0.0
 11
0.0
 21
-0.078000000000003
 31
0.0
210
0.0
220
0.0
230
1.0
 40
0.7071067811865475
 41
3.588231437095604
 42
9.516145315054911
1001
ACAD
1000
RTLwPs
1070
   128
  0
ELLIPSE
  5
67
100
AcDbEntity
  8
USP-GEO
  6
CONTINUOUS
100
AcDbEllipse
 10
4.734124952314903
 20
0.4986061210760333
 30
0.0
 11
0.0
 21
-0.078000000000003
 31
0.0
210
0.0
220
0.0
230
1.0
 40
0.7071067811865475
 41
6.150670716031251
 42
6.607101818703213
1001
ACAD
1000
RTLwPs
1070
   128
  0
ELLIPSE
  5
68
100
AcDbEntity
  8
USP-GEO
  6
CONTINUOUS
100
AcDbEllipse
 10
4.734124952314903
 20
0.4986061210760333
 30
0.0
 11
0.0
 21
-0.078000000000003
 31
0.0
210
0.0
220
0.0
230
1.0
 40
0.7071067811865475
 41
3.251216414879759
 42
9.154340856749417
1001
ACAD
1000
RTLwPs
1070
   128
  0
ELLIPSE
  5
69
100
AcDbEntity
  8
USP-GEO
  6
CONTINUOUS
100
AcDbEllipse
 10
4.734124952314903
 20
0.4986061210760333
 30
0.0
 11
0.0
 21
-0.078000000000003
 31
0.0
210
0.0
220
0.0
230
1.0
 40
0.7071067811865475
 41
0.3037105777500411
 42
0.8379552338516889
1001
ACAD
1000
RTLwPs
1070
   128
  0
ELLIPSE
  5
6A
100
AcDbEntity
  8
USP-GEO
  6
CONTINUOUS
100
AcDbEllipse
 10
4.734124952314903
 20
0.4986061210760333
 30
0.0
 11
0.0
 21
-0.078000000000003
 31
0.0
210
0.0
220
0.0
230
1.0
 40
0.7071067811865475
 41
2.888361858893161
 42
8.706488352131895
1001
ACAD
1000
RTLwPs
1070
   128
  0
ELLIPSE
  5
6B
100
AcDbEntity
  8
USP-GEO
  6
CONTINUOUS
100
AcDbEllipse
 10
4.734124952314903
 20
0.4986061210760333
 30
0.0
 11
0.0
 21
-0.078000000000003
 31
0.0
210
0.0
220
0.0
230
1.0
 40
0.7071067811865475
 41
2.437623415600139
 42
8.301543228162461
1001
ACAD
1000
RTLwPs
1070
   128
  0
ELLIPSE
  5
6C
100
AcDbEntity
  8
USP-GEO
  6
CONTINUOUS
100
AcDbEllipse
 10
4.734124952314903
 20
0.4986061210760333
 30
0.0
 11
0.0
 21
-0.078000000000003
 31
0.0
210
0.0
220
0.0
230
1.0
 40
0.7071067811865475
 41
0.8523318030551081
 42
2.011244447307125
1001
ACAD
1000
RTLwPs
1070
   128
  0
ELLIPSE
  5
6D
100
AcDbEntity
  8
USP-GEO
  6
CONTINUOUS
100
AcDbEllipse
 10
1.859871826781546
 20
0.3111061210760049
 30
0.0
 11
0.0
 21
-0.078000000000003
 31
0.0
210
0.0
220
0.0
230
1.0
 40
0.7071067811865475
 41
3.933320426932258
 42
5.336155918647385
1001
ACAD
1000
RTLwPs
1070
   128
  0
ELLIPSE
  5
6E
100
AcDbEntity
  8
USP-GEO
  6
CONTINUOUS
100
AcDbEllipse
 10
1.859871826781546
 20
0.3111061210760049
 30
0.0
 11
0.0
 21
-0.078000000000003
 31
0.0
210
0.0
220
0.0
230
1.0
 40
0.7071067811865475
 41
5.324733252980204
 42
5.836632892661302
1001
ACAD
1000
RTLwPs
1070
   128
  0
ELLIPSE
  5
6F
100
AcDbEntity
  8
USP-GEO
  6
CONTINUOUS
100
AcDbEllipse
 10
1.859871826781546
 20
0.3111061210760049
 30
0.0
 11
0.0
 21
-0.078000000000003
 31
0.0
210
0.0
220
0.0
230
1.0
 40
0.7071067811865475
 41
3.501107061021108
 42
3.921226697817821
1001
ACAD
1000
RTLwPs
1070
   128
  0
ELLIPSE
  5
70
100
AcDbEntity
  8
USP-GEO
  6
CONTINUOUS
100
AcDbEllipse
 10
1.821523449651639
 20
0.3111061210760049
 30
0.0
 11
0.0
 21
-0.078000000000003
 31
0.0
210
0.0
220
0.0
230
1.0
 40
0.7071067811865475
 41
4.15575007580762
 42
5.304778285321251
1001
ACAD
1000
RTLwPs
1070
   128
  0
ELLIPSE
  5
71
100
AcDbEntity
  8
USP-GEO
  6
CONTINUOUS
100
AcDbEllipse
 10
1.821523449651639
 20
0.3111061210760049
 30
0.0
 11
0.0
 21
-0.078000000000003
 31
0.0
210
0.0
220
0.0
230
1.0
 40
0.7071067811865475
 41
3.95467919101361
 42
4.165854367957183
1001
ACAD
1000
RTLwPs
1070
   128
  0
ELLIPSE
  5
72
100
AcDbEntity
  8
USP-GEO
  6
CONTINUOUS
100
AcDbEllipse
 10
1.821523449651639
 20
0.3111061210760049
 30
0.0
 11
0.0
 21
-0.078000000000003
 31
0.0
210
0.0
220
0.0
230
1.0
 40
0.7071067811865475
 41
5.294336753226271
 42
5.785147388792886
1001
ACAD
1000
RTLwPs
1070
   128
  0
ELLIPSE
  5
73
100
AcDbEntity
  8
USP-GEO
  6
CONTINUOUS
100
AcDbEllipse
 10
1.821523449651639
 20
0.3111061210760049
 30
0.0
 11
0.0
 21
-0.078000000000003
 31
0.0
210
0.0
220
0.0
230
1.0
 40
0.7071067811865475
 41
3.545012297753568
 42
3.965973620491433
1001
ACAD
1000
RTLwPs
1070
   128
  0
ELLIPSE
  5
74
100
AcDbEntity
  8
USP-GEO
  6
CONTINUOUS
100
AcDbEllipse
 10
1.821523449651639
 20
0.3111061210760049
 30
0.0
 11
0.0
 21
-0.078000000000003
 31
0.0
210
0.0
220
0.0
230
1.0
 40
0.7071067811865475
 41
5.767589980560148
 42
6.199033046973657
1001
ACAD
1000
RTLwPs
1070
   128
  0
ELLIPSE
  5
75
100
AcDbEntity
  8
USP-GEO
  6
CONTINUOUS
100
AcDbEllipse
 10
1.821523449651639
 20
0.3111061210760049
 30
0.0
 11
0.0
 21
-0.078000000000003
 31
0.0
210
0.0
220
0.0
230
1.0
 40
0.7071067811865475
 41
3.560164647485264
 42
9.490894300674698
1001
ACAD
1000
RTLwPs
1070
   128
  0
ELLIPSE
  5
76
100
AcDbEntity
  8
USP-GEO
  6
CONTINUOUS
100
AcDbEllipse
 10
1.821523449651639
 20
0.3111061210760049
 30
0.0
 11
0.0
 21
-0.078000000000003
 31
0.0
210
0.0
220
0.0
230
1.0
 40
0.7071067811865475
 41
6.176272752401008
 42
6.642003861761022
1001
ACAD
1000
RTLwPs
1070
   128
  0
ELLIPSE
  5
77
100
AcDbEntity
  8
USP-GEO
  6
CONTINUOUS
100
AcDbEllipse
 10
1.821523449651639
 20
0.3111061210760049
 30
0.0
 11
0.0
 21
-0.078000000000003
 31
0.0
210
0.0
220
0.0
230
1.0
 40
0.7071067811865475
 41
3.225637910794799
 42
9.138462714990634
1001
ACAD
1000
RTLwPs
1070
   128
  0
ELLIPSE
  5
78
100
AcDbEntity
  8
USP-GEO
  6
CONTINUOUS
100
AcDbEllipse
 10
1.821523449651639
 20
0.3111061210760049
 30
0.0
 11
0.0
 21
-0.078000000000003
 31
0.0
210
0.0
220
0.0
230
1.0
 40
0.7071067811865475
 41
2.871950018430755
 42
8.703564388880783
1001
ACAD
1000
RTLwPs
1070
   128
  0
ELLIPSE
  5
79
100
AcDbEntity
  8
USP-GEO
  6
CONTINUOUS
100
AcDbEllipse
 10
1.821523449651639
 20
0.3111061210760049
 30
0.0
 11
0.0
 21
-0.078000000000003
 31
0.0
210
0.0
220
0.0
230
1.0
 40
0.7071067811865475
 41
0.3385304617289058
 42
0.8905393796917955
1001
ACAD
1000
RTLwPs
1070
   128
  0
ELLIPSE
  5
7A
100
AcDbEntity
  8
USP-GEO
  6
CONTINUOUS
100
AcDbEllipse
 10
1.821523449651639
 20
0.3111061210760049
 30
0.0
 11
0.0
 21
-0.078000000000003
 31
0.0
210
0.0
220
0.0
230
1.0
 40
0.7071067811865475
 41
0.9037787156860737
 42
2.406891466507227
1001
ACAD
1000
RTLwPs
1070
   128
  0
LWPOLYLINE
  5
7B
100
AcDbEntity
  8
USP-GEO
100
AcDbPolyline
 90
        2
 70
   128
 43
0.0
 10
2.189122515531948
 20
1.13582652667327
 10
2.065326708810067
 20
1.259622333395149
  0
LWPOLYLINE
  5
7C
100
AcDbEntity
  8
USP-GEO
100
AcDbPolyline
 90
        2
 70
   128
 43
0.0
 10
2.065326708810067
 20
0.9903664537750564
 10
2.189122515531948
 20
1.13582652667327
  0
LWPOLYLINE
  5
7D
100
AcDbEntity
  8
USP-GEO
100
AcDbPolyline
 90
        2
 70
   128
 43
0.0
 10
2.024061439902773
 20
0.9903664537750564
 10
2.065326708810067
 20
0.9903664537750564
  0
LWPOLYLINE
  5
7E
100
AcDbEntity
  8
USP-GEO
100
AcDbPolyline
 90
        2
 70
   128
 43
0.0
 10
2.065326708810067
 20
1.259622333395149
 10
2.024061439902773
 20
1.259622333395149
  0
LWPOLYLINE
  5
7F
100
AcDbEntity
  8
USP-GEO
100
AcDbPolyline
 90
        2
 70
   128
 43
0.0
 10
4.521641840516744
 20
1.940499270365503
 10
4.521641840516744
 20
2.105560345994678
  0
LWPOLYLINE
  5
80
100
AcDbEntity
  8
USP-GEO
100
AcDbPolyline
 90
        2
 70
   128
 43
0.0
 10
4.521641840516744
 20
1.032663354405034
 10
4.521641840516744
 20
1.940499270365503
  0
LWPOLYLINE
  5
81
100
AcDbEntity
  8
USP-GEO
100
AcDbPolyline
 90
        2
 70
   128
 43
0.0
 10
4.521641840516744
 20
0.9078359159604687
 10
4.521641840516744
 20
1.032663354405034
  0
LWPOLYLINE
  5
82
100
AcDbEntity
  8
USP-GEO
100
AcDbPolyline
 90
        2
 70
   128
 43
0.0
 10
4.521641840516744
 20
0.8872032815068244
 10
4.521641840516744
 20
0.9078359159604687
  0
LWPOLYLINE
  5
83
100
AcDbEntity
  8
USP-GEO
100
AcDbPolyline
 90
        2
 70
   128
 43
0.0
 10
4.521641840516744
 20
0.2682242478974111
 10
4.521641840516744
 20
0.8872032815068244
  0
LWPOLYLINE
  5
84
100
AcDbEntity
  8
USP-GEO
100
AcDbPolyline
 90
        2
 70
   128
 43
0.0
 10
4.521641840516744
 20
0.1444284411755312
 10
4.521641840516744
 20
0.2682242478974111
  0
LWPOLYLINE
  5
85
100
AcDbEntity
  8
USP-GEO
100
AcDbPolyline
 90
        2
 70
   128
 43
0.0
 10
4.521641840516744
 20
0.1237958067218834
 10
4.521641840516744
 20
0.1444284411755312
  0
LWPOLYLINE
  5
86
100
AcDbEntity
  8
USP-GEO
100
AcDbPolyline
 90
        2
 70
   128
 43
0.0
 10
4.521641840516744
 20
0.0
 10
4.521641840516744
 20
0.1237958067218834
  0
LWPOLYLINE
  5
87
100
AcDbEntity
  8
USP-GEO
100
AcDbPolyline
 90
        2
 70
   128
 43
0.0
 10
4.521641840516744
 20
0.9903664537750564
 10
4.480376571609451
 20
0.9903664537750564
  0
LWPOLYLINE
  5
88
100
AcDbEntity
  8
USP-GEO
100
AcDbPolyline
 90
        2
 70
   128
 43
0.0
 10
4.377213399341215
 20
1.13582652667327
 10
4.480376571609451
 20
1.259622333395149
  0
LWPOLYLINE
  5
89
100
AcDbEntity
  8
USP-GEO
100
AcDbPolyline
 90
        2
 70
   128
 43
0.0
 10
4.480376571609451
 20
0.9903664537750564
 10
4.377213399341215
 20
1.13582652667327
  0
LWPOLYLINE
  5
8A
100
AcDbEntity
  8
USP-GEO
100
AcDbPolyline
 90
        2
 70
   128
 43
0.0
 10
4.480376571609451
 20
1.259622333395149
 10
4.521641840516744
 20
1.259622333395149
  0
ARC
  5
8B
100
AcDbEntity
  8
USP-GEO
100
AcDbCircle
 10
2.027824200983278
 20
0.3111061210760049
 30
0.0
 40
0.3020000000000011
100
AcDbArc
 50
98.32081421077624
 51
261.1883733352356
  0
ARC
  5
8C
100
AcDbEntity
  8
USP-GEO
100
AcDbCircle
 10
4.527824200983264
 20
0.4986061210760333
 30
0.0
 40
0.3020000000000011
100
AcDbArc
 50
280.792470528765
 51
79.68300096420907
  0
TEXT
  5
8D
100
AcDbEntity
  8
USP-TXT
100
AcDbText
 10
1.064518306876425
 20
-1.313974457129569
 30
0.0
 40
0.25
  1
TFL2513 - TOP VIEW
 72
     1
 11
3.272851640209759
 21
-1.313974457129569
 31
0.0
100
AcDbText
  0
ENDBLK
  5
94
100
AcDbEntity
  8
0
100
AcDbBlockEnd
  0
BLOCK
  5
10E
100
AcDbEntity
  8
0
100
AcDbBlockBegin
  2
TFL2513PR_F
 70
     0
 10
0.0
 20
0.0
 30
0.0
  3
TFL2513PR_F
  1

  0
LWPOLYLINE
  5
97
100
AcDbEntity
  8
USP-GEO
100
AcDbPolyline
 90
        2
 70
   128
 43
0.0
 10
1.90026563318089
 20
13.0522045553771
 10
0.0
 20
13.0522045553771
  0
LWPOLYLINE
  5
98
100
AcDbEntity
  8
USP-GEO
100
AcDbPolyline
 90
        2
 70
   128
 43
0.0
 10
6.565304283150481
 20
13.0522045553771
 10
4.645437647238626
 20
13.0522045553771
  0
CIRCLE
  5
99
100
AcDbEntity
  8
USP-GEO
100
AcDbCircle
 10
1.529757601401062
 20
12.05372677644579
 30
0.0
 40
0.09
  0
LWPOLYLINE
  5
9A
100
AcDbEntity
  8
USP-GEO
100
AcDbPolyline
 90
        2
 70
   128
 43
0.0
 10
1.67227502246809
 20
4.833194620766814
 10
1.775438194736326
 20
4.73003144849858
  0
LWPOLYLINE
  5
9B
100
AcDbEntity
  8
USP-GEO
100
AcDbPolyline
 90
        2
 70
   128
 43
0.0
 10
1.548479215746208
 20
4.73003144849858
 10
1.67227502246809
 20
4.833194620766814
  0
LWPOLYLINE
  5
9C
100
AcDbEntity
  8
USP-GEO
100
AcDbPolyline
 90
        2
 70
   128
 43
0.0
 10
1.67227502246809
 20
4.605204010054015
 10
1.548479215746208
 20
4.73003144849858
  0
LWPOLYLINE
  5
9D
100
AcDbEntity
  8
USP-GEO
100
AcDbPolyline
 90
        2
 70
   128
 43
0.0
 10
1.775438194736326
 20
4.73003144849858
 10
1.67227502246809
 20
4.605204010054015
  0
ARC
  5
9E
100
AcDbEntity
  8
USP-GEO
100
AcDbCircle
 10
1.975824200983286
 20
2.194351776445797
 30
0.0
 40
0.125
100
AcDbArc
 50
192.4825501591968
 51
255.1156011996497
  0
LWPOLYLINE
  5
9F
100
AcDbEntity
  8
USP-GEO
100
AcDbPolyline
 90
        2
 70
   128
 43
0.0
 10
1.859000364273596
 20
2.168489881078301
 10
1.238989698941503
 20
5.307745213200696
  0
ARC
  5
A0
100
AcDbEntity
  8
USP-GEO
100
AcDbCircle
 10
1.975824200983314
 20
5.456888625144427
 30
0.0
 40
0.75
100
AcDbArc
 50
180.3566417914808
 51
191.4426979871196
  0
LWPOLYLINE
  5
A1
100
AcDbEntity
  8
USP-GEO
100
AcDbPolyline
 90
        2
 70
   128
 43
0.0
 10
1.218357064487856
 20
11.25613372618713
 10
1.218357064487856
 20
5.452173654376226
  0
ARC
  5
A2
100
AcDbEntity
  8
USP-GEO
100
AcDbCircle
 10
0.7258242009833147
 20
11.24594963151964
 30
0.0
 40
0.5
100
AcDbArc
 50
1.184535185923157
 51
42.70381683822651
  0
LWPOLYLINE
  5
A3
100
AcDbEntity
  8
USP-GEO
100
AcDbPolyline
 90
        2
 70
   128
 43
0.0
 10
1.094561257765974
 20
11.58625587744548
 10
0.1867253418055057
 20
12.59828659739687
  0
ARC
  5
A4
100
AcDbEntity
  8
USP-GEO
100
AcDbCircle
 10
0.0106415399045012
 20
12.42872677644579
 30
0.0
 40
0.25
100
AcDbArc
 50
43.91867759415224
 51
92.417202911701
  0
ARC
  5
A5
100
AcDbEntity
  8
USP-GEO
100
AcDbCircle
 10
0.0106415399045012
 20
12.78461071494923
 30
0.0
 40
0.1058839385034389
100
AcDbArc
 50
264.1461471690431
 51
264.7102518199908
  0
LWPOLYLINE
  5
A6
100
AcDbEntity
  8
USP-GEO
100
AcDbPolyline
 90
        2
 70
   128
 43
0.0
 10
0.0
 20
13.01093928646981
 10
0.0
 20
12.68081713521145
  0
LWPOLYLINE
  5
A7
100
AcDbEntity
  8
USP-GEO
100
AcDbPolyline
 90
        2
 70
   128
 43
0.0
 10
4.521641840516744
 20
2.065326708810069
 10
4.583539743877686
 20
2.065326708810069
  0
LWPOLYLINE
  5
A8
100
AcDbEntity
  8
USP-GEO
100
AcDbPolyline
 90
        2
 70
   128
 43
0.0
 10
4.521641840516744
 20
2.168489881078301
 10
4.583539743877686
 20
2.168489881078301
  0
LWPOLYLINE
  5
A9
100
AcDbEntity
  8
USP-GEO
100
AcDbPolyline
 90
        2
 70
   128
 43
0.0
 10
4.54227447497039
 20
12.68081713521145
 10
4.583539743877686
 20
12.68081713521145
  0
LWPOLYLINE
  5
AA
100
AcDbEntity
  8
USP-GEO
100
AcDbPolyline
 90
        2
 70
   128
 43
0.0
 10
2.065326708810067
 20
0.0
 10
4.480376571609451
 20
0.0
  0
LWPOLYLINE
  5
AB
100
AcDbEntity
  8
USP-GEO
100
AcDbPolyline
 90
        2
 70
   128
 43
0.0
 10
2.024061439902773
 20
2.168489881078301
 10
1.982796170995479
 20
2.168489881078301
  0
LWPOLYLINE
  5
AC
100
AcDbEntity
  8
USP-GEO
100
AcDbPolyline
 90
        2
 70
   128
 43
0.0
 10
2.024061439902773
 20
2.065326708810069
 10
1.982796170995479
 20
2.065326708810069
  0
ARC
  5
AD
100
AcDbEntity
  8
USP-GEO
100
AcDbCircle
 10
2.010641539904501
 20
12.78461071494923
 30
0.0
 40
0.1058839385034389
100
AcDbArc
 50
180.3272389392532
 51
254.9825091586949
  0
LWPOLYLINE
  5
AE
100
AcDbEntity
  8
USP-GEO
100
AcDbPolyline
 90
        2
 70
   128
 43
0.0
 10
1.982796170995479
 20
12.68081713521145
 10
1.941530902088183
 20
12.68081713521145
  0
LWPOLYLINE
  5
AF
100
AcDbEntity
  8
USP-GEO
100
AcDbPolyline
 90
        2
 70
   128
 43
0.0
 10
1.982796170995479
 20
12.68081713521145
 10
2.024061439902773
 20
12.68081713521145
  0
LWPOLYLINE
  5
B0
100
AcDbEntity
  8
USP-GEO
100
AcDbPolyline
 90
        2
 70
   128
 43
0.0
 10
2.024061439902773
 20
12.68081713521145
 10
2.025093071625455
 20
12.68081713521145
  0
LWPOLYLINE
  5
B1
100
AcDbEntity
  8
USP-GEO
100
AcDbPolyline
 90
        2
 70
   128
 43
0.0
 10
2.024061439902773
 20
12.68081713521145
 10
2.025093071625455
 20
12.68081713521145
  0
LWPOLYLINE
  5
B2
100
AcDbEntity
  8
USP-GEO
100
AcDbPolyline
 90
        2
 70
   128
 43
0.0
 10
1.982796170995479
 20
12.68081713521145
 10
1.983827802718161
 20
12.68081713521145
  0
LWPOLYLINE
  5
B3
100
AcDbEntity
  8
USP-GEO
100
AcDbPolyline
 90
        2
 70
   128
 43
0.0
 10
1.982796170995479
 20
2.065326708810069
 10
1.941530902088183
 20
2.065326708810069
  0
LWPOLYLINE
  5
B4
100
AcDbEntity
  8
USP-GEO
100
AcDbPolyline
 90
        2
 70
   128
 43
0.0
 10
1.941530902088183
 20
12.68081713521145
 10
1.982796170995479
 20
12.68081713521145
  0
LWPOLYLINE
  5
B5
100
AcDbEntity
  8
USP-GEO
100
AcDbPolyline
 90
        2
 70
   128
 43
0.0
 10
1.90026563318089
 20
13.01093928646981
 10
1.90026563318089
 20
12.78398030747969
  0
LWPOLYLINE
  5
B6
100
AcDbEntity
  8
USP-GEO
100
AcDbPolyline
 90
        2
 70
   128
 43
0.0
 10
0.0
 20
13.11410245873804
 10
1.90026563318089
 20
13.11410245873804
  0
LWPOLYLINE
  5
B7
100
AcDbEntity
  8
USP-GEO
100
AcDbPolyline
 90
        2
 70
   128
 43
0.0
 10
1.90026563318089
 20
13.11410245873804
 10
1.90026563318089
 20
13.01093928646981
  0
LWPOLYLINE
  5
B8
100
AcDbEntity
  8
USP-GEO
100
AcDbPolyline
 90
        2
 70
   128
 43
0.0
 10
0.0
 20
13.01093928646981
 10
0.0
 20
13.11410245873804
  0
LWPOLYLINE
  5
B9
100
AcDbEntity
  8
USP-GEO
100
AcDbPolyline
 90
        2
 70
   128
 43
0.0
 10
4.54227447497039
 20
12.68081713521145
 10
4.521641840516744
 20
12.68081713521145
  0
LWPOLYLINE
  5
BA
100
AcDbEntity
  8
USP-GEO
100
AcDbPolyline
 90
        2
 70
   128
 43
0.0
 10
4.521641840516744
 20
12.68081713521145
 10
4.522673472239427
 20
12.68081713521145
  0
LWPOLYLINE
  5
BB
100
AcDbEntity
  8
USP-GEO
100
AcDbPolyline
 90
        2
 70
   128
 43
0.0
 10
4.583539743877686
 20
12.68081713521145
 10
4.584571375600368
 20
12.68081713521145
  0
LWPOLYLINE
  5
BC
100
AcDbEntity
  8
USP-GEO
100
AcDbPolyline
 90
        2
 70
   128
 43
0.0
 10
4.583539743877686
 20
12.68081713521145
 10
4.62480501278498
 20
12.68081713521145
  0
LWPOLYLINE
  5
BD
100
AcDbEntity
  8
USP-GEO
100
AcDbPolyline
 90
        2
 70
   128
 43
0.0
 10
4.62480501278498
 20
2.065326708810069
 10
4.583539743877686
 20
2.065326708810069
  0
ARC
  5
BE
100
AcDbEntity
  8
USP-GEO
100
AcDbCircle
 10
6.545006862062269
 20
12.78461071494935
 30
0.0
 40
0.1058839385034389
100
AcDbArc
 50
269.8149572994011
 51
281.0648760387219
  0
ARC
  5
BF
100
AcDbEntity
  8
USP-GEO
100
AcDbCircle
 10
6.545006862062269
 20
12.42872677644591
 30
0.0
 40
0.25
100
AcDbArc
 50
90.07618815669749
 51
137.6517606095496
  0
LWPOLYLINE
  5
C0
100
AcDbEntity
  8
USP-GEO
100
AcDbPolyline
 90
        2
 70
   128
 43
0.0
 10
5.451142022653543
 20
11.58625587744548
 10
6.358977938614012
 20
12.59828659739687
  0
ARC
  5
C1
100
AcDbEntity
  8
USP-GEO
100
AcDbCircle
 10
5.829824200983455
 20
11.24594963151976
 30
0.0
 40
0.5
100
AcDbArc
 50
138.0552571232075
 51
178.8389028337783
  0
LWPOLYLINE
  5
C2
100
AcDbEntity
  8
USP-GEO
100
AcDbPolyline
 90
        2
 70
   128
 43
0.0
 10
5.32734621593166
 20
11.25613372618713
 10
5.32734621593166
 20
5.452173654376226
  0
ARC
  5
C3
100
AcDbEntity
  8
USP-GEO
100
AcDbCircle
 10
4.579824200983455
 20
5.456888625144484
 30
0.0
 40
0.75
100
AcDbArc
 50
348.4049579966424
 51
359.638613528836
  0
LWPOLYLINE
  5
C4
100
AcDbEntity
  8
USP-GEO
100
AcDbPolyline
 90
        2
 70
   128
 43
0.0
 10
4.707335550599568
 20
2.168489881078301
 10
5.306713581478014
 20
5.307745213200696
  0
ARC
  5
C5
100
AcDbEntity
  8
USP-GEO
100
AcDbCircle
 10
4.579824200983484
 20
2.194351776445882
 30
0.0
 40
0.125
100
AcDbArc
 50
289.219613290553
 51
348.5347736560016
  0
LWPOLYLINE
  5
C6
100
AcDbEntity
  8
USP-GEO
100
AcDbPolyline
 90
        2
 70
   128
 43
0.0
 10
4.62480501278498
 20
12.68081713521145
 10
4.583539743877686
 20
12.68081713521145
  0
ARC
  5
C7
100
AcDbEntity
  8
USP-GEO
100
AcDbCircle
 10
4.545006862062269
 20
12.78461071494935
 30
0.0
 40
0.1058839385034389
100
AcDbArc
 50
290.367208557154
 51
359.6403571579497
  0
LWPOLYLINE
  5
C8
100
AcDbEntity
  8
USP-GEO
100
AcDbPolyline
 90
        2
 70
   128
 43
0.0
 10
4.645437647238626
 20
12.78398030747969
 10
4.645437647238626
 20
13.01093928646981
  0
CIRCLE
  5
C9
100
AcDbEntity
  8
USP-GEO
100
AcDbCircle
 10
5.025890800565708
 20
12.05372677644591
 30
0.0
 40
0.09
  0
LWPOLYLINE
  5
CA
100
AcDbEntity
  8
USP-GEO
100
AcDbPolyline
 90
        2
 70
   128
 43
0.0
 10
4.893029260682391
 20
4.605204010054015
 10
4.769233453960509
 20
4.73003144849858
  0
LWPOLYLINE
  5
CB
100
AcDbEntity
  8
USP-GEO
100
AcDbPolyline
 90
        2
 70
   128
 43
0.0
 10
4.996192432950627
 20
4.73003144849858
 10
4.893029260682391
 20
4.605204010054015
  0
LWPOLYLINE
  5
CC
100
AcDbEntity
  8
USP-GEO
100
AcDbPolyline
 90
        2
 70
   128
 43
0.0
 10
4.893029260682391
 20
4.833194620766814
 10
4.996192432950627
 20
4.73003144849858
  0
LWPOLYLINE
  5
CD
100
AcDbEntity
  8
USP-GEO
100
AcDbPolyline
 90
        2
 70
   128
 43
0.0
 10
4.769233453960509
 20
4.73003144849858
 10
4.893029260682391
 20
4.833194620766814
  0
LWPOLYLINE
  5
CE
100
AcDbEntity
  8
USP-GEO
100
AcDbPolyline
 90
        2
 70
   128
 43
0.0
 10
6.565304283150481
 20
12.68081713521145
 10
6.565304283150481
 20
13.01093928646981
  0
LWPOLYLINE
  5
CF
100
AcDbEntity
  8
USP-GEO
100
AcDbPolyline
 90
        2
 70
   128
 43
0.0
 10
4.645437647238626
 20
13.01093928646981
 10
4.645437647238626
 20
13.11410245873804
  0
LWPOLYLINE
  5
D0
100
AcDbEntity
  8
USP-GEO
100
AcDbPolyline
 90
        2
 70
   128
 43
0.0
 10
4.645437647238626
 20
13.11410245873804
 10
6.565304283150481
 20
13.11410245873804
  0
LWPOLYLINE
  5
D1
100
AcDbEntity
  8
USP-GEO
100
AcDbPolyline
 90
        2
 70
   128
 43
0.0
 10
6.565304283150481
 20
13.11410245873804
 10
6.565304283150481
 20
13.01093928646981
  0
LWPOLYLINE
  5
D2
100
AcDbEntity
  8
USP-GEO
100
AcDbPolyline
 90
        2
 70
   128
 43
0.0
 10
1.982796170995479
 20
12.59828659739687
 10
1.982796170995479
 20
12.68081713521145
  0
LWPOLYLINE
  5
D3
100
AcDbEntity
  8
USP-GEO
100
AcDbPolyline
 90
        2
 70
   128
 43
0.0
 10
1.982796170995479
 20
11.58625587744548
 10
1.982796170995479
 20
12.59828659739687
  0
LWPOLYLINE
  5
D4
100
AcDbEntity
  8
USP-GEO
100
AcDbPolyline
 90
        2
 70
   128
 43
0.0
 10
1.982796170995479
 20
11.25613372618713
 10
1.982796170995479
 20
11.58625587744548
  0
LWPOLYLINE
  5
D5
100
AcDbEntity
  8
USP-GEO
100
AcDbPolyline
 90
        2
 70
   128
 43
0.0
 10
1.982796170995479
 20
11.25613372618713
 10
1.982796170995479
 20
5.452173654376226
  0
LWPOLYLINE
  5
D6
100
AcDbEntity
  8
USP-GEO
100
AcDbPolyline
 90
        2
 70
   128
 43
0.0
 10
1.982796170995479
 20
5.452173654376226
 10
1.982796170995479
 20
5.307745213200696
  0
LWPOLYLINE
  5
D7
100
AcDbEntity
  8
USP-GEO
100
AcDbPolyline
 90
        2
 70
   128
 43
0.0
 10
1.982796170995479
 20
2.168489881078301
 10
1.982796170995479
 20
5.307745213200696
  0
LWPOLYLINE
  5
D8
100
AcDbEntity
  8
USP-GEO
100
AcDbPolyline
 90
        2
 70
   128
 43
0.0
 10
1.982796170995479
 20
2.168489881078301
 10
1.982796170995479
 20
2.065326708810069
  0
LWPOLYLINE
  5
D9
100
AcDbEntity
  8
USP-GEO
100
AcDbPolyline
 90
        2
 70
   128
 43
0.0
 10
1.982796170995479
 20
1.941530902088185
 10
1.982796170995479
 20
2.065326708810069
  0
LWPOLYLINE
  5
DA
100
AcDbEntity
  8
USP-GEO
100
AcDbPolyline
 90
        2
 70
   128
 43
0.0
 10
1.982796170995479
 20
1.941530902088185
 10
1.982796170995479
 20
0.0825305378145878
  0
ARC
  5
DB
100
AcDbEntity
  8
USP-GEO
100
AcDbCircle
 10
2.065824200983275
 20
0.0917267764458085
 30
0.0
 40
0.09
100
AcDbArc
 50
186.320355960472
 51
269.6892518904078
  0
LWPOLYLINE
  5
DC
100
AcDbEntity
  8
USP-GEO
100
AcDbPolyline
 90
        2
 70
   128
 43
0.0
 10
2.024061439902773
 20
1.941530902088185
 10
2.024061439902773
 20
0.0825305378145878
  0
LWPOLYLINE
  5
DD
100
AcDbEntity
  8
USP-GEO
100
AcDbPolyline
 90
        2
 70
   128
 43
0.0
 10
2.024061439902773
 20
2.065326708810069
 10
2.024061439902773
 20
1.941530902088185
  0
LWPOLYLINE
  5
DE
100
AcDbEntity
  8
USP-GEO
100
AcDbPolyline
 90
        2
 70
   128
 43
0.0
 10
2.024061439902773
 20
2.168489881078301
 10
2.024061439902773
 20
2.065326708810069
  0
LWPOLYLINE
  5
DF
100
AcDbEntity
  8
USP-GEO
100
AcDbPolyline
 90
        2
 70
   128
 43
0.0
 10
2.024061439902773
 20
5.307745213200696
 10
2.024061439902773
 20
2.168489881078301
  0
LWPOLYLINE
  5
E0
100
AcDbEntity
  8
USP-GEO
100
AcDbPolyline
 90
        2
 70
   128
 43
0.0
 10
2.024061439902773
 20
5.452173654376226
 10
2.024061439902773
 20
5.307745213200696
  0
LWPOLYLINE
  5
E1
100
AcDbEntity
  8
USP-GEO
100
AcDbPolyline
 90
        2
 70
   128
 43
0.0
 10
2.024061439902773
 20
11.25613372618713
 10
2.024061439902773
 20
5.452173654376226
  0
LWPOLYLINE
  5
E2
100
AcDbEntity
  8
USP-GEO
100
AcDbPolyline
 90
        2
 70
   128
 43
0.0
 10
2.024061439902773
 20
11.58625587744548
 10
2.024061439902773
 20
11.25613372618713
  0
LWPOLYLINE
  5
E3
100
AcDbEntity
  8
USP-GEO
100
AcDbPolyline
 90
        2
 70
   128
 43
0.0
 10
2.024061439902773
 20
12.59828659739687
 10
2.024061439902773
 20
11.58625587744548
  0
LWPOLYLINE
  5
E4
100
AcDbEntity
  8
USP-GEO
100
AcDbPolyline
 90
        2
 70
   128
 43
0.0
 10
2.024061439902773
 20
12.68081713521145
 10
2.024061439902773
 20
12.59828659739687
  0
ARC
  5
E5
100
AcDbEntity
  8
USP-GEO
100
AcDbCircle
 10
2.065824200983275
 20
0.0917267764458085
 30
0.0
 40
0.038
100
AcDbArc
 50
192.4184511070202
 51
269.4351480999299
  0
LWPOLYLINE
  5
E6
100
AcDbEntity
  8
USP-GEO
100
AcDbPolyline
 90
        2
 70
   128
 43
0.0
 10
2.065326708810067
 20
0.0412652689072957
 10
4.480376571609451
 20
0.0412652689072957
  0
ARC
  5
E7
100
AcDbEntity
  8
USP-GEO
100
AcDbCircle
 10
4.489824200983523
 20
0.0917267764458085
 30
0.0
 40
0.038
100
AcDbArc
 50
259.3955956328473
 51
343.8791425622103
  0
LWPOLYLINE
  5
E8
100
AcDbEntity
  8
USP-GEO
100
AcDbPolyline
 90
        2
 70
   128
 43
0.0
 10
4.583539743877686
 20
0.0825305378145878
 10
4.583539743877686
 20
1.941530902088185
  0
LWPOLYLINE
  5
E9
100
AcDbEntity
  8
USP-GEO
100
AcDbPolyline
 90
        2
 70
   128
 43
0.0
 10
4.583539743877686
 20
2.065326708810069
 10
4.583539743877686
 20
1.941530902088185
  0
LWPOLYLINE
  5
EA
100
AcDbEntity
  8
USP-GEO
100
AcDbPolyline
 90
        2
 70
   128
 43
0.0
 10
4.583539743877686
 20
2.065326708810069
 10
4.583539743877686
 20
2.168489881078301
  0
LWPOLYLINE
  5
EB
100
AcDbEntity
  8
USP-GEO
100
AcDbPolyline
 90
        2
 70
   128
 43
0.0
 10
4.583539743877686
 20
2.168489881078301
 10
4.583539743877686
 20
5.307745213200696
  0
LWPOLYLINE
  5
EC
100
AcDbEntity
  8
USP-GEO
100
AcDbPolyline
 90
        2
 70
   128
 43
0.0
 10
4.583539743877686
 20
5.307745213200696
 10
4.583539743877686
 20
5.452173654376226
  0
LWPOLYLINE
  5
ED
100
AcDbEntity
  8
USP-GEO
100
AcDbPolyline
 90
        2
 70
   128
 43
0.0
 10
4.583539743877686
 20
11.25613372618713
 10
4.583539743877686
 20
5.452173654376226
  0
LWPOLYLINE
  5
EE
100
AcDbEntity
  8
USP-GEO
100
AcDbPolyline
 90
        2
 70
   128
 43
0.0
 10
4.583539743877686
 20
11.58625587744548
 10
4.583539743877686
 20
11.25613372618713
  0
LWPOLYLINE
  5
EF
100
AcDbEntity
  8
USP-GEO
100
AcDbPolyline
 90
        2
 70
   128
 43
0.0
 10
4.583539743877686
 20
11.58625587744548
 10
4.583539743877686
 20
12.59828659739687
  0
LWPOLYLINE
  5
F0
100
AcDbEntity
  8
USP-GEO
100
AcDbPolyline
 90
        2
 70
   128
 43
0.0
 10
4.583539743877686
 20
12.68081713521145
 10
4.583539743877686
 20
12.59828659739687
  0
ARC
  5
F1
100
AcDbEntity
  8
USP-GEO
100
AcDbCircle
 10
4.489824200983267
 20
0.0917267764458085
 30
0.0
 40
0.09
100
AcDbArc
 50
264.1194137067264
 51
354.3955496015243
  0
LWPOLYLINE
  5
F2
100
AcDbEntity
  8
USP-GEO
100
AcDbPolyline
 90
        2
 70
   128
 43
0.0
 10
4.68670291614592
 20
1.487612944107951
 10
4.789866088414155
 20
1.362785505663385
  0
LWPOLYLINE
  5
F3
100
AcDbEntity
  8
USP-GEO
100
AcDbPolyline
 90
        2
 70
   128
 43
0.0
 10
1.879632998727243
 20
1.487612944107951
 10
1.754805560282679
 20
1.362785505663385
  0
LWPOLYLINE
  5
F4
100
AcDbEntity
  8
USP-GEO
100
AcDbPolyline
 90
        2
 70
   128
 43
0.0
 10
2.065326708810067
 20
0.867602278775859
 10
2.189122515531948
 20
0.7850717409612713
  0
LWPOLYLINE
  5
F5
100
AcDbEntity
  8
USP-GEO
100
AcDbPolyline
 90
        2
 70
   128
 43
0.0
 10
2.147857246624655
 20
0.7438064720539757
 10
2.189122515531948
 20
0.7850717409612713
  0
LWPOLYLINE
  5
F6
100
AcDbEntity
  8
USP-GEO
100
AcDbPolyline
 90
        2
 70
   128
 43
0.0
 10
2.147857246624655
 20
0.7438064720539757
 10
2.044694074356419
 20
0.8057043754149155
  0
LWPOLYLINE
  5
F7
100
AcDbEntity
  8
USP-GEO
100
AcDbPolyline
 90
        2
 70
   128
 43
0.0
 10
2.024061439902773
 20
0.8882349132295033
 10
2.065326708810067
 20
0.867602278775859
  0
LWPOLYLINE
  5
F8
100
AcDbEntity
  8
USP-GEO
100
AcDbPolyline
 90
        2
 70
   128
 43
0.0
 10
2.044694074356419
 20
0.8057043754149155
 10
2.065326708810067
 20
0.867602278775859
  0
LWPOLYLINE
  5
F9
100
AcDbEntity
  8
USP-GEO
100
AcDbPolyline
 90
        2
 70
   128
 43
0.0
 10
2.044694074356419
 20
0.8057043754149155
 10
2.024061439902773
 20
0.8263370098685633
  0
LWPOLYLINE
  5
FA
100
AcDbEntity
  8
USP-GEO
100
AcDbPolyline
 90
        2
 70
   128
 43
0.0
 10
4.521641840516744
 20
12.59828659739687
 10
4.521641840516744
 20
12.68081713521145
  0
LWPOLYLINE
  5
FB
100
AcDbEntity
  8
USP-GEO
100
AcDbPolyline
 90
        2
 70
   128
 43
0.0
 10
4.521641840516744
 20
11.58625587744548
 10
4.521641840516744
 20
12.59828659739687
  0
LWPOLYLINE
  5
FC
100
AcDbEntity
  8
USP-GEO
100
AcDbPolyline
 90
        2
 70
   128
 43
0.0
 10
4.521641840516744
 20
11.25613372618713
 10
4.521641840516744
 20
11.58625587744548
  0
LWPOLYLINE
  5
FD
100
AcDbEntity
  8
USP-GEO
100
AcDbPolyline
 90
        2
 70
   128
 43
0.0
 10
4.521641840516744
 20
5.452173654376226
 10
4.521641840516744
 20
11.25613372618713
  0
LWPOLYLINE
  5
FE
100
AcDbEntity
  8
USP-GEO
100
AcDbPolyline
 90
        2
 70
   128
 43
0.0
 10
4.521641840516744
 20
5.307745213200696
 10
4.521641840516744
 20
5.452173654376226
  0
LWPOLYLINE
  5
FF
100
AcDbEntity
  8
USP-GEO
100
AcDbPolyline
 90
        2
 70
   128
 43
0.0
 10
4.521641840516744
 20
2.168489881078301
 10
4.521641840516744
 20
5.307745213200696
  0
LWPOLYLINE
  5
100
100
AcDbEntity
  8
USP-GEO
100
AcDbPolyline
 90
        2
 70
   128
 43
0.0
 10
4.521641840516744
 20
2.065326708810069
 10
4.521641840516744
 20
2.168489881078301
  0
LWPOLYLINE
  5
101
100
AcDbEntity
  8
USP-GEO
100
AcDbPolyline
 90
        2
 70
   128
 43
0.0
 10
4.521641840516744
 20
1.941530902088185
 10
4.521641840516744
 20
2.065326708810069
  0
LWPOLYLINE
  5
102
100
AcDbEntity
  8
USP-GEO
100
AcDbPolyline
 90
        2
 70
   128
 43
0.0
 10
4.521641840516744
 20
0.0825305378145878
 10
4.521641840516744
 20
1.941530902088185
  0
LWPOLYLINE
  5
103
100
AcDbEntity
  8
USP-GEO
100
AcDbPolyline
 90
        2
 70
   128
 43
0.0
 10
4.501009206063097
 20
0.8057043754149155
 10
4.521641840516744
 20
0.8263370098685633
  0
LWPOLYLINE
  5
104
100
AcDbEntity
  8
USP-GEO
100
AcDbPolyline
 90
        2
 70
   128
 43
0.0
 10
4.521641840516744
 20
0.8882349132295033
 10
4.480376571609451
 20
0.867602278775859
  0
LWPOLYLINE
  5
105
100
AcDbEntity
  8
USP-GEO
100
AcDbPolyline
 90
        2
 70
   128
 43
0.0
 10
4.397846033794863
 20
0.7438064720539757
 10
4.377213399341215
 20
0.7850717409612713
  0
LWPOLYLINE
  5
106
100
AcDbEntity
  8
USP-GEO
100
AcDbPolyline
 90
        2
 70
   128
 43
0.0
 10
4.480376571609451
 20
0.867602278775859
 10
4.377213399341215
 20
0.7850717409612713
  0
LWPOLYLINE
  5
107
100
AcDbEntity
  8
USP-GEO
100
AcDbPolyline
 90
        2
 70
   128
 43
0.0
 10
4.501009206063097
 20
0.8057043754149155
 10
4.480376571609451
 20
0.867602278775859
  0
LWPOLYLINE
  5
108
100
AcDbEntity
  8
USP-GEO
100
AcDbPolyline
 90
        2
 70
   128
 43
0.0
 10
4.397846033794863
 20
0.7438064720539757
 10
4.501009206063097
 20
0.8057043754149155
  0
ARC
  5
109
100
AcDbEntity
  8
USP-GEO
100
AcDbCircle
 10
2.027824200983278
 20
1.224976776445911
 30
0.0
 40
0.302000000000001
100
AcDbArc
 50
99.03209253866013
 51
119.4336565405046
  0
ARC
  5
10A
100
AcDbEntity
  8
USP-GEO
100
AcDbCircle
 10
2.027824200983278
 20
1.224976776445911
 30
0.0
 40
0.302000000000001
100
AcDbArc
 50
153.2172089095898
 51
261.3352912754449
  0
ARC
  5
10B
100
AcDbEntity
  8
USP-GEO
100
AcDbCircle
 10
4.527824200983264
 20
1.224976776445812
 30
0.0
 40
0.302000000000001
100
AcDbArc
 50
58.82864365176659
 51
78.87265430572448
  0
ARC
  5
10C
100
AcDbEntity
  8
USP-GEO
100
AcDbCircle
 10
4.527824200983264
 20
1.224976776445812
 30
0.0
 40
0.302000000000001
100
AcDbArc
 50
280.6784040539956
 51
27.74003635502296
  0
TEXT
  5
10D
100
AcDbEntity
  8
USP-TXT
100
AcDbText
 10
0.814518306876427
 20
-1.301338034321945
 30
0.0
 40
0.25
  1
TFL2513 - FRONT VIEW
 72
     1
 11
3.272851640209759
 21
-1.301338034321945
 31
0.0
100
AcDbText
  0
ENDBLK
  5
10F
100
AcDbEntity
  8
0
100
AcDbBlockEnd
  0
BLOCK
  5
15C
100
AcDbEntity
  8
0
100
AcDbBlockBegin
  2
TFL2513PR_S
 70
     0
 10
0.0
 20
0.0
 30
0.0
  3
TFL2513PR_S
  1

  0
LWPOLYLINE
  5
112
100
AcDbEntity
  8
USP-GEO
100
AcDbPolyline
 90
        2
 70
   128
 43
0.0
 10
2.003428805449125
 20
0.0412652689072957
 10
0.0
 20
0.0412652689072957
  0
LWPOLYLINE
  5
113
100
AcDbEntity
  8
USP-GEO
100
AcDbPolyline
 90
        2
 70
   128
 43
0.0
 10
2.209755149985596
 20
2.168489881078301
 10
2.147857246624656
 20
2.168489881078301
  0
LWPOLYLINE
  5
114
100
AcDbEntity
  8
USP-GEO
100
AcDbPolyline
 90
        2
 70
   128
 43
0.0
 10
2.189122515531948
 20
2.065326708810069
 10
2.127224612171008
 20
2.065326708810069
  0
LWPOLYLINE
  5
115
100
AcDbEntity
  8
USP-GEO
100
AcDbPolyline
 90
        2
 70
   128
 43
0.0
 10
2.189122515531948
 20
2.065326708810069
 10
2.209755149985596
 20
2.065326708810069
  0
LWPOLYLINE
  5
116
100
AcDbEntity
  8
USP-GEO
100
AcDbPolyline
 90
        2
 70
   128
 43
0.0
 10
2.106591977717361
 20
12.68081713521145
 10
2.107623609440043
 20
12.68081713521145
  0
LWPOLYLINE
  5
117
100
AcDbEntity
  8
USP-GEO
100
AcDbPolyline
 90
        2
 70
   128
 43
0.0
 10
2.106591977717361
 20
12.68081713521145
 10
2.147857246624656
 20
12.68081713521145
  0
LWPOLYLINE
  5
118
100
AcDbEntity
  8
USP-GEO
100
AcDbPolyline
 90
        2
 70
   128
 43
0.0
 10
2.147857246624656
 20
2.065326708810069
 10
2.106591977717361
 20
2.065326708810069
  0
LWPOLYLINE
  5
119
100
AcDbEntity
  8
USP-GEO
100
AcDbPolyline
 90
        2
 70
   128
 43
0.0
 10
2.209755149985596
 20
2.168489881078301
 10
2.209755149985596
 20
2.065326708810069
  0
LWPOLYLINE
  5
11A
100
AcDbEntity
  8
USP-GEO
100
AcDbPolyline
 90
        2
 70
   128
 43
0.0
 10
2.209755149985596
 20
5.307745213200696
 10
2.209755149985596
 20
2.168489881078301
  0
LWPOLYLINE
  5
11B
100
AcDbEntity
  8
USP-GEO
100
AcDbPolyline
 90
        2
 70
   128
 43
0.0
 10
2.209755149985596
 20
5.452173654376226
 10
2.209755149985596
 20
5.307745213200696
  0
LWPOLYLINE
  5
11C
100
AcDbEntity
  8
USP-GEO
100
AcDbPolyline
 90
        2
 70
   128
 43
0.0
 10
2.209755149985596
 20
11.25613372618713
 10
2.209755149985596
 20
5.452173654376226
  0
LWPOLYLINE
  5
11D
100
AcDbEntity
  8
USP-GEO
100
AcDbPolyline
 90
        2
 70
   128
 43
0.0
 10
2.209755149985596
 20
11.58625587744548
 10
2.209755149985596
 20
11.25613372618713
  0
LWPOLYLINE
  5
11E
100
AcDbEntity
  8
USP-GEO
100
AcDbPolyline
 90
        2
 70
   128
 43
0.0
 10
2.209755149985596
 20
12.59828659739687
 10
2.209755149985596
 20
11.58625587744548
  0
LWPOLYLINE
  5
11F
100
AcDbEntity
  8
USP-GEO
100
AcDbPolyline
 90
        2
 70
   128
 43
0.0
 10
2.209755149985596
 20
12.68081713521145
 10
2.209755149985596
 20
12.59828659739687
  0
LWPOLYLINE
  5
120
100
AcDbEntity
  8
USP-GEO
100
AcDbPolyline
 90
        2
 70
   128
 43
0.0
 10
2.209755149985596
 20
12.68081713521145
 10
2.210786781708279
 20
12.68081713521145
  0
LWPOLYLINE
  5
121
100
AcDbEntity
  8
USP-GEO
100
AcDbPolyline
 90
        2
 70
   128
 43
0.0
 10
2.147857246624656
 20
12.68081713521145
 10
2.148888878347339
 20
12.68081713521145
  0
LWPOLYLINE
  5
122
100
AcDbEntity
  8
USP-GEO
100
AcDbPolyline
 90
        2
 70
   128
 43
0.0
 10
2.147857246624656
 20
12.68081713521145
 10
2.147857246624656
 20
12.59828659739687
  0
LWPOLYLINE
  5
123
100
AcDbEntity
  8
USP-GEO
100
AcDbPolyline
 90
        2
 70
   128
 43
0.0
 10
2.147857246624656
 20
11.58625587744548
 10
2.147857246624656
 20
12.59828659739687
  0
LWPOLYLINE
  5
124
100
AcDbEntity
  8
USP-GEO
100
AcDbPolyline
 90
        2
 70
   128
 43
0.0
 10
2.147857246624656
 20
11.58625587744548
 10
2.147857246624656
 20
11.25613372618713
  0
LWPOLYLINE
  5
125
100
AcDbEntity
  8
USP-GEO
100
AcDbPolyline
 90
        2
 70
   128
 43
0.0
 10
2.147857246624656
 20
11.25613372618713
 10
2.147857246624656
 20
5.452173654376226
  0
LWPOLYLINE
  5
126
100
AcDbEntity
  8
USP-GEO
100
AcDbPolyline
 90
        2
 70
   128
 43
0.0
 10
2.147857246624656
 20
5.307745213200696
 10
2.147857246624656
 20
5.452173654376226
  0
LWPOLYLINE
  5
127
100
AcDbEntity
  8
USP-GEO
100
AcDbPolyline
 90
        2
 70
   128
 43
0.0
 10
2.147857246624656
 20
2.168489881078301
 10
2.147857246624656
 20
5.307745213200696
  0
LWPOLYLINE
  5
128
100
AcDbEntity
  8
USP-GEO
100
AcDbPolyline
 90
        2
 70
   128
 43
0.0
 10
2.147857246624656
 20
2.065326708810069
 10
2.147857246624656
 20
2.168489881078301
  0
LWPOLYLINE
  5
129
100
AcDbEntity
  8
USP-GEO
100
AcDbPolyline
 90
        2
 70
   128
 43
0.0
 10
3.696336462370865
 20
13.11410245873804
 10
2.230387784439244
 20
13.11410245873804
  0
LWPOLYLINE
  5
12A
100
AcDbEntity
  8
USP-GEO
100
AcDbPolyline
 90
        2
 70
   128
 43
0.0
 10
3.696336462370865
 20
13.0522045553771
 10
3.696336462370865
 20
13.11410245873804
  0
LWPOLYLINE
  5
12B
100
AcDbEntity
  8
USP-GEO
100
AcDbPolyline
 90
        2
 70
   128
 43
0.0
 10
3.696336462370865
 20
13.0522045553771
 10
2.230387784439244
 20
13.0522045553771
  0
ARC
  5
12C
100
AcDbEntity
  8
USP-GEO
100
AcDbCircle
 10
2.237073590722838
 20
13.01572677644587
 30
0.0
 40
0.038
100
AcDbArc
 50
100.3861429466841
 51
189.9400073735616
  0
LWPOLYLINE
  5
12D
100
AcDbEntity
  8
USP-GEO
100
AcDbPolyline
 90
        2
 70
   128
 43
0.0
 10
2.209755149985596
 20
13.01093928646981
 10
2.209755149985596
 20
12.68081713521145
  0
LWPOLYLINE
  5
12E
100
AcDbEntity
  8
USP-GEO
100
AcDbPolyline
 90
        2
 70
   128
 43
0.0
 10
2.209755149985596
 20
12.68081713521145
 10
2.147857246624656
 20
12.68081713521145
  0
LWPOLYLINE
  5
12F
100
AcDbEntity
  8
USP-GEO
100
AcDbPolyline
 90
        2
 70
   128
 43
0.0
 10
2.147857246624656
 20
12.68081713521145
 10
2.147857246624656
 20
13.01093928646981
  0
ARC
  5
130
100
AcDbEntity
  8
USP-GEO
100
AcDbCircle
 10
2.237073590722809
 20
13.0157267764459
 30
0.0
 40
0.09
100
AcDbArc
 50
93.88795611546498
 51
183.0716359848
  0
CIRCLE
  5
131
100
AcDbEntity
  8
USP-GEO
100
AcDbCircle
 10
1.397073590722834
 20
11.05372677644585
 30
0.0
 40
0.15625
  0
LWPOLYLINE
  5
132
100
AcDbEntity
  8
USP-GEO
100
AcDbPolyline
 90
        2
 70
   128
 43
0.0
 10
1.486581312385268
 20
3.614837556278958
 10
1.610377119107152
 20
3.718000728547194
  0
LWPOLYLINE
  5
133
100
AcDbEntity
  8
USP-GEO
100
AcDbPolyline
 90
        2
 70
   128
 43
0.0
 10
1.610377119107152
 20
3.51064275228804
 10
1.486581312385268
 20
3.614837556278958
  0
LWPOLYLINE
  5
134
100
AcDbEntity
  8
USP-GEO
100
AcDbPolyline
 90
        2
 70
   128
 43
0.0
 10
1.713540291375387
 20
3.614837556278958
 10
1.610377119107152
 20
3.51064275228804
  0
LWPOLYLINE
  5
135
100
AcDbEntity
  8
USP-GEO
100
AcDbPolyline
 90
        2
 70
   128
 43
0.0
 10
1.610377119107152
 20
3.718000728547194
 10
1.713540291375387
 20
3.614837556278958
  0
LWPOLYLINE
  5
136
100
AcDbEntity
  8
USP-GEO
100
AcDbPolyline
 90
        2
 70
   128
 43
0.0
 10
1.259622333395153
 20
0.8263370098685633
 10
1.115193892219622
 20
0.70254120314668
  0
LWPOLYLINE
  5
137
100
AcDbEntity
  8
USP-GEO
100
AcDbPolyline
 90
        2
 70
   128
 43
0.0
 10
1.259622333395153
 20
0.8882349132295033
 10
1.259622333395153
 20
0.8263370098685633
  0
LWPOLYLINE
  5
138
100
AcDbEntity
  8
USP-GEO
100
AcDbPolyline
 90
        2
 70
   128
 43
0.0
 10
0.9913980854977424
 20
0.8882349132295033
 10
1.259622333395153
 20
0.8882349132295033
  0
LWPOLYLINE
  5
139
100
AcDbEntity
  8
USP-GEO
100
AcDbPolyline
 90
        2
 70
   128
 43
0.0
 10
0.9913980854977424
 20
0.8263370098685633
 10
0.9913980854977424
 20
0.8882349132295033
  0
LWPOLYLINE
  5
13A
100
AcDbEntity
  8
USP-GEO
100
AcDbPolyline
 90
        2
 70
   128
 43
0.0
 10
0.0
 20
0.0825305378145878
 10
0.0
 20
1.941530902088185
  0
ARC
  5
13B
100
AcDbEntity
  8
USP-GEO
100
AcDbCircle
 10
0.1243901903050588
 20
1.944351776445826
 30
0.0
 40
0.125
100
AcDbArc
 50
90.28150787959193
 51
181.2991096561858
  0
LWPOLYLINE
  5
13C
100
AcDbEntity
  8
USP-GEO
100
AcDbPolyline
 90
        2
 70
   128
 43
0.0
 10
0.1454600728982136
 20
2.065326708810069
 10
0.1237958067218834
 20
2.065326708810069
  0
ARC
  5
13D
100
AcDbEntity
  8
USP-GEO
100
AcDbCircle
 10
0.1470735907228349
 20
2.194351776445826
 30
0.0
 40
0.125
100
AcDbArc
 50
269.2835272674441
 51
348.0488020833573
  0
LWPOLYLINE
  5
13E
100
AcDbEntity
  8
USP-GEO
100
AcDbPolyline
 90
        2
 70
   128
 43
0.0
 10
0.2692558796200934
 20
2.168489881078301
 10
0.8882349132295068
 20
5.307745213200696
  0
ARC
  5
13F
100
AcDbEntity
  8
USP-GEO
100
AcDbCircle
 10
0.1470735907228065
 20
5.456888625144427
 30
0.0
 40
0.75
100
AcDbArc
 50
348.6223560403209
 51
359.6355121710471
  0
LWPOLYLINE
  5
140
100
AcDbEntity
  8
USP-GEO
100
AcDbPolyline
 90
        2
 70
   128
 43
0.0
 10
0.8882349132295068
 20
11.25613372618713
 10
0.8882349132295068
 20
5.452173654376226
  0
ARC
  5
141
100
AcDbEntity
  8
USP-GEO
100
AcDbCircle
 10
1.397073590722834
 20
11.2459496315197
 30
0.0
 40
0.5
100
AcDbArc
 50
136.9589704013909
 51
178.8534131260058
  0
LWPOLYLINE
  5
142
100
AcDbEntity
  8
USP-GEO
100
AcDbPolyline
 90
        2
 70
   128
 43
0.0
 10
1.032663354405034
 20
11.58625587744548
 10
1.920898267634537
 20
12.59828659739687
  0
ARC
  5
143
100
AcDbEntity
  8
USP-GEO
100
AcDbCircle
 10
2.112256251801619
 20
12.42872677644585
 30
0.0
 40
0.25
100
AcDbArc
 50
91.28717496747936
 51
138.4562646869697
  0
LWPOLYLINE
  5
144
100
AcDbEntity
  8
USP-GEO
100
AcDbPolyline
 90
        2
 70
   128
 43
0.0
 10
2.106591977717361
 20
2.065326708810069
 10
2.127224612171008
 20
2.065326708810069
  0
ARC
  5
145
100
AcDbEntity
  8
USP-GEO
100
AcDbCircle
 10
2.124390190305058
 20
1.944351776445826
 30
0.0
 40
0.125
100
AcDbArc
 50
88.65781530147954
 51
181.3359214228012
  0
LWPOLYLINE
  5
146
100
AcDbEntity
  8
USP-GEO
100
AcDbPolyline
 90
        2
 70
   128
 43
0.0
 10
2.003428805449125
 20
0.0825305378145878
 10
2.003428805449125
 20
1.941530902088185
  0
LWPOLYLINE
  5
147
100
AcDbEntity
  8
USP-GEO
100
AcDbPolyline
 90
        2
 70
   128
 43
0.0
 10
2.003428805449125
 20
0.0
 10
0.0
 20
0.0
  0
LWPOLYLINE
  5
148
100
AcDbEntity
  8
USP-GEO
100
AcDbPolyline
 90
        2
 70
   128
 43
0.0
 10
0.0
 20
0.0
 10
0.0
 20
0.0825305378145878
  0
LWPOLYLINE
  5
149
100
AcDbEntity
  8
USP-GEO
100
AcDbPolyline
 90
        2
 70
   128
 43
0.0
 10
2.003428805449125
 20
0.0825305378145878
 10
2.003428805449125
 20
0.0
  0
ELLIPSE
  5
14A
100
AcDbEntity
  8
USP-GEO
  6
CONTINUOUS
100
AcDbEllipse
 10
0.5016090547507535
 20
1.392929150647558
 30
0.0
 11
-0.078000000000003
 21
0.0000000000000013
 31
0.0
210
0.0
220
0.0
230
1.0
 40
0.7071067811865476
 41
3.358025139375408
 42
6.033118273946644
1001
ACAD
1000
RTLwPs
1070
   128
  0
CIRCLE
  5
14B
100
AcDbEntity
  8
USP-GEO
100
AcDbCircle
 10
0.5016090547507535
 20
1.224976776445812
 30
0.0
 40
0.2974894956128703
  0
ELLIPSE
  5
14C
100
AcDbEntity
  8
USP-GEO
  6
CONTINUOUS
100
AcDbEllipse
 10
0.5016090547507535
 20
1.431277527777465
 30
0.0
 11
-0.078000000000003
 21
0.0000000000000008
 31
0.0
210
0.0
220
0.0
230
1.0
 40
0.7071067811865476
 41
5.971990074061917
 42
6.792979815872332
1001
ACAD
1000
RTLwPs
1070
   128
  0
ELLIPSE
  5
14D
100
AcDbEntity
  8
USP-GEO
  6
CONTINUOUS
100
AcDbEllipse
 10
0.5016090547507535
 20
1.431277527777465
 30
0.0
 11
-0.078000000000003
 21
0.0000000000000008
 31
0.0
210
0.0
220
0.0
230
1.0
 40
0.7071067811865476
 41
0.5032406386322319
 42
0.9674994306145489
1001
ACAD
1000
RTLwPs
1070
   128
  0
ELLIPSE
  5
14E
100
AcDbEntity
  8
USP-GEO
  6
CONTINUOUS
100
AcDbEllipse
 10
0.5016090547507535
 20
1.431277527777465
 30
0.0
 11
-0.078000000000003
 21
0.0000000000000008
 31
0.0
210
0.0
220
0.0
230
1.0
 40
0.7071067811865476
 41
5.447231363101526
 42
5.976465200829361
1001
ACAD
1000
RTLwPs
1070
   128
  0
ELLIPSE
  5
14F
100
AcDbEntity
  8
USP-GEO
  6
CONTINUOUS
100
AcDbEllipse
 10
0.5016090547507535
 20
1.431277527777465
 30
0.0
 11
-0.078000000000003
 21
0.0000000000000008
 31
0.0
210
0.0
220
0.0
230
1.0
 40
0.7071067811865476
 41
4.081242803900568
 42
5.4583648528823
1001
ACAD
1000
RTLwPs
1070
   128
  0
ELLIPSE
  5
150
100
AcDbEntity
  8
USP-GEO
  6
CONTINUOUS
100
AcDbEllipse
 10
0.5016090547507535
 20
1.431277527777465
 30
0.0
 11
-0.078000000000003
 21
0.0000000000000008
 31
0.0
210
0.0
220
0.0
230
1.0
 40
0.7071067811865476
 41
0.9570127950823561
 42
2.286100046352453
1001
ACAD
1000
RTLwPs
1070
   128
  0
ELLIPSE
  5
151
100
AcDbEntity
  8
USP-GEO
  6
CONTINUOUS
100
AcDbEllipse
 10
0.5016090547507535
 20
1.431277527777465
 30
0.0
 11
-0.078000000000003
 21
0.0000000000000008
 31
0.0
210
0.0
220
0.0
230
1.0
 40
0.7071067811865476
 41
4.094690719043541
 42
10.1450623797153
1001
ACAD
1000
RTLwPs
1070
   128
  0
ELLIPSE
  5
152
100
AcDbEntity
  8
USP-GEO
  6
CONTINUOUS
100
AcDbEllipse
 10
0.5016090547507535
 20
1.431277527777465
 30
0.0
 11
-0.078000000000003
 21
0.0000000000000008
 31
0.0
210
0.0
220
0.0
230
1.0
 40
0.7071067811865476
 41
2.69902450969326
 42
8.560339345653037
1001
ACAD
1000
RTLwPs
1070
   128
  0
ELLIPSE
  5
153
100
AcDbEntity
  8
USP-GEO
  6
CONTINUOUS
100
AcDbEllipse
 10
0.5016090547507535
 20
1.431277527777465
 30
0.0
 11
-0.078000000000003
 21
0.0000000000000008
 31
0.0
210
0.0
220
0.0
230
1.0
 40
0.7071067811865476
 41
3.870857082647582
 42
9.690957000947323
1001
ACAD
1000
RTLwPs
1070
   128
  0
ELLIPSE
  5
154
100
AcDbEntity
  8
USP-GEO
  6
CONTINUOUS
100
AcDbEllipse
 10
0.5016090547507535
 20
1.431277527777465
 30
0.0
 11
-0.078000000000003
 21
0.0000000000000008
 31
0.0
210
0.0
220
0.0
230
1.0
 40
0.7071067811865476
 41
3.411162673777594
 42
8.977046729275109
1001
ACAD
1000
RTLwPs
1070
   128
  0
ELLIPSE
  5
155
100
AcDbEntity
  8
USP-GEO
  6
CONTINUOUS
100
AcDbEllipse
 10
0.5016090547507535
 20
1.431277527777465
 30
0.0
 11
-0.078000000000003
 21
0.0000000000000008
 31
0.0
210
0.0
220
0.0
230
1.0
 40
0.7071067811865476
 41
3.039961676202232
 42
3.041293927167736
1001
ACAD
1000
RTLwPs
1070
   128
  0
ARC
  5
156
100
AcDbEntity
  8
USP-GEO
100
AcDbCircle
 10
0.3141090547507233
 20
1.224976776445911
 30
0.0
 40
0.25
100
AcDbArc
 50
34.20537959032235
 51
54.94600904566695
  0
LWPOLYLINE
  5
157
100
AcDbEntity
  8
USP-GEO
100
AcDbPolyline
 90
        2
 70
   128
 43
0.0
 10
1.115193892219622
 20
0.70254120314668
 10
0.9913980854977424
 20
0.8263370098685633
  0
LWPOLYLINE
  5
158
100
AcDbEntity
  8
USP-GEO
100
AcDbPolyline
 90
        2
 70
   128
 43
0.0
 10
0.9913980854977424
 20
0.8469696443222112
 10
1.259622333395153
 20
0.8469696443222112
  0
LWPOLYLINE
  5
159
100
AcDbEntity
  8
USP-GEO
100
AcDbPolyline
 90
        2
 70
   128
 43
0.0
 10
1.218357064487857
 20
0.7850717409612713
 10
1.115193892219622
 20
0.7438064720539757
  0
LWPOLYLINE
  5
15A
100
AcDbEntity
  8
USP-GEO
100
AcDbPolyline
 90
        2
 70
   128
 43
0.0
 10
1.115193892219622
 20
0.7438064720539757
 10
1.032663354405034
 20
0.7850717409612713
  0
TEXT
  5
15B
100
AcDbEntity
  8
USP-TXT
100
AcDbText
 10
-0.4434984354812342
 20
-1.301338034321945
 30
0.0
 40
0.25
  1
TFL2513 - SIDE VIEW
 72
     1
 11
1.848168231185432
 21
-1.301338034321945
 31
0.0
100
AcDbText
  0
ENDBLK
  5
15D
100
AcDbEntity
  8
0
100
AcDbBlockEnd
  0
ENDSEC
  0
SECTION
  2
ENTITIES
  0
INSERT
  5
3
100
AcDbEntity
  8
USP
100
AcDbBlockReference
  2
TFL2513PR_T
 10
0.00170561383257
 20
16.99793026278034
 30
0.0
  0
INSERT
  5
95
100
AcDbEntity
  8
USP
100
AcDbBlockReference
  2
TFL2513PR_F
 10
0.00170561383257
 20
1.301653602168375
 30
0.0
  0
INSERT
  5
110
100
AcDbEntity
  8
USP
100
AcDbBlockReference
  2
TFL2513PR_S
 10
10.28294736208487
 20
1.301653602168375
 30
0.0
  0
ENDSEC
  0
SECTION
  2
OBJECTS
  0
DICTIONARY
  5
175
100
AcDbDictionary
  3
ACAD_GROUP
350
173
  3
ACAD_MLINESTYLE
350
174
  0
DICTIONARY
  5
9
100
AcDbDictionary
280
     1
  3
ACAD_XREC_ROUNDTRIP
360
A
  0
DICTIONARY
  5
8F
100
AcDbDictionary
280
     1
  3
ACAD_XREC_ROUNDTRIP
360
90
  0
DICTIONARY
  5
178
100
AcDbDictionary
280
     1
  3
ACAD_XREC_ROUNDTRIP
360
179
  0
DICTIONARY
  5
15E
100
AcDbDictionary
280
     1
  3
ACAD_LAYOUTSELFREF
360
15F
  0
DICTIONARY
  5
163
100
AcDbDictionary
280
     1
  3
ACAD_LAYOUTSELFREF
360
164
  0
DICTIONARY
  5
173
102
{ACAD_REACTORS
330
175
102
}
100
AcDbDictionary
  0
DICTIONARY
  5
174
102
{ACAD_REACTORS
330
175
102
}
100
AcDbDictionary
  3
STANDARD
350
176
  0
XRECORD
  5
A
102
{ACAD_REACTORS
330
9
102
}
100
AcDbXrecord
102
EXTNAMES
  1
USP-GEO
  2
USP-Geo
  0
XRECORD
  5
90
102
{ACAD_REACTORS
330
8F
102
}
100
AcDbXrecord
102
EXTNAMES
  1
USP-TXT
  2
USP-Txt
  0
XRECORD
  5
179
102
{ACAD_REACTORS
330
178
102
}
100
AcDbXrecord
102
ACADR14ROUNDTRIP
1000
DSTYLE
1002
{
1070
   276
 70
     2
1070
   277
 70
     5
1002
}
  0
XRECORD
  5
15F
102
{ACAD_REACTORS
330
15E
102
}
100
AcDbXrecord
340
2
  0
XRECORD
  5
164
102
{ACAD_REACTORS
330
163
102
}
100
AcDbXrecord
340
0
  0
MLINESTYLE
  5
176
102
{ACAD_REACTORS
330
174
102
}
100
AcDbMlineStyle
  2
STANDARD
 70
     0
  3

 62
     0
 51
90.0
 52
90.0
 71
     2
 49
0.5
 62
   256
  6
BYLAYER
 49
-0.5
 62
   256
  6
BYLAYER
  0
ENDSEC
  0
EOF
