  0
SECTION
  2
HEADER
  9
$ACADVER
  1
AC1015
  9
$ACADMAINTVER
 70
    20
  9
$DWGCODEPAGE
  3
ANSI_1252
  9
$INSBASE
 10
0.0
 20
0.0
 30
0.0
  9
$EXTMIN
 10
-0.0112149234623935
 20
0.000300384650858
 30
0.0
  9
$EXTMAX
 10
14.09618122274991
 20
19.69858512261158
 30
0.0
  9
$LIMMIN
 10
0.0
 20
0.0
  9
$LIMMAX
 10
12.0
 20
9.0
  9
$ORTHOMODE
 70
     0
  9
$REGENMODE
 70
     1
  9
$FILLMODE
 70
     1
  9
$QTEXTMODE
 70
     0
  9
$MIRRTEXT
 70
     0
  9
$LTSCALE
 40
1.5
  9
$ATTMODE
 70
     1
  9
$TEXTSIZE
 40
0.25
  9
$TRACEWID
 40
0.05
  9
$TEXTSTYLE
  7
STANDARD
  9
$CLAYER
  8
USP
  9
$CELTYPE
  6
BYLAYER
  9
$CECOLOR
 62
   256
  9
$CELTSCALE
 40
1.0
  9
$DISPSILH
 70
     1
  9
$DIMSCALE
 40
5.0
  9
$DIMASZ
 40
0.125
  9
$DIMEXO
 40
0.0625
  9
$DIMDLI
 40
0.38
  9
$DIMRND
 40
0.0
  9
$DIMDLE
 40
0.0
  9
$DIMEXE
 40
0.09375
  9
$DIMTP
 40
0.0
  9
$DIMTM
 40
0.0
  9
$DIMTXT
 40
0.109375
  9
$DIMCEN
 40
0.0
  9
$DIMTSZ
 40
0.0
  9
$DIMTOL
 70
     0
  9
$DIMLIM
 70
     0
  9
$DIMTIH
 70
     1
  9
$DIMTOH
 70
     1
  9
$DIMSE1
 70
     0
  9
$DIMSE2
 70
     0
  9
$DIMTAD
 70
     0
  9
$DIMZIN
 70
     8
  9
$DIMBLK
  1

  9
$DIMASO
 70
     1
  9
$DIMSHO
 70
     1
  9
$DIMPOST
  1

  9
$DIMAPOST
  1

  9
$DIMALT
 70
     0
  9
$DIMALTD
 70
     2
  9
$DIMALTF
 40
25.4
  9
$DIMLFAC
 40
1.0
  9
$DIMTOFL
 70
     0
  9
$DIMTVP
 40
0.0
  9
$DIMTIX
 70
     0
  9
$DIMSOXD
 70
     0
  9
$DIMSAH
 70
     0
  9
$DIMBLK1
  1

  9
$DIMBLK2
  1

  9
$DIMSTYLE
  2
STANDARD
  9
$DIMCLRD
 70
   256
  9
$DIMCLRE
 70
   256
  9
$DIMCLRT
 70
   256
  9
$DIMTFAC
 40
1.0
  9
$DIMGAP
 40
0.09
  9
$DIMJUST
 70
     0
  9
$DIMSD1
 70
     0
  9
$DIMSD2
 70
     0
  9
$DIMTOLJ
 70
     1
  9
$DIMTZIN
 70
     0
  9
$DIMALTZ
 70
     0
  9
$DIMALTTZ
 70
     0
  9
$DIMUPT
 70
     1
  9
$DIMDEC
 70
     4
  9
$DIMTDEC
 70
     4
  9
$DIMALTU
 70
     2
  9
$DIMALTTD
 70
     2
  9
$DIMTXSTY
  7
STANDARD
  9
$DIMAUNIT
 70
     0
  9
$DIMADEC
 70
     0
  9
$DIMALTRND
 40
0.0
  9
$DIMAZIN
 70
     0
  9
$DIMDSEP
 70
    46
  9
$DIMATFIT
 70
     3
  9
$DIMFRAC
 70
     2
  9
$DIMLDRBLK
  1

  9
$DIMLUNIT
 70
     5
  9
$DIMLWD
 70
    -2
  9
$DIMLWE
 70
    -2
  9
$DIMTMOVE
 70
     0
  9
$LUNITS
 70
     5
  9
$LUPREC
 70
     6
  9
$SKETCHINC
 40
0.1
  9
$FILLETRAD
 40
0.0
  9
$AUNITS
 70
     0
  9
$AUPREC
 70
     1
  9
$MENU
  1
CUSTOM
  9
$ELEVATION
 40
0.0
  9
$PELEVATION
 40
0.0
  9
$THICKNESS
 40
0.0
  9
$LIMCHECK
 70
     0
  9
$CHAMFERA
 40
0.0
  9
$CHAMFERB
 40
0.0
  9
$CHAMFERC
 40
0.0
  9
$CHAMFERD
 40
0.0
  9
$SKPOLY
 70
     0
  9
$TDCREATE
 40
2451263.621564699
  9
$TDUCREATE
 40
2451263.829898032
  9
$TDUPDATE
 40
2455846.459475220
  9
$TDUUPDATE
 40
2455846.667808553
  9
$TDINDWG
 40
1.0267533912
  9
$TDUSRTIMER
 40
1.0267533912
  9
$USRTIMER
 70
     1
  9
$ANGBASE
 50
0.0
  9
$ANGDIR
 70
     0
  9
$PDMODE
 70
     0
  9
$PDSIZE
 40
0.0
  9
$PLINEWID
 40
0.0
  9
$SPLFRAME
 70
     0
  9
$SPLINETYPE
 70
     6
  9
$SPLINESEGS
 70
     8
  9
$HANDSEED
  5
187
  9
$SURFTAB1
 70
     6
  9
$SURFTAB2
 70
     6
  9
$SURFTYPE
 70
     6
  9
$SURFU
 70
     6
  9
$SURFV
 70
     6
  9
$UCSBASE
  2

  9
$UCSNAME
  2

  9
$UCSORG
 10
0.0
 20
0.0
 30
0.0
  9
$UCSXDIR
 10
1.0
 20
0.0
 30
0.0
  9
$UCSYDIR
 10
0.0
 20
1.0
 30
0.0
  9
$UCSORTHOREF
  2

  9
$UCSORTHOVIEW
 70
     0
  9
$UCSORGTOP
 10
0.0
 20
0.0
 30
0.0
  9
$UCSORGBOTTOM
 10
0.0
 20
0.0
 30
0.0
  9
$UCSORGLEFT
 10
0.0
 20
0.0
 30
0.0
  9
$UCSORGRIGHT
 10
0.0
 20
0.0
 30
0.0
  9
$UCSORGFRONT
 10
0.0
 20
0.0
 30
0.0
  9
$UCSORGBACK
 10
0.0
 20
0.0
 30
0.0
  9
$PUCSBASE
  2

  9
$PUCSNAME
  2

  9
$PUCSORG
 10
0.0
 20
0.0
 30
0.0
  9
$PUCSXDIR
 10
1.0
 20
0.0
 30
0.0
  9
$PUCSYDIR
 10
0.0
 20
1.0
 30
0.0
  9
$PUCSORTHOREF
  2

  9
$PUCSORTHOVIEW
 70
     0
  9
$PUCSORGTOP
 10
0.0
 20
0.0
 30
0.0
  9
$PUCSORGBOTTOM
 10
0.0
 20
0.0
 30
0.0
  9
$PUCSORGLEFT
 10
0.0
 20
0.0
 30
0.0
  9
$PUCSORGRIGHT
 10
0.0
 20
0.0
 30
0.0
  9
$PUCSORGFRONT
 10
0.0
 20
0.0
 30
0.0
  9
$PUCSORGBACK
 10
0.0
 20
0.0
 30
0.0
  9
$USERI1
 70
     0
  9
$USERI2
 70
     0
  9
$USERI3
 70
     0
  9
$USERI4
 70
     0
  9
$USERI5
 70
     0
  9
$USERR1
 40
0.0
  9
$USERR2
 40
0.0
  9
$USERR3
 40
0.0
  9
$USERR4
 40
0.0
  9
$USERR5
 40
0.0
  9
$WORLDVIEW
 70
     1
  9
$SHADEDGE
 70
     3
  9
$SHADEDIF
 70
    70
  9
$TILEMODE
 70
     1
  9
$MAXACTVP
 70
    16
  9
$PINSBASE
 10
0.0
 20
0.0
 30
0.0
  9
$PLIMCHECK
 70
     0
  9
$PEXTMIN
 10
1.000000000000000E+20
 20
1.000000000000000E+20
 30
1.000000000000000E+20
  9
$PEXTMAX
 10
-1.000000000000000E+20
 20
-1.000000000000000E+20
 30
-1.000000000000000E+20
  9
$PLIMMIN
 10
0.0
 20
0.0
  9
$PLIMMAX
 10
12.0
 20
9.0
  9
$UNITMODE
 70
     0
  9
$VISRETAIN
 70
     0
  9
$PLINEGEN
 70
     0
  9
$PSLTSCALE
 70
     0
  9
$TREEDEPTH
 70
  3020
  9
$CMLSTYLE
  2
STANDARD
  9
$CMLJUST
 70
     0
  9
$CMLSCALE
 40
1.0
  9
$PROXYGRAPHICS
 70
     1
  9
$MEASUREMENT
 70
     0
  9
$CELWEIGHT
370
    -1
  9
$ENDCAPS
280
     0
  9
$JOINSTYLE
280
     0
  9
$LWDISPLAY
290
     0
  9
$INSUNITS
 70
     0
  9
$HYPERLINKBASE
  1

  9
$STYLESHEET
  1

  9
$XEDIT
290
     1
  9
$CEPSNTYPE
380
     0
  9
$PSTYLEMODE
290
     1
  9
$FINGERPRINTGUID
  2
{6E67B00D-D67B-462C-BED8-5B83071A8299}
  9
$VERSIONGUID
  2
{C8F34FF6-F65A-4D45-853A-94629A9B5D04}
  9
$EXTNAMES
290
     1
  9
$PSVPSCALE
 40
0.0
  9
$OLESTARTUP
290
     0
  0
ENDSEC
  0
SECTION
  2
CLASSES
  0
CLASS
  1
ACDBDICTIONARYWDFLT
  2
AcDbDictionaryWithDefault
  3
ObjectDBX Classes
 90
        0
280
     0
281
     0
  0
CLASS
  1
ACDBPLACEHOLDER
  2
AcDbPlaceHolder
  3
ObjectDBX Classes
 90
        0
280
     0
281
     0
  0
CLASS
  1
LAYOUT
  2
AcDbLayout
  3
ObjectDBX Classes
 90
        0
280
     0
281
     0
  0
CLASS
  1
DICTIONARYVAR
  2
AcDbDictionaryVar
  3
ObjectDBX Classes
 90
        0
280
     0
281
     0
  0
CLASS
  1
SORTENTSTABLE
  2
AcDbSortentsTable
  3
ObjectDBX Classes
 90
    32768
280
     0
281
     0
  0
ENDSEC
  0
SECTION
  2
TABLES
  0
TABLE
  2
VPORT
  5
165
330
0
100
AcDbSymbolTable
 70
     2
  0
VPORT
  5
17F
330
165
100
AcDbSymbolTableRecord
100
AcDbViewportTableRecord
  2
*Active
 70
     0
 10
0.0
 20
0.0
 11
1.0
 21
1.0
 12
-4.840864459001199
 22
22.79140436049409
 13
0.0
 23
0.0
 14
1.0
 24
1.0
 15
0.0
 25
0.0
 16
0.0
 26
0.0
 36
1.0
 17
23.09603071721725
 27
-10.27010416511326
 37
-10.44050274849355
 40
25.1654568021073
 41
2.092592592592592
 42
50.0
 43
10.55307667737539
 44
10.55307667737539
 50
0.0
 51
0.0
 71
     0
 72
   100
 73
     1
 74
     1
 75
     0
 76
     0
 77
     0
 78
     0
281
     0
 65
     1
110
0.0
120
0.0
130
0.0
111
1.0
121
0.0
131
0.0
112
0.0
122
1.0
132
0.0
 79
     0
146
0.0
  0
ENDTAB
  0
TABLE
  2
LTYPE
  5
160
330
0
100
AcDbSymbolTable
 70
     1
  0
LTYPE
  5
161
330
160
100
AcDbSymbolTableRecord
100
AcDbLinetypeTableRecord
  2
BYBLOCK
 70
     0
  3

 72
    65
 73
     0
 40
0.0
  0
LTYPE
  5
162
330
160
100
AcDbSymbolTableRecord
100
AcDbLinetypeTableRecord
  2
BYLAYER
 70
     0
  3

 72
    65
 73
     0
 40
0.0
  0
LTYPE
  5
5
330
160
100
AcDbSymbolTableRecord
100
AcDbLinetypeTableRecord
  2
CONTINUOUS
 70
     0
  3
Solid line
 72
    65
 73
     0
 40
0.0
  0
ENDTAB
  0
TABLE
  2
LAYER
  5
15E
330
0
100
AcDbSymbolTable
 70
     4
  0
LAYER
  5
8B
330
15E
100
AcDbSymbolTableRecord
100
AcDbLayerTableRecord
  2
0
 70
     0
 62
     7
  6
CONTINUOUS
370
    -3
390
173
  0
LAYER
  5
8
330
15E
100
AcDbSymbolTableRecord
100
AcDbLayerTableRecord
  2
USP-Geo
 70
     0
 62
     7
  6
CONTINUOUS
370
    -3
390
173
  0
LAYER
  5
86
330
15E
100
AcDbSymbolTableRecord
100
AcDbLayerTableRecord
  2
USP-Txt
 70
     0
 62
     7
  6
CONTINUOUS
370
    -3
390
173
  0
LAYER
  5
4
330
15E
100
AcDbSymbolTableRecord
100
AcDbLayerTableRecord
  2
USP
 70
     0
 62
     7
  6
CONTINUOUS
370
    -3
390
173
  0
ENDTAB
  0
TABLE
  2
STYLE
  5
15F
330
0
100
AcDbSymbolTable
 70
     1
  0
STYLE
  5
89
330
15F
100
AcDbSymbolTableRecord
100
AcDbTextStyleTableRecord
  2
STANDARD
 70
     0
 40
0.0
 41
1.0
 50
0.0
 71
     0
 42
0.25
  3
txt
  4

  0
ENDTAB
  0
TABLE
  2
VIEW
  5
163
330
0
100
AcDbSymbolTable
 70
     0
  0
ENDTAB
  0
TABLE
  2
UCS
  5
164
330
0
100
AcDbSymbolTable
 70
     0
  0
ENDTAB
  0
TABLE
  2
APPID
  5
167
330
0
100
AcDbSymbolTable
 70
     1
  0
APPID
  5
5D
330
167
100
AcDbSymbolTableRecord
100
AcDbRegAppTableRecord
  2
ACAD
 70
     0
  0
ENDTAB
  0
TABLE
  2
DIMSTYLE
  5
168
330
0
100
AcDbSymbolTable
 70
     1
100
AcDbDimStyleTable
 71
     0
  0
DIMSTYLE
105
16E
330
168
100
AcDbSymbolTableRecord
100
AcDbDimStyleTableRecord
  2
STANDARD
 70
     0
 41
0.125
 44
0.09375
 78
     8
140
0.109375
141
0.0
276
     2
277
     5
340
89
  0
ENDTAB
  0
TABLE
  2
BLOCK_RECORD
  5
1
330
0
100
AcDbSymbolTable
 70
     3
  0
BLOCK_RECORD
  5
2
102
{ACAD_XDICTIONARY
360
155
102
}
330
1
100
AcDbSymbolTableRecord
100
AcDbBlockTableRecord
  2
*MODEL_SPACE
340
178
  0
BLOCK_RECORD
  5
159
102
{ACAD_XDICTIONARY
360
15A
102
}
330
1
100
AcDbSymbolTableRecord
100
AcDbBlockTableRecord
  2
*PAPER_SPACE
340
179
  0
BLOCK_RECORD
  5
6
330
1
100
AcDbSymbolTableRecord
100
AcDbBlockTableRecord
  2
TFL25118PR_T
340
0
102
{BLKREFS
331
3
102
}
  0
BLOCK_RECORD
  5
8E
330
1
100
AcDbSymbolTableRecord
100
AcDbBlockTableRecord
  2
TFL25118PR_F
340
0
102
{BLKREFS
331
8D
102
}
  0
BLOCK_RECORD
  5
109
330
1
100
AcDbSymbolTableRecord
100
AcDbBlockTableRecord
  2
TFL25118PR_S
340
0
102
{BLKREFS
331
108
102
}
  0
ENDTAB
  0
ENDSEC
  0
SECTION
  2
BLOCKS
  0
BLOCK
  5
157
330
2
100
AcDbEntity
  8
0
100
AcDbBlockBegin
  2
*MODEL_SPACE
 70
     0
 10
0.0
 20
0.0
 30
0.0
  3
*MODEL_SPACE
  1

  0
ENDBLK
  5
158
330
2
100
AcDbEntity
  8
0
100
AcDbBlockEnd
  0
BLOCK
  5
15C
330
159
100
AcDbEntity
 67
     1
  8
0
100
AcDbBlockBegin
  2
*PAPER_SPACE
 70
     0
 10
0.0
 20
0.0
 30
0.0
  3
*PAPER_SPACE
  1

  0
ENDBLK
  5
15D
330
159
100
AcDbEntity
 67
     1
  8
0
100
AcDbBlockEnd
  0
BLOCK
  5
8A
330
6
100
AcDbEntity
  8
0
100
AcDbBlockBegin
  2
TFL25118PR_T
 70
     0
 10
0.0
 20
0.0
 30
0.0
  3
TFL25118PR_T
  1

  0
LWPOLYLINE
  5
7
330
6
100
AcDbEntity
  8
USP-Geo
100
AcDbPolyline
 90
        2
 70
   128
 43
0.0
 10
6.563660668866539
 20
2.2026168282866
 10
4.657606605690304
 20
2.2026168282866
  0
LWPOLYLINE
  5
B
330
6
100
AcDbEntity
  8
USP-Geo
100
AcDbPolyline
 90
        2
 70
   128
 43
0.0
 10
1.906054063176235
 20
2.2026168282866
 10
0.0
 20
2.2026168282866
  0
CIRCLE
  5
C
330
6
100
AcDbEntity
  8
USP-Geo
100
AcDbCircle
 10
4.963806078582987
 20
3.39597959246338
 30
0.0
 40
0.09
  0
CIRCLE
  5
D
330
6
100
AcDbEntity
  8
USP-Geo
100
AcDbCircle
 10
6.363806078582992
 20
3.195979592463391
 30
0.0
 40
0.09
  0
LWPOLYLINE
  5
E
330
6
100
AcDbEntity
  8
USP-Geo
100
AcDbPolyline
 90
        2
 70
   128
 43
0.0
 10
6.563660668866539
 20
3.696232608859013
 10
4.657606605690304
 20
3.696232608859013
  0
LWPOLYLINE
  5
F
330
6
100
AcDbEntity
  8
USP-Geo
100
AcDbPolyline
 90
        2
 70
   128
 43
0.0
 10
6.563660668866539
 20
3.696232608859013
 10
6.563660668866539
 20
2.241896664725061
  0
LWPOLYLINE
  5
10
330
6
100
AcDbEntity
  8
USP-Geo
100
AcDbPolyline
 90
        2
 70
   128
 43
0.0
 10
4.539767096374927
 20
0.2759408509801773
 10
4.598686851032615
 20
0.2759408509801773
  0
LWPOLYLINE
  5
11
330
6
100
AcDbEntity
  8
USP-Geo
100
AcDbPolyline
 90
        2
 70
   128
 43
0.0
 10
4.539767096374927
 20
0.9044182339955249
 10
4.598686851032615
 20
0.9044182339955249
  0
LWPOLYLINE
  5
12
330
6
100
AcDbEntity
  8
USP-Geo
100
AcDbPolyline
 90
        2
 70
   128
 43
0.0
 10
4.539767096374927
 20
2.142715077717951
 10
4.598686851032615
 20
2.142715077717951
  0
LWPOLYLINE
  5
13
330
6
100
AcDbEntity
  8
USP-Geo
100
AcDbPolyline
 90
        2
 70
   128
 43
0.0
 10
4.539767096374927
 20
0.0
 10
4.598686851032615
 20
0.0
  0
LWPOLYLINE
  5
14
330
6
100
AcDbEntity
  8
USP-Geo
100
AcDbPolyline
 90
        2
 70
   128
 43
0.0
 10
2.044515486621804
 20
2.123075159498721
 10
2.044515486621804
 20
1.926675977306427
  0
LWPOLYLINE
  5
15
330
6
100
AcDbEntity
  8
USP-Geo
100
AcDbPolyline
 90
        2
 70
   128
 43
0.0
 10
2.044515486621804
 20
1.926675977306427
 10
2.044515486621804
 20
1.022257743310902
  0
LWPOLYLINE
  5
16
330
6
100
AcDbEntity
  8
USP-Geo
100
AcDbPolyline
 90
        2
 70
   128
 43
0.0
 10
2.044515486621804
 20
1.022257743310902
 10
2.044515486621804
 20
0.9044182339955249
  0
LWPOLYLINE
  5
17
330
6
100
AcDbEntity
  8
USP-Geo
100
AcDbPolyline
 90
        2
 70
   128
 43
0.0
 10
2.044515486621804
 20
0.9044182339955249
 10
1.985595731964115
 20
0.9044182339955249
  0
LWPOLYLINE
  5
18
330
6
100
AcDbEntity
  8
USP-Geo
100
AcDbPolyline
 90
        2
 70
   128
 43
0.0
 10
2.044515486621804
 20
0.9044182339955249
 10
2.044515486621804
 20
0.8847783157762947
  0
LWPOLYLINE
  5
19
330
6
100
AcDbEntity
  8
USP-Geo
100
AcDbPolyline
 90
        2
 70
   128
 43
0.0
 10
2.044515486621804
 20
0.8847783157762947
 10
2.044515486621804
 20
0.2759408509801773
  0
LWPOLYLINE
  5
1A
330
6
100
AcDbEntity
  8
USP-Geo
100
AcDbPolyline
 90
        2
 70
   128
 43
0.0
 10
2.044515486621804
 20
0.2759408509801773
 10
1.985595731964115
 20
0.2759408509801773
  0
LWPOLYLINE
  5
1B
330
6
100
AcDbEntity
  8
USP-Geo
100
AcDbPolyline
 90
        2
 70
   128
 43
0.0
 10
2.044515486621804
 20
0.2759408509801773
 10
2.044515486621804
 20
0.1581013416647998
  0
LWPOLYLINE
  5
1C
330
6
100
AcDbEntity
  8
USP-Geo
100
AcDbPolyline
 90
        2
 70
   128
 43
0.0
 10
2.044515486621804
 20
0.1581013416647998
 10
2.044515486621804
 20
0.1188215052263395
  0
LWPOLYLINE
  5
1D
330
6
100
AcDbEntity
  8
USP-Geo
100
AcDbPolyline
 90
        2
 70
   128
 43
0.0
 10
2.044515486621804
 20
0.0
 10
1.985595731964115
 20
0.0
  0
LWPOLYLINE
  5
1E
330
6
100
AcDbEntity
  8
USP-Geo
100
AcDbPolyline
 90
        2
 70
   128
 43
0.0
 10
2.044515486621804
 20
0.1188215052263395
 10
2.044515486621804
 20
0.0
  0
LWPOLYLINE
  5
1F
330
6
100
AcDbEntity
  8
USP-Geo
100
AcDbPolyline
 90
        2
 70
   128
 43
0.0
 10
4.598686851032615
 20
2.2026168282866
 10
4.598686851032615
 20
2.142715077717951
  0
LWPOLYLINE
  5
20
330
6
100
AcDbEntity
  8
USP-Geo
100
AcDbPolyline
 90
        2
 70
   128
 43
0.0
 10
4.637966687471076
 20
2.2026168282866
 10
4.598686851032615
 20
2.2026168282866
  0
ARC
  5
21
330
6
100
AcDbEntity
  8
USP-Geo
100
AcDbCircle
 10
4.630739479000549
 20
2.105979592463402
 30
0.0
 40
0.09
100
AcDbArc
 50
108.3496448977139
 51
158.0106904017364
  0
LWPOLYLINE
  5
22
330
6
100
AcDbEntity
  8
USP-Geo
100
AcDbPolyline
 90
        2
 70
   128
 43
0.0
 10
4.539767096374927
 20
2.142715077717951
 10
4.539767096374927
 20
2.123075159498721
  0
LWPOLYLINE
  5
23
330
6
100
AcDbEntity
  8
USP-Geo
100
AcDbPolyline
 90
        2
 70
   128
 43
0.0
 10
4.539767096374927
 20
2.123075159498721
 10
4.540749092285889
 20
2.123075159498721
  0
LWPOLYLINE
  5
24
330
6
100
AcDbEntity
  8
USP-Geo
100
AcDbPolyline
 90
        2
 70
   128
 43
0.0
 10
4.637966687471076
 20
2.2026168282866
 10
4.657606605690304
 20
2.2026168282866
  0
LWPOLYLINE
  5
25
330
6
100
AcDbEntity
  8
USP-Geo
100
AcDbPolyline
 90
        2
 70
   128
 43
0.0
 10
4.598686851032615
 20
0.1188215052263395
 10
4.598686851032615
 20
0.0
  0
LWPOLYLINE
  5
26
330
6
100
AcDbEntity
  8
USP-Geo
100
AcDbPolyline
 90
        2
 70
   128
 43
0.0
 10
4.598686851032615
 20
0.1581013416647998
 10
4.598686851032615
 20
0.1188215052263395
  0
LWPOLYLINE
  5
27
330
6
100
AcDbEntity
  8
USP-Geo
100
AcDbPolyline
 90
        2
 70
   128
 43
0.0
 10
4.598686851032615
 20
0.1581013416647998
 10
4.598686851032615
 20
0.2759408509801773
  0
LWPOLYLINE
  5
28
330
6
100
AcDbEntity
  8
USP-Geo
100
AcDbPolyline
 90
        2
 70
   128
 43
0.0
 10
4.598686851032615
 20
0.2759408509801773
 10
4.598686851032615
 20
0.8847783157762947
  0
LWPOLYLINE
  5
29
330
6
100
AcDbEntity
  8
USP-Geo
100
AcDbPolyline
 90
        2
 70
   128
 43
0.0
 10
4.598686851032615
 20
0.8847783157762947
 10
4.598686851032615
 20
0.9044182339955249
  0
LWPOLYLINE
  5
2A
330
6
100
AcDbEntity
  8
USP-Geo
100
AcDbPolyline
 90
        2
 70
   128
 43
0.0
 10
4.598686851032615
 20
1.022257743310902
 10
4.598686851032615
 20
0.9044182339955249
  0
LWPOLYLINE
  5
2B
330
6
100
AcDbEntity
  8
USP-Geo
100
AcDbPolyline
 90
        2
 70
   128
 43
0.0
 10
4.598686851032615
 20
1.022257743310902
 10
4.598686851032615
 20
1.926675977306427
  0
LWPOLYLINE
  5
2C
330
6
100
AcDbEntity
  8
USP-Geo
100
AcDbPolyline
 90
        2
 70
   128
 43
0.0
 10
4.598686851032615
 20
2.123075159498721
 10
4.598686851032615
 20
1.926675977306427
  0
LWPOLYLINE
  5
2D
330
6
100
AcDbEntity
  8
USP-Geo
100
AcDbPolyline
 90
        2
 70
   128
 43
0.0
 10
4.598686851032615
 20
2.123075159498721
 10
4.599668846943577
 20
2.123075159498721
  0
LWPOLYLINE
  5
2E
330
6
100
AcDbEntity
  8
USP-Geo
100
AcDbPolyline
 90
        3
 70
   128
 43
0.0
 10
4.637966687471076
 20
2.142715077717951
 10
4.598686851032615
 20
2.142715077717951
 10
4.598686851032615
 20
2.123075159498721
  0
LWPOLYLINE
  5
2F
330
6
100
AcDbEntity
  8
USP-Geo
100
AcDbPolyline
 90
        2
 70
   128
 43
0.0
 10
4.657606605690304
 20
3.696232608859013
 10
4.657606605690304
 20
2.241896664725061
  0
LWPOLYLINE
  5
30
330
6
100
AcDbEntity
  8
USP-Geo
100
AcDbPolyline
 90
        2
 70
   128
 43
0.0
 10
4.598686851032615
 20
2.142715077717951
 10
4.657606605690304
 20
2.142715077717951
  0
LWPOLYLINE
  5
31
330
6
100
AcDbEntity
  8
USP-Geo
100
AcDbPolyline
 90
        2
 70
   128
 43
0.0
 10
6.563660668866539
 20
2.241896664725061
 10
6.563660668866539
 20
2.142715077717951
  0
LWPOLYLINE
  5
32
330
6
100
AcDbEntity
  8
USP-Geo
100
AcDbPolyline
 90
        2
 70
   128
 43
0.0
 10
6.563660668866539
 20
2.142715077717951
 10
4.657606605690304
 20
2.142715077717951
  0
LWPOLYLINE
  5
33
330
6
100
AcDbEntity
  8
USP-Geo
100
AcDbPolyline
 90
        2
 70
   128
 43
0.0
 10
4.657606605690304
 20
2.142715077717951
 10
4.657606605690304
 20
2.241896664725061
  0
LWPOLYLINE
  5
34
330
6
100
AcDbEntity
  8
USP-Geo
100
AcDbPolyline
 90
        2
 70
   128
 43
0.0
 10
2.083795323060263
 20
0.0
 10
2.044515486621804
 20
0.0
  0
LWPOLYLINE
  5
35
330
6
100
AcDbEntity
  8
USP-Geo
100
AcDbPolyline
 90
        2
 70
   128
 43
0.0
 10
2.044515486621804
 20
2.005235650183344
 10
2.083795323060263
 20
2.005235650183344
  0
LWPOLYLINE
  5
36
330
6
100
AcDbEntity
  8
USP-Geo
100
AcDbPolyline
 90
        2
 70
   128
 43
0.0
 10
2.083795323060263
 20
0.0
 10
4.500487259936468
 20
0.0
  0
LWPOLYLINE
  5
37
330
6
100
AcDbEntity
  8
USP-Geo
100
AcDbPolyline
 90
        2
 70
   128
 43
0.0
 10
4.500487259936468
 20
2.005235650183344
 10
2.083795323060263
 20
2.005235650183344
  0
LWPOLYLINE
  5
38
330
6
100
AcDbEntity
  8
USP-Geo
100
AcDbPolyline
 90
        2
 70
   128
 43
0.0
 10
3.046151315802514
 20
0.3741404420763246
 10
2.908671888267907
 20
0.2563009327609471
  0
LWPOLYLINE
  5
39
330
6
100
AcDbEntity
  8
USP-Geo
100
AcDbPolyline
 90
        2
 70
   128
 43
0.0
 10
2.908671888267907
 20
0.5116198696109322
 10
3.046151315802514
 20
0.3741404420763246
  0
LWPOLYLINE
  5
3A
330
6
100
AcDbEntity
  8
USP-Geo
100
AcDbPolyline
 90
        2
 70
   128
 43
0.0
 10
2.790832378952529
 20
0.3741404420763246
 10
2.908671888267907
 20
0.5116198696109322
  0
LWPOLYLINE
  5
3B
330
6
100
AcDbEntity
  8
USP-Geo
100
AcDbPolyline
 90
        2
 70
   128
 43
0.0
 10
2.908671888267907
 20
0.2563009327609471
 10
2.790832378952529
 20
0.3741404420763246
  0
LWPOLYLINE
  5
3C
330
6
100
AcDbEntity
  8
USP-Geo
100
AcDbPolyline
 90
        2
 70
   128
 43
0.0
 10
3.655970776509594
 20
0.2563009327609471
 10
3.537149271283254
 20
0.3741404420763246
  0
LWPOLYLINE
  5
3D
330
6
100
AcDbEntity
  8
USP-Geo
100
AcDbPolyline
 90
        2
 70
   128
 43
0.0
 10
3.793450204044201
 20
0.3741404420763246
 10
3.655970776509594
 20
0.2563009327609471
  0
LWPOLYLINE
  5
3E
330
6
100
AcDbEntity
  8
USP-Geo
100
AcDbPolyline
 90
        2
 70
   128
 43
0.0
 10
3.655970776509594
 20
0.5116198696109322
 10
3.793450204044201
 20
0.3741404420763246
  0
LWPOLYLINE
  5
3F
330
6
100
AcDbEntity
  8
USP-Geo
100
AcDbPolyline
 90
        2
 70
   128
 43
0.0
 10
3.537149271283254
 20
0.3741404420763246
 10
3.655970776509594
 20
0.5116198696109322
  0
LWPOLYLINE
  5
40
330
6
100
AcDbEntity
  8
USP-Geo
100
AcDbPolyline
 90
        2
 70
   128
 43
0.0
 10
4.539767096374927
 20
0.0
 10
4.500487259936468
 20
0.0
  0
LWPOLYLINE
  5
41
330
6
100
AcDbEntity
  8
USP-Geo
100
AcDbPolyline
 90
        2
 70
   128
 43
0.0
 10
4.500487259936468
 20
2.005235650183344
 10
4.539767096374927
 20
2.005235650183344
  0
LWPOLYLINE
  5
42
330
6
100
AcDbEntity
  8
USP-Geo
100
AcDbPolyline
 90
        2
 70
   128
 43
0.0
 10
1.985595731964115
 20
1.926675977306427
 10
1.985595731964115
 20
2.123075159498721
  0
LWPOLYLINE
  5
43
330
6
100
AcDbEntity
  8
USP-Geo
100
AcDbPolyline
 90
        2
 70
   128
 43
0.0
 10
1.985595731964115
 20
1.022257743310902
 10
1.985595731964115
 20
1.926675977306427
  0
LWPOLYLINE
  5
44
330
6
100
AcDbEntity
  8
USP-Geo
100
AcDbPolyline
 90
        2
 70
   128
 43
0.0
 10
1.985595731964115
 20
0.9044182339955249
 10
1.985595731964115
 20
1.022257743310902
  0
LWPOLYLINE
  5
45
330
6
100
AcDbEntity
  8
USP-Geo
100
AcDbPolyline
 90
        2
 70
   128
 43
0.0
 10
1.985595731964115
 20
0.9044182339955249
 10
1.985595731964115
 20
0.8847783157762947
  0
LWPOLYLINE
  5
46
330
6
100
AcDbEntity
  8
USP-Geo
100
AcDbPolyline
 90
        2
 70
   128
 43
0.0
 10
1.985595731964115
 20
0.2759408509801773
 10
1.985595731964115
 20
0.8847783157762947
  0
LWPOLYLINE
  5
47
330
6
100
AcDbEntity
  8
USP-Geo
100
AcDbPolyline
 90
        2
 70
   128
 43
0.0
 10
1.985595731964115
 20
0.2759408509801773
 10
1.985595731964115
 20
0.1581013416647998
  0
LWPOLYLINE
  5
48
330
6
100
AcDbEntity
  8
USP-Geo
100
AcDbPolyline
 90
        2
 70
   128
 43
0.0
 10
1.985595731964115
 20
0.1581013416647998
 10
1.985595731964115
 20
0.1188215052263395
  0
LWPOLYLINE
  5
49
330
6
100
AcDbEntity
  8
USP-Geo
100
AcDbPolyline
 90
        2
 70
   128
 43
0.0
 10
1.985595731964115
 20
0.0
 10
1.985595731964115
 20
0.1188215052263395
  0
LWPOLYLINE
  5
4A
330
6
100
AcDbEntity
  8
USP-Geo
100
AcDbPolyline
 90
        2
 70
   128
 43
0.0
 10
1.985595731964115
 20
2.123075159498721
 10
1.986577727875076
 20
2.123075159498721
  0
LWPOLYLINE
  5
4B
330
6
100
AcDbEntity
  8
USP-Geo
100
AcDbPolyline
 90
        2
 70
   128
 43
0.0
 10
1.906054063176235
 20
2.142715077717951
 10
1.985595731964115
 20
2.142715077717951
  0
LWPOLYLINE
  5
4C
330
6
100
AcDbEntity
  8
USP-Geo
100
AcDbPolyline
 90
        2
 70
   128
 43
0.0
 10
1.906054063176235
 20
2.2026168282866
 10
1.946315895525655
 20
2.2026168282866
  0
LWPOLYLINE
  5
4D
330
6
100
AcDbEntity
  8
USP-Geo
100
AcDbPolyline
 90
        2
 70
   128
 43
0.0
 10
1.985595731964115
 20
2.2026168282866
 10
1.985595731964115
 20
2.142715077717951
  0
LWPOLYLINE
  5
4E
330
6
100
AcDbEntity
  8
USP-Geo
100
AcDbPolyline
 90
        3
 70
   128
 43
0.0
 10
1.985595731964115
 20
2.123075159498721
 10
1.965955813744885
 20
2.142715077717951
 10
1.946315895525655
 20
2.142715077717951
  0
LWPOLYLINE
  5
4F
330
6
100
AcDbEntity
  8
USP-Geo
100
AcDbPolyline
 90
        2
 70
   128
 43
0.0
 10
2.024875568402574
 20
2.142715077717951
 10
1.985595731964115
 20
2.142715077717951
  0
LWPOLYLINE
  5
50
330
6
100
AcDbEntity
  8
USP-Geo
100
AcDbPolyline
 90
        2
 70
   128
 43
0.0
 10
2.044515486621804
 20
2.123075159498721
 10
2.024875568402574
 20
2.142715077717951
  0
ARC
  5
51
330
6
100
AcDbEntity
  8
USP-Geo
100
AcDbCircle
 10
1.950739479000542
 20
2.105979592463409
 30
0.0
 40
0.09
100
AcDbArc
 50
26.35906867653883
 51
70.16604470090939
  0
LWPOLYLINE
  5
52
330
6
100
AcDbEntity
  8
USP-Geo
100
AcDbPolyline
 90
        2
 70
   128
 43
0.0
 10
1.985595731964115
 20
2.2026168282866
 10
1.946315895525655
 20
2.2026168282866
  0
LWPOLYLINE
  5
53
330
6
100
AcDbEntity
  8
USP-Geo
100
AcDbPolyline
 90
        2
 70
   128
 43
0.0
 10
2.044515486621804
 20
2.123075159498721
 10
2.045497482532764
 20
2.123075159498721
  0
CIRCLE
  5
54
330
6
100
AcDbEntity
  8
USP-Geo
100
AcDbCircle
 10
0.2176728794183411
 20
3.19597959246342
 30
0.0
 40
0.09
  0
CIRCLE
  5
55
330
6
100
AcDbEntity
  8
USP-Geo
100
AcDbCircle
 10
1.617672879418346
 20
3.395979592463408
 30
0.0
 40
0.09
  0
LWPOLYLINE
  5
56
330
6
100
AcDbEntity
  8
USP-Geo
100
AcDbPolyline
 90
        2
 70
   128
 43
0.0
 10
0.0
 20
3.696232608859013
 10
0.0
 20
2.241896664725061
  0
LWPOLYLINE
  5
57
330
6
100
AcDbEntity
  8
USP-Geo
100
AcDbPolyline
 90
        2
 70
   128
 43
0.0
 10
0.0
 20
3.696232608859013
 10
1.906054063176235
 20
3.696232608859013
  0
LWPOLYLINE
  5
58
330
6
100
AcDbEntity
  8
USP-Geo
100
AcDbPolyline
 90
        2
 70
   128
 43
0.0
 10
1.906054063176235
 20
3.696232608859013
 10
1.906054063176235
 20
2.241896664725061
  0
LWPOLYLINE
  5
59
330
6
100
AcDbEntity
  8
USP-Geo
100
AcDbPolyline
 90
        2
 70
   128
 43
0.0
 10
1.906054063176235
 20
2.241896664725061
 10
1.906054063176235
 20
2.142715077717951
  0
LWPOLYLINE
  5
5A
330
6
100
AcDbEntity
  8
USP-Geo
100
AcDbPolyline
 90
        2
 70
   128
 43
0.0
 10
1.906054063176235
 20
2.142715077717951
 10
0.0
 20
2.142715077717951
  0
LWPOLYLINE
  5
5B
330
6
100
AcDbEntity
  8
USP-Geo
100
AcDbPolyline
 90
        2
 70
   128
 43
0.0
 10
0.0
 20
2.142715077717951
 10
0.0
 20
2.241896664725061
  0
ELLIPSE
  5
5C
330
6
100
AcDbEntity
  8
USP-Geo
  6
Continuous
370
     0
100
AcDbEllipse
 10
1.872787104798813
 20
0.3110150564913248
 30
0.0
 11
0.0
 21
-0.0779999999999994
 31
0.0
210
0.0
220
0.0
230
1.0
 40
0.7071067811865475
 41
3.923329448112212
 42
5.213369337229803
  0
ELLIPSE
  5
5E
330
6
100
AcDbEntity
  8
USP-Geo
  6
Continuous
370
     0
100
AcDbEllipse
 10
1.872787104798813
 20
0.3110150564913248
 30
0.0
 11
0.0
 21
-0.0779999999999994
 31
0.0
210
0.0
220
0.0
230
1.0
 40
0.7071067811865475
 41
3.540538178545195
 42
3.934288950905121
  0
ELLIPSE
  5
5F
330
6
100
AcDbEntity
  8
USP-Geo
  6
Continuous
370
     0
100
AcDbEllipse
 10
1.872787104798813
 20
0.3110150564913248
 30
0.0
 11
0.0
 21
-0.0779999999999994
 31
0.0
210
0.0
220
0.0
230
1.0
 40
0.7071067811865475
 41
5.222657474455717
 42
5.829251485267088
  0
ELLIPSE
  5
60
330
6
100
AcDbEntity
  8
USP-Geo
  6
Continuous
370
     0
100
AcDbEllipse
 10
1.834438727668906
 20
0.3110150564913248
 30
0.0
 11
0.0
 21
-0.0779999999999994
 31
0.0
210
0.0
220
0.0
230
1.0
 40
0.7071067811865475
 41
3.553975129814953
 42
6.170264019956454
  0
ELLIPSE
  5
61
330
6
100
AcDbEntity
  8
USP-Geo
  6
Continuous
370
     0
100
AcDbEllipse
 10
1.834438727668906
 20
0.3110150564913248
 30
0.0
 11
0.0
 21
-0.0779999999999994
 31
0.0
210
0.0
220
0.0
230
1.0
 40
0.7071067811865475
 41
3.567972006818199
 42
9.195189579215174
  0
ELLIPSE
  5
62
330
6
100
AcDbEntity
  8
USP-Geo
  6
Continuous
370
     0
100
AcDbEllipse
 10
1.834438727668906
 20
0.3110150564913248
 30
0.0
 11
0.0
 21
-0.0779999999999994
 31
0.0
210
0.0
220
0.0
230
1.0
 40
0.7071067811865475
 41
6.151864171961173
 42
6.537691476122956
  0
ELLIPSE
  5
63
330
6
100
AcDbEntity
  8
USP-Geo
  6
Continuous
370
     0
100
AcDbEllipse
 10
1.834438727668906
 20
0.3110150564913248
 30
0.0
 11
0.0
 21
-0.0779999999999994
 31
0.0
210
0.0
220
0.0
230
1.0
 40
0.7071067811865475
 41
0.710942046612983
 42
6.520119662717762
  0
ELLIPSE
  5
64
330
6
100
AcDbEntity
  8
USP-Geo
  6
Continuous
370
     0
100
AcDbEllipse
 10
1.834438727668906
 20
0.3110150564913248
 30
0.0
 11
0.0
 21
-0.0779999999999994
 31
0.0
210
0.0
220
0.0
230
1.0
 40
0.7071067811865475
 41
2.927972669572534
 42
8.783571961844545
  0
ELLIPSE
  5
65
330
6
100
AcDbEntity
  8
USP-Geo
  6
Continuous
370
     0
100
AcDbEllipse
 10
1.834438727668906
 20
0.3110150564913248
 30
0.0
 11
0.0
 21
-0.0779999999999994
 31
0.0
210
0.0
220
0.0
230
1.0
 40
0.7071067811865475
 41
1.125577408043162
 42
6.979369343089531
  0
ELLIPSE
  5
66
330
6
100
AcDbEntity
  8
USP-Geo
  6
Continuous
370
     0
100
AcDbEllipse
 10
1.834438727668906
 20
0.3110150564913248
 30
0.0
 11
0.0
 21
-0.0779999999999994
 31
0.0
210
0.0
220
0.0
230
1.0
 40
0.7071067811865475
 41
1.88449457479277
 42
2.514664639431812
  0
ELLIPSE
  5
67
330
6
100
AcDbEntity
  8
USP-Geo
  6
Continuous
370
     0
100
AcDbEllipse
 10
1.834438727668906
 20
0.3110150564913248
 30
0.0
 11
0.0
 21
-0.0779999999999994
 31
0.0
210
0.0
220
0.0
230
1.0
 40
0.7071067811865475
 41
1.879042232362965
 42
7.415994684409779
  0
ELLIPSE
  5
68
330
6
100
AcDbEntity
  8
USP-Geo
  6
Continuous
370
     0
100
AcDbEllipse
 10
4.708691853202278
 20
0.4985150564913248
 30
0.0
 11
0.0
 21
-0.0779999999999994
 31
0.0
210
0.0
220
0.0
230
1.0
 40
0.7071067811865475
 41
0.0
 42
6.283185307179586
  0
ELLIPSE
  5
69
330
6
100
AcDbEntity
  8
USP-Geo
  6
Continuous
370
     0
100
AcDbEllipse
 10
4.708691853202278
 20
0.4985150564913248
 30
0.0
 11
0.0
 21
-0.0779999999999994
 31
0.0
210
0.0
220
0.0
230
1.0
 40
0.7071067811865475
 41
2.027575055734275
 42
2.646874004050034
  0
ELLIPSE
  5
6A
330
6
100
AcDbEntity
  8
USP-Geo
  6
Continuous
370
     0
100
AcDbEllipse
 10
4.708691853202278
 20
0.4985150564913248
 30
0.0
 11
0.0
 21
-0.0779999999999994
 31
0.0
210
0.0
220
0.0
230
1.0
 40
0.7071067811865475
 41
1.473028134022564
 42
6.834436202322102
  0
ELLIPSE
  5
6B
330
6
100
AcDbEntity
  8
USP-Geo
  6
Continuous
370
     0
100
AcDbEllipse
 10
4.708691853202278
 20
0.4985150564913248
 30
0.0
 11
0.0
 21
-0.0779999999999994
 31
0.0
210
0.0
220
0.0
230
1.0
 40
0.7071067811865475
 41
2.019461011995137
 42
7.758197287991162
  0
ELLIPSE
  5
6C
330
6
100
AcDbEntity
  8
USP-Geo
  6
Continuous
370
     0
100
AcDbEllipse
 10
4.747040230332185
 20
0.4985150564913248
 30
0.0
 11
0.0
 21
-0.0779999999999994
 31
0.0
210
0.0
220
0.0
230
1.0
 40
0.7071067811865475
 41
4.066773638477892
 42
5.715246901772847
  0
ELLIPSE
  5
6D
330
6
100
AcDbEntity
  8
USP-Geo
  6
Continuous
370
     0
100
AcDbEllipse
 10
4.747040230332185
 20
0.4985150564913248
 30
0.0
 11
0.0
 21
-0.0779999999999994
 31
0.0
210
0.0
220
0.0
230
1.0
 40
0.7071067811865475
 41
3.667073873750306
 42
4.076250292394524
  0
ELLIPSE
  5
6E
330
6
100
AcDbEntity
  8
USP-Geo
  6
Continuous
370
     0
100
AcDbEllipse
 10
4.747040230332185
 20
0.4985150564913248
 30
0.0
 11
0.0
 21
-0.0779999999999994
 31
0.0
210
0.0
220
0.0
230
1.0
 40
0.7071067811865475
 41
5.700313478663273
 42
6.072628158985503
  0
ELLIPSE
  5
6F
330
6
100
AcDbEntity
  8
USP-Geo
  6
Continuous
370
     0
100
AcDbEllipse
 10
4.747040230332185
 20
0.4985150564913248
 30
0.0
 11
0.0
 21
-0.0779999999999994
 31
0.0
210
0.0
220
0.0
230
1.0
 40
0.7071067811865475
 41
0.5504581431281184
 42
6.05242839312588
  0
ELLIPSE
  5
70
330
6
100
AcDbEntity
  8
USP-Geo
  6
Continuous
370
     0
100
AcDbEllipse
 10
4.747040230332185
 20
0.4985150564913248
 30
0.0
 11
0.0
 21
-0.0779999999999994
 31
0.0
210
0.0
220
0.0
230
1.0
 40
0.7071067811865475
 41
2.618229916104315
 42
3.681382924663092
  0
ELLIPSE
  5
71
330
6
100
AcDbEntity
  8
USP-Geo
  6
Continuous
370
     0
100
AcDbEllipse
 10
4.747040230332185
 20
0.4985150564913248
 30
0.0
 11
0.0
 21
-0.0779999999999994
 31
0.0
210
0.0
220
0.0
230
1.0
 40
0.7071067811865475
 41
2.63281581002229
 42
8.510764688331226
  0
ELLIPSE
  5
72
330
6
100
AcDbEntity
  8
USP-Geo
  6
Continuous
370
     0
100
AcDbEllipse
 10
4.747040230332185
 20
0.4985150564913248
 30
0.0
 11
0.0
 21
-0.0779999999999994
 31
0.0
210
0.0
220
0.0
230
1.0
 40
0.7071067811865475
 41
0.5657243139968739
 42
2.217821643291618
  0
LWPOLYLINE
  5
73
330
6
100
AcDbEntity
  8
USP-Geo
100
AcDbPolyline
 90
        2
 70
   128
 43
0.0
 10
2.083795323060263
 20
1.002617825091672
 10
2.20163483237564
 20
1.120457334407049
  0
LWPOLYLINE
  5
74
330
6
100
AcDbEntity
  8
USP-Geo
100
AcDbPolyline
 90
        2
 70
   128
 43
0.0
 10
2.044515486621804
 20
1.002617825091672
 10
2.083795323060263
 20
1.002617825091672
  0
LWPOLYLINE
  5
75
330
6
100
AcDbEntity
  8
USP-Geo
100
AcDbPolyline
 90
        2
 70
   128
 43
0.0
 10
2.20163483237564
 20
1.120457334407049
 10
2.083795323060263
 20
1.258918757852619
  0
LWPOLYLINE
  5
76
330
6
100
AcDbEntity
  8
USP-Geo
100
AcDbPolyline
 90
        2
 70
   128
 43
0.0
 10
2.083795323060263
 20
1.258918757852619
 10
2.044515486621804
 20
1.258918757852619
  0
LWPOLYLINE
  5
77
330
6
100
AcDbEntity
  8
USP-Geo
100
AcDbPolyline
 90
        2
 70
   128
 43
0.0
 10
4.539767096374927
 20
1.926675977306427
 10
4.539767096374927
 20
2.123075159498721
  0
LWPOLYLINE
  5
78
330
6
100
AcDbEntity
  8
USP-Geo
100
AcDbPolyline
 90
        2
 70
   128
 43
0.0
 10
4.539767096374927
 20
1.022257743310902
 10
4.539767096374927
 20
1.926675977306427
  0
LWPOLYLINE
  5
79
330
6
100
AcDbEntity
  8
USP-Geo
100
AcDbPolyline
 90
        2
 70
   128
 43
0.0
 10
4.539767096374927
 20
0.9044182339955249
 10
4.539767096374927
 20
1.022257743310902
  0
LWPOLYLINE
  5
7A
330
6
100
AcDbEntity
  8
USP-Geo
100
AcDbPolyline
 90
        2
 70
   128
 43
0.0
 10
4.539767096374927
 20
0.8847783157762947
 10
4.539767096374927
 20
0.9044182339955249
  0
LWPOLYLINE
  5
7B
330
6
100
AcDbEntity
  8
USP-Geo
100
AcDbPolyline
 90
        2
 70
   128
 43
0.0
 10
4.539767096374927
 20
0.2759408509801773
 10
4.539767096374927
 20
0.8847783157762947
  0
LWPOLYLINE
  5
7C
330
6
100
AcDbEntity
  8
USP-Geo
100
AcDbPolyline
 90
        2
 70
   128
 43
0.0
 10
4.539767096374927
 20
0.1581013416647998
 10
4.539767096374927
 20
0.2759408509801773
  0
LWPOLYLINE
  5
7D
330
6
100
AcDbEntity
  8
USP-Geo
100
AcDbPolyline
 90
        2
 70
   128
 43
0.0
 10
4.539767096374927
 20
0.1188215052263395
 10
4.539767096374927
 20
0.1581013416647998
  0
LWPOLYLINE
  5
7E
330
6
100
AcDbEntity
  8
USP-Geo
100
AcDbPolyline
 90
        2
 70
   128
 43
0.0
 10
4.539767096374927
 20
0.0
 10
4.539767096374927
 20
0.1188215052263395
  0
LWPOLYLINE
  5
7F
330
6
100
AcDbEntity
  8
USP-Geo
100
AcDbPolyline
 90
        2
 70
   128
 43
0.0
 10
4.500487259936468
 20
1.002617825091672
 10
4.382647750621091
 20
1.120457334407049
  0
LWPOLYLINE
  5
80
330
6
100
AcDbEntity
  8
USP-Geo
100
AcDbPolyline
 90
        2
 70
   128
 43
0.0
 10
4.539767096374927
 20
1.002617825091672
 10
4.500487259936468
 20
1.002617825091672
  0
LWPOLYLINE
  5
81
330
6
100
AcDbEntity
  8
USP-Geo
100
AcDbPolyline
 90
        2
 70
   128
 43
0.0
 10
4.382647750621091
 20
1.120457334407049
 10
4.500487259936468
 20
1.258918757852619
  0
LWPOLYLINE
  5
82
330
6
100
AcDbEntity
  8
USP-Geo
100
AcDbPolyline
 90
        2
 70
   128
 43
0.0
 10
4.500487259936468
 20
1.258918757852619
 10
4.539767096374927
 20
1.258918757852619
  0
ARC
  5
83
330
6
100
AcDbEntity
  8
USP-Geo
100
AcDbCircle
 10
4.540739479000546
 20
0.4985150564913248
 30
0.0
 40
0.302
100
AcDbArc
 50
281.632215035103
 51
79.33485080212311
  0
ARC
  5
84
330
6
100
AcDbEntity
  8
USP-Geo
100
AcDbCircle
 10
2.040739479000546
 20
0.3110150564913248
 30
0.0
 40
0.302
100
AcDbArc
 50
100.4561739339155
 51
259.2833229688395
  0
TEXT
  5
85
330
6
100
AcDbEntity
  8
USP-Txt
100
AcDbText
 10
1.000474624831699
 20
-0.8402373954212496
 30
0.0
 40
0.25
  1
TFL25118 - TOP VIEW
 72
     1
 11
3.292141291498365
 21
-0.8402373954212496
 31
0.0
100
AcDbText
  0
ENDBLK
  5
8C
330
6
100
AcDbEntity
  8
0
100
AcDbBlockEnd
  0
BLOCK
  5
106
330
8E
100
AcDbEntity
  8
0
100
AcDbBlockBegin
  2
TFL25118PR_F
 70
     0
 10
0.0
 20
0.0
 30
0.0
  3
TFL25118PR_F
  1

  0
LWPOLYLINE
  5
8F
330
8E
100
AcDbEntity
  8
USP-Geo
100
AcDbPolyline
 90
        2
 70
   128
 43
0.0
 10
6.562724198829786
 20
11.93321431000391
 10
4.656670135653551
 20
11.93321431000391
  0
LWPOLYLINE
  5
90
330
8E
100
AcDbEntity
  8
USP-Geo
100
AcDbPolyline
 90
        2
 70
   128
 43
0.0
 10
1.905117593139481
 20
11.93321431000391
 10
-0.0009364700367531
 20
11.93321431000391
  0
CIRCLE
  5
91
330
8E
100
AcDbEntity
  8
USP-Geo
100
AcDbCircle
 10
1.541736409381576
 20
10.9359117587861
 30
0.0
 40
0.09
  0
LWPOLYLINE
  5
92
330
8E
100
AcDbEntity
  8
USP-Geo
100
AcDbPolyline
 90
        2
 70
   128
 43
0.0
 10
1.669438574508727
 20
4.620290761073768
 10
1.571238983412577
 20
4.738130270389145
  0
LWPOLYLINE
  5
93
330
8E
100
AcDbEntity
  8
USP-Geo
100
AcDbPolyline
 90
        2
 70
   128
 43
0.0
 10
1.787278083824104
 20
4.738130270389145
 10
1.669438574508727
 20
4.620290761073768
  0
LWPOLYLINE
  5
94
330
8E
100
AcDbEntity
  8
USP-Geo
100
AcDbPolyline
 90
        2
 70
   128
 43
0.0
 10
1.669438574508727
 20
4.836329861485292
 10
1.787278083824104
 20
4.738130270389145
  0
LWPOLYLINE
  5
95
330
8E
100
AcDbEntity
  8
USP-Geo
100
AcDbPolyline
 90
        2
 70
   128
 43
0.0
 10
1.571238983412577
 20
4.738130270389145
 10
1.669438574508727
 20
4.836329861485292
  0
LWPOLYLINE
  5
96
330
8E
100
AcDbEntity
  8
USP-Geo
100
AcDbPolyline
 90
        2
 70
   128
 43
0.0
 10
1.865837756701023
 20
2.162354995937182
 10
1.257000291904904
 20
5.307687898746804
  0
ARC
  5
97
330
8E
100
AcDbEntity
  8
USP-Geo
100
AcDbCircle
 10
1.987803008963829
 20
5.464073607484733
 30
0.0
 40
0.75
100
AcDbArc
 50
179.8690128331876
 51
192.0786493716916
  0
LWPOLYLINE
  5
98
330
8E
100
AcDbEntity
  8
USP-Geo
100
AcDbPolyline
 90
        2
 70
   128
 43
0.0
 10
1.237360373685675
 20
10.12437784201287
 10
1.237360373685675
 20
5.465789240411602
  0
ARC
  5
99
330
8E
100
AcDbEntity
  8
USP-Geo
100
AcDbCircle
 10
0.7378030089638291
 20
10.12813461385995
 30
0.0
 40
0.5
100
AcDbArc
 50
359.5691323377163
 51
40.85430084533675
  0
LWPOLYLINE
  5
9A
330
8E
100
AcDbEntity
  8
USP-Geo
100
AcDbPolyline
 90
        2
 70
   128
 43
0.0
 10
1.119520864370298
 20
10.45825645173977
 10
0.2151026303747734
 20
11.48051419505067
  0
ARC
  5
9B
330
8E
100
AcDbEntity
  8
USP-Geo
100
AcDbCircle
 10
0.0226203478850156
 20
11.3109117587861
 30
0.0
 40
0.25
100
AcDbArc
 50
41.38433232202891
 51
90.90426048148408
  0
ARC
  5
9C
330
8E
100
AcDbEntity
  8
USP-Geo
100
AcDbCircle
 10
0.0226203478850156
 20
11.66679569728953
 30
0.0
 40
0.1058839385034389
100
AcDbArc
 50
257.6646346041037
 51
267.9175716217087
  0
LWPOLYLINE
  5
9D
330
8E
100
AcDbEntity
  8
USP-Geo
100
AcDbPolyline
 90
        2
 70
   128
 43
0.0
 10
-0.0009364700367531
 20
11.89393447356546
 10
-0.0009364700367531
 20
11.55907386792759
  0
LWPOLYLINE
  5
9E
330
8E
100
AcDbEntity
  8
USP-Geo
100
AcDbPolyline
 90
        2
 70
   128
 43
0.0
 10
4.538830626338174
 20
2.064155404841031
 10
4.597750380995862
 20
2.064155404841031
  0
LWPOLYLINE
  5
9F
330
8E
100
AcDbEntity
  8
USP-Geo
100
AcDbPolyline
 90
        2
 70
   128
 43
0.0
 10
4.538830626338174
 20
2.162354995937182
 10
4.597750380995862
 20
2.162354995937182
  0
LWPOLYLINE
  5
A0
330
8E
100
AcDbEntity
  8
USP-Geo
100
AcDbPolyline
 90
        2
 70
   128
 43
0.0
 10
4.538830626338174
 20
11.57871378614682
 10
4.597750380995862
 20
11.57871378614682
  0
LWPOLYLINE
  5
A1
330
8E
100
AcDbEntity
  8
USP-Geo
100
AcDbPolyline
 90
        2
 70
   128
 43
0.0
 10
2.043579016585051
 20
1.946315895525653
 10
2.043579016585051
 20
0.0981995910961473
  0
LWPOLYLINE
  5
A2
330
8E
100
AcDbEntity
  8
USP-Geo
100
AcDbPolyline
 90
        2
 70
   128
 43
0.0
 10
2.043579016585051
 20
11.55907386792759
 10
2.043579016585051
 20
11.48051419505067
  0
LWPOLYLINE
  5
A3
330
8E
100
AcDbEntity
  8
USP-Geo
100
AcDbPolyline
 90
        2
 70
   128
 43
0.0
 10
2.043579016585051
 20
11.48051419505067
 10
2.043579016585051
 20
10.45825645173977
  0
LWPOLYLINE
  5
A4
330
8E
100
AcDbEntity
  8
USP-Geo
100
AcDbPolyline
 90
        2
 70
   128
 43
0.0
 10
2.043579016585051
 20
10.45825645173977
 10
2.043579016585051
 20
10.12437784201287
  0
LWPOLYLINE
  5
A5
330
8E
100
AcDbEntity
  8
USP-Geo
100
AcDbPolyline
 90
        2
 70
   128
 43
0.0
 10
2.043579016585051
 20
10.12437784201287
 10
2.043579016585051
 20
5.465789240411602
  0
LWPOLYLINE
  5
A6
330
8E
100
AcDbEntity
  8
USP-Geo
100
AcDbPolyline
 90
        2
 70
   128
 43
0.0
 10
2.043579016585051
 20
5.465789240411602
 10
2.043579016585051
 20
5.307687898746804
  0
LWPOLYLINE
  5
A7
330
8E
100
AcDbEntity
  8
USP-Geo
100
AcDbPolyline
 90
        2
 70
   128
 43
0.0
 10
2.043579016585051
 20
5.307687898746804
 10
2.043579016585051
 20
2.162354995937182
  0
LWPOLYLINE
  5
A8
330
8E
100
AcDbEntity
  8
USP-Geo
100
AcDbPolyline
 90
        2
 70
   128
 43
0.0
 10
2.043579016585051
 20
2.162354995937182
 10
1.984659261927362
 20
2.162354995937182
  0
LWPOLYLINE
  5
A9
330
8E
100
AcDbEntity
  8
USP-Geo
100
AcDbPolyline
 90
        2
 70
   128
 43
0.0
 10
2.043579016585051
 20
2.162354995937182
 10
2.043579016585051
 20
2.064155404841031
  0
LWPOLYLINE
  5
AA
330
8E
100
AcDbEntity
  8
USP-Geo
100
AcDbPolyline
 90
        2
 70
   128
 43
0.0
 10
2.043579016585051
 20
2.064155404841031
 10
1.984659261927362
 20
2.064155404841031
  0
LWPOLYLINE
  5
AB
330
8E
100
AcDbEntity
  8
USP-Geo
100
AcDbPolyline
 90
        2
 70
   128
 43
0.0
 10
2.043579016585051
 20
2.064155404841031
 10
2.043579016585051
 20
1.946315895525653
  0
LWPOLYLINE
  5
AC
330
8E
100
AcDbEntity
  8
USP-Geo
100
AcDbPolyline
 90
        2
 70
   128
 43
0.0
 10
4.538830626338174
 20
11.57871378614682
 10
4.538830626338174
 20
11.55907386792759
  0
LWPOLYLINE
  5
AD
330
8E
100
AcDbEntity
  8
USP-Geo
100
AcDbPolyline
 90
        2
 70
   128
 43
0.0
 10
4.538830626338174
 20
11.55907386792759
 10
4.539812622249136
 20
11.55907386792759
  0
LWPOLYLINE
  5
AE
330
8E
100
AcDbEntity
  8
USP-Geo
100
AcDbPolyline
 90
        2
 70
   128
 43
0.0
 10
4.597750380995862
 20
0.0981995910961473
 10
4.597750380995862
 20
1.946315895525653
  0
LWPOLYLINE
  5
AF
330
8E
100
AcDbEntity
  8
USP-Geo
100
AcDbPolyline
 90
        2
 70
   128
 43
0.0
 10
4.597750380995862
 20
2.064155404841031
 10
4.597750380995862
 20
1.946315895525653
  0
LWPOLYLINE
  5
B0
330
8E
100
AcDbEntity
  8
USP-Geo
100
AcDbPolyline
 90
        2
 70
   128
 43
0.0
 10
4.597750380995862
 20
2.064155404841031
 10
4.597750380995862
 20
2.162354995937182
  0
LWPOLYLINE
  5
B1
330
8E
100
AcDbEntity
  8
USP-Geo
100
AcDbPolyline
 90
        2
 70
   128
 43
0.0
 10
4.597750380995862
 20
2.162354995937182
 10
4.597750380995862
 20
5.307687898746804
  0
LWPOLYLINE
  5
B2
330
8E
100
AcDbEntity
  8
USP-Geo
100
AcDbPolyline
 90
        2
 70
   128
 43
0.0
 10
4.597750380995862
 20
5.307687898746804
 10
4.597750380995862
 20
5.465789240411602
  0
LWPOLYLINE
  5
B3
330
8E
100
AcDbEntity
  8
USP-Geo
100
AcDbPolyline
 90
        2
 70
   128
 43
0.0
 10
4.597750380995862
 20
10.12437784201287
 10
4.597750380995862
 20
5.465789240411602
  0
LWPOLYLINE
  5
B4
330
8E
100
AcDbEntity
  8
USP-Geo
100
AcDbPolyline
 90
        2
 70
   128
 43
0.0
 10
4.597750380995862
 20
10.45825645173977
 10
4.597750380995862
 20
10.12437784201287
  0
LWPOLYLINE
  5
B5
330
8E
100
AcDbEntity
  8
USP-Geo
100
AcDbPolyline
 90
        2
 70
   128
 43
0.0
 10
4.597750380995862
 20
10.45825645173977
 10
4.597750380995862
 20
11.48051419505067
  0
LWPOLYLINE
  5
B6
330
8E
100
AcDbEntity
  8
USP-Geo
100
AcDbPolyline
 90
        2
 70
   128
 43
0.0
 10
4.597750380995862
 20
11.55907386792759
 10
4.597750380995862
 20
11.48051419505067
  0
LWPOLYLINE
  5
B7
330
8E
100
AcDbEntity
  8
USP-Geo
100
AcDbPolyline
 90
        2
 70
   128
 43
0.0
 10
4.597750380995862
 20
11.55907386792759
 10
4.598732376906824
 20
11.55907386792759
  0
LWPOLYLINE
  5
B8
330
8E
100
AcDbEntity
  8
USP-Geo
100
AcDbPolyline
 90
        2
 70
   128
 43
0.0
 10
4.597750380995862
 20
11.55907386792759
 10
4.637030217434323
 20
11.57871378614682
  0
LWPOLYLINE
  5
B9
330
8E
100
AcDbEntity
  8
USP-Geo
100
AcDbPolyline
 90
        2
 70
   128
 43
0.0
 10
4.637030217434323
 20
2.083795323060261
 10
4.597750380995862
 20
2.064155404841031
  0
LWPOLYLINE
  5
BA
330
8E
100
AcDbEntity
  8
USP-Geo
100
AcDbPolyline
 90
        2
 70
   128
 43
0.0
 10
6.562724198829786
 20
11.55907386792759
 10
6.562724198829786
 20
11.89393447356546
  0
ARC
  5
BB
330
8E
100
AcDbEntity
  8
USP-Geo
100
AcDbCircle
 10
6.556985670042812
 20
11.66679569728964
 30
0.0
 40
0.1058839385034389
100
AcDbArc
 50
273.0493632101776
 51
273.5699290369512
  0
ARC
  5
BC
330
8E
100
AcDbEntity
  8
USP-Geo
100
AcDbCircle
 10
6.556985670042812
 20
11.3109117587862
 30
0.0
 40
0.25
100
AcDbArc
 50
88.67532196843596
 51
138.3452654036768
  0
LWPOLYLINE
  5
BD
330
8E
100
AcDbEntity
  8
USP-Geo
100
AcDbPolyline
 90
        2
 70
   128
 43
0.0
 10
5.462888778552929
 20
10.45825645173977
 10
6.36632501663749
 20
11.48051419505067
  0
ARC
  5
BE
330
8E
100
AcDbEntity
  8
USP-Geo
100
AcDbCircle
 10
5.841803008963998
 20
10.12813461386005
 30
0.0
 40
0.5
100
AcDbArc
 50
138.9366090330294
 51
180.4332993408575
  0
LWPOLYLINE
  5
BF
330
8E
100
AcDbEntity
  8
USP-Geo
100
AcDbPolyline
 90
        2
 70
   128
 43
0.0
 10
5.345049269237549
 20
10.12437784201287
 10
5.345049269237549
 20
5.465789240411602
  0
ARC
  5
C0
330
8E
100
AcDbEntity
  8
USP-Geo
100
AcDbCircle
 10
4.591803008963998
 20
5.46407360748479
 30
0.0
 40
0.75
100
AcDbArc
 50
347.9661635728837
 51
0.130499626886681
  0
LWPOLYLINE
  5
C1
330
8E
100
AcDbEntity
  8
USP-Geo
100
AcDbPolyline
 90
        2
 70
   128
 43
0.0
 10
4.715589890311242
 20
2.162354995937182
 10
5.325409351018321
 20
5.307687898746804
  0
ARC
  5
C2
330
8E
100
AcDbEntity
  8
USP-Geo
100
AcDbCircle
 10
4.591803008964027
 20
2.201536758786188
 30
0.0
 40
0.125
100
AcDbArc
 50
291.012937263552
 51
342.4360680794387
  0
LWPOLYLINE
  5
C3
330
8E
100
AcDbEntity
  8
USP-Geo
100
AcDbPolyline
 90
        2
 70
   128
 43
0.0
 10
4.637030217434323
 20
11.57871378614682
 10
4.597750380995862
 20
11.57871378614682
  0
ARC
  5
C4
330
8E
100
AcDbEntity
  8
USP-Geo
100
AcDbCircle
 10
4.556985670042812
 20
11.66679569728964
 30
0.0
 40
0.1058839385034389
100
AcDbArc
 50
294.8349151906415
 51
6.353604279701104
  0
LWPOLYLINE
  5
C5
330
8E
100
AcDbEntity
  8
USP-Geo
100
AcDbPolyline
 90
        2
 70
   128
 43
0.0
 10
4.656670135653551
 20
11.67789537315393
 10
4.656670135653551
 20
11.89393447356546
  0
CIRCLE
  5
C6
330
8E
100
AcDbEntity
  8
USP-Geo
100
AcDbCircle
 10
5.037869608546251
 20
10.9359117587862
 30
0.0
 40
0.09
  0
LWPOLYLINE
  5
C7
330
8E
100
AcDbEntity
  8
USP-Geo
100
AcDbPolyline
 90
        2
 70
   128
 43
0.0
 10
5.010188663599685
 20
4.738130270389145
 10
4.892349154284308
 20
4.620290761073768
  0
LWPOLYLINE
  5
C8
330
8E
100
AcDbEntity
  8
USP-Geo
100
AcDbPolyline
 90
        2
 70
   128
 43
0.0
 10
4.892349154284308
 20
4.836329861485292
 10
5.010188663599685
 20
4.738130270389145
  0
LWPOLYLINE
  5
C9
330
8E
100
AcDbEntity
  8
USP-Geo
100
AcDbPolyline
 90
        2
 70
   128
 43
0.0
 10
4.794149563188159
 20
4.738130270389145
 10
4.892349154284308
 20
4.836329861485292
  0
LWPOLYLINE
  5
CA
330
8E
100
AcDbEntity
  8
USP-Geo
100
AcDbPolyline
 90
        2
 70
   128
 43
0.0
 10
4.892349154284308
 20
4.620290761073768
 10
4.794149563188159
 20
4.738130270389145
  0
LWPOLYLINE
  5
CB
330
8E
100
AcDbEntity
  8
USP-Geo
100
AcDbPolyline
 90
        2
 70
   128
 43
0.0
 10
4.656670135653551
 20
11.9921340646616
 10
6.562724198829786
 20
11.9921340646616
  0
LWPOLYLINE
  5
CC
330
8E
100
AcDbEntity
  8
USP-Geo
100
AcDbPolyline
 90
        2
 70
   128
 43
0.0
 10
6.562724198829786
 20
11.9921340646616
 10
6.562724198829786
 20
11.89393447356546
  0
LWPOLYLINE
  5
CD
330
8E
100
AcDbEntity
  8
USP-Geo
100
AcDbPolyline
 90
        2
 70
   128
 43
0.0
 10
4.656670135653551
 20
11.89393447356546
 10
4.656670135653551
 20
11.9921340646616
  0
ARC
  5
CE
330
8E
100
AcDbEntity
  8
USP-Geo
100
AcDbCircle
 10
2.077803008963804
 20
0.0989117587861142
 30
0.0
 40
0.09
100
AcDbArc
 50
180.4380692116433
 51
272.9261095206231
  0
LWPOLYLINE
  5
CF
330
8E
100
AcDbEntity
  8
USP-Geo
100
AcDbPolyline
 90
        2
 70
   128
 43
0.0
 10
2.08285885302351
 20
0.0
 10
4.499550789899715
 20
0.0
  0
ARC
  5
D0
330
8E
100
AcDbEntity
  8
USP-Geo
100
AcDbCircle
 10
4.501803008963796
 20
0.0989117587860999
 30
0.0
 40
0.09
100
AcDbArc
 50
268.6956014759268
 51
359.5747308888704
  0
ARC
  5
D1
330
8E
100
AcDbEntity
  8
USP-Geo
100
AcDbCircle
 10
2.077803008963789
 20
0.0989117587860999
 30
0.0
 40
0.038
100
AcDbArc
 50
181.1920968893409
 51
277.2051880269976
  0
LWPOLYLINE
  5
D2
330
8E
100
AcDbEntity
  8
USP-Geo
100
AcDbPolyline
 90
        2
 70
   128
 43
0.0
 10
2.08285885302351
 20
0.058919754657687
 10
4.499550789899715
 20
0.058919754657687
  0
ARC
  5
D3
330
8E
100
AcDbEntity
  8
USP-Geo
100
AcDbCircle
 10
4.50180300896408
 20
0.0989117587860999
 30
0.0
 40
0.038
100
AcDbArc
 50
266.7766935925467
 51
358.8981421042082
  0
LWPOLYLINE
  5
D4
330
8E
100
AcDbEntity
  8
USP-Geo
100
AcDbPolyline
 90
        2
 70
   128
 43
0.0
 10
1.984659261927362
 20
11.48051419505067
 10
1.984659261927362
 20
11.55907386792759
  0
LWPOLYLINE
  5
D5
330
8E
100
AcDbEntity
  8
USP-Geo
100
AcDbPolyline
 90
        2
 70
   128
 43
0.0
 10
1.984659261927362
 20
10.45825645173977
 10
1.984659261927362
 20
11.48051419505067
  0
LWPOLYLINE
  5
D6
330
8E
100
AcDbEntity
  8
USP-Geo
100
AcDbPolyline
 90
        2
 70
   128
 43
0.0
 10
1.984659261927362
 20
10.12437784201287
 10
1.984659261927362
 20
10.45825645173977
  0
LWPOLYLINE
  5
D7
330
8E
100
AcDbEntity
  8
USP-Geo
100
AcDbPolyline
 90
        2
 70
   128
 43
0.0
 10
1.984659261927362
 20
10.12437784201287
 10
1.984659261927362
 20
5.465789240411602
  0
LWPOLYLINE
  5
D8
330
8E
100
AcDbEntity
  8
USP-Geo
100
AcDbPolyline
 90
        2
 70
   128
 43
0.0
 10
1.984659261927362
 20
5.465789240411602
 10
1.984659261927362
 20
5.307687898746804
  0
LWPOLYLINE
  5
D9
330
8E
100
AcDbEntity
  8
USP-Geo
100
AcDbPolyline
 90
        2
 70
   128
 43
0.0
 10
1.984659261927362
 20
2.162354995937182
 10
1.984659261927362
 20
5.307687898746804
  0
LWPOLYLINE
  5
DA
330
8E
100
AcDbEntity
  8
USP-Geo
100
AcDbPolyline
 90
        2
 70
   128
 43
0.0
 10
1.984659261927362
 20
2.162354995937182
 10
1.984659261927362
 20
2.064155404841031
  0
LWPOLYLINE
  5
DB
330
8E
100
AcDbEntity
  8
USP-Geo
100
AcDbPolyline
 90
        2
 70
   128
 43
0.0
 10
1.984659261927362
 20
1.946315895525653
 10
1.984659261927362
 20
2.064155404841031
  0
LWPOLYLINE
  5
DC
330
8E
100
AcDbEntity
  8
USP-Geo
100
AcDbPolyline
 90
        2
 70
   128
 43
0.0
 10
1.984659261927362
 20
1.946315895525653
 10
1.984659261927362
 20
0.0981995910961473
  0
LWPOLYLINE
  5
DD
330
8E
100
AcDbEntity
  8
USP-Geo
100
AcDbPolyline
 90
        2
 70
   128
 43
0.0
 10
1.984659261927362
 20
11.55907386792759
 10
1.985641257838323
 20
11.55907386792759
  0
ARC
  5
DE
330
8E
100
AcDbEntity
  8
USP-Geo
100
AcDbCircle
 10
1.9878030089638
 20
2.201536758786103
 30
0.0
 40
0.125
100
AcDbArc
 50
197.809796340694
 51
250.1853294935278
  0
LWPOLYLINE
  5
DF
330
8E
100
AcDbEntity
  8
USP-Geo
100
AcDbPolyline
 90
        2
 70
   128
 43
0.0
 10
1.984659261927362
 20
2.064155404841031
 10
1.945379425488902
 20
2.083795323060261
  0
ARC
  5
E0
330
8E
100
AcDbEntity
  8
USP-Geo
100
AcDbCircle
 10
2.022620347885015
 20
11.66679569728953
 30
0.0
 40
0.1058839385034389
100
AcDbArc
 50
174.6036753258916
 51
246.6851744118365
  0
LWPOLYLINE
  5
E1
330
8E
100
AcDbEntity
  8
USP-Geo
100
AcDbPolyline
 90
        2
 70
   128
 43
0.0
 10
1.945379425488902
 20
11.57871378614682
 10
1.984659261927362
 20
11.55907386792759
  0
LWPOLYLINE
  5
E2
330
8E
100
AcDbEntity
  8
USP-Geo
100
AcDbPolyline
 90
        2
 70
   128
 43
0.0
 10
1.984659261927362
 20
11.57871378614682
 10
1.945379425488902
 20
11.57871378614682
  0
LWPOLYLINE
  5
E3
330
8E
100
AcDbEntity
  8
USP-Geo
100
AcDbPolyline
 90
        2
 70
   128
 43
0.0
 10
2.023939098365821
 20
11.57871378614682
 10
1.984659261927362
 20
11.57871378614682
  0
LWPOLYLINE
  5
E4
330
8E
100
AcDbEntity
  8
USP-Geo
100
AcDbPolyline
 90
        2
 70
   128
 43
0.0
 10
2.043579016585051
 20
11.55907386792759
 10
2.023939098365821
 20
11.57871378614682
  0
LWPOLYLINE
  5
E5
330
8E
100
AcDbEntity
  8
USP-Geo
100
AcDbPolyline
 90
        2
 70
   128
 43
0.0
 10
2.043579016585051
 20
11.55907386792759
 10
2.044561012496012
 20
11.55907386792759
  0
LWPOLYLINE
  5
E6
330
8E
100
AcDbEntity
  8
USP-Geo
100
AcDbPolyline
 90
        2
 70
   128
 43
0.0
 10
1.905117593139481
 20
11.89393447356546
 10
1.905117593139481
 20
11.67789537315393
  0
LWPOLYLINE
  5
E7
330
8E
100
AcDbEntity
  8
USP-Geo
100
AcDbPolyline
 90
        2
 70
   128
 43
0.0
 10
-0.0009364700367531
 20
11.9921340646616
 10
1.905117593139481
 20
11.9921340646616
  0
LWPOLYLINE
  5
E8
330
8E
100
AcDbEntity
  8
USP-Geo
100
AcDbPolyline
 90
        2
 70
   128
 43
0.0
 10
1.905117593139481
 20
11.9921340646616
 10
1.905117593139481
 20
11.89393447356546
  0
LWPOLYLINE
  5
E9
330
8E
100
AcDbEntity
  8
USP-Geo
100
AcDbPolyline
 90
        2
 70
   128
 43
0.0
 10
-0.0009364700367531
 20
11.89393447356546
 10
-0.0009364700367531
 20
11.9921340646616
  0
LWPOLYLINE
  5
EA
330
8E
100
AcDbEntity
  8
USP-Geo
100
AcDbPolyline
 90
        2
 70
   128
 43
0.0
 10
1.885477674920253
 20
1.494597776483374
 10
1.767638165604874
 20
1.376758267167996
  0
LWPOLYLINE
  5
EB
330
8E
100
AcDbEntity
  8
USP-Geo
100
AcDbPolyline
 90
        2
 70
   128
 43
0.0
 10
4.695949972092011
 20
1.494597776483374
 10
4.794149563188159
 20
1.376758267167996
  0
LWPOLYLINE
  5
EC
330
8E
100
AcDbEntity
  8
USP-Geo
100
AcDbPolyline
 90
        2
 70
   128
 43
0.0
 10
2.08285885302351
 20
0.8651383975570645
 10
2.200698362338887
 20
0.806218642899374
  0
LWPOLYLINE
  5
ED
330
8E
100
AcDbEntity
  8
USP-Geo
100
AcDbPolyline
 90
        2
 70
   128
 43
0.0
 10
2.043579016585051
 20
0.9044182339955249
 10
2.08285885302351
 20
0.8651383975570645
  0
LWPOLYLINE
  5
EE
330
8E
100
AcDbEntity
  8
USP-Geo
100
AcDbPolyline
 90
        2
 70
   128
 43
0.0
 10
2.06321893480428
 20
0.8258585611186042
 10
2.08285885302351
 20
0.8651383975570645
  0
LWPOLYLINE
  5
EF
330
8E
100
AcDbEntity
  8
USP-Geo
100
AcDbPolyline
 90
        2
 70
   128
 43
0.0
 10
2.161418525900429
 20
0.7472988882416871
 10
2.200698362338887
 20
0.806218642899374
  0
LWPOLYLINE
  5
F0
330
8E
100
AcDbEntity
  8
USP-Geo
100
AcDbPolyline
 90
        2
 70
   128
 43
0.0
 10
2.06321893480428
 20
0.8258585611186042
 10
2.043579016585051
 20
0.8258585611186042
  0
LWPOLYLINE
  5
F1
330
8E
100
AcDbEntity
  8
USP-Geo
100
AcDbPolyline
 90
        2
 70
   128
 43
0.0
 10
2.161418525900429
 20
0.7472988882416871
 10
2.06321893480428
 20
0.8258585611186042
  0
LWPOLYLINE
  5
F2
330
8E
100
AcDbEntity
  8
USP-Geo
100
AcDbPolyline
 90
        2
 70
   128
 43
0.0
 10
4.538830626338174
 20
11.48051419505067
 10
4.538830626338174
 20
11.55907386792759
  0
LWPOLYLINE
  5
F3
330
8E
100
AcDbEntity
  8
USP-Geo
100
AcDbPolyline
 90
        2
 70
   128
 43
0.0
 10
4.538830626338174
 20
10.45825645173977
 10
4.538830626338174
 20
11.48051419505067
  0
LWPOLYLINE
  5
F4
330
8E
100
AcDbEntity
  8
USP-Geo
100
AcDbPolyline
 90
        2
 70
   128
 43
0.0
 10
4.538830626338174
 20
10.12437784201287
 10
4.538830626338174
 20
10.45825645173977
  0
LWPOLYLINE
  5
F5
330
8E
100
AcDbEntity
  8
USP-Geo
100
AcDbPolyline
 90
        2
 70
   128
 43
0.0
 10
4.538830626338174
 20
5.465789240411602
 10
4.538830626338174
 20
10.12437784201287
  0
LWPOLYLINE
  5
F6
330
8E
100
AcDbEntity
  8
USP-Geo
100
AcDbPolyline
 90
        2
 70
   128
 43
0.0
 10
4.538830626338174
 20
5.307687898746804
 10
4.538830626338174
 20
5.465789240411602
  0
LWPOLYLINE
  5
F7
330
8E
100
AcDbEntity
  8
USP-Geo
100
AcDbPolyline
 90
        2
 70
   128
 43
0.0
 10
4.538830626338174
 20
2.162354995937182
 10
4.538830626338174
 20
5.307687898746804
  0
LWPOLYLINE
  5
F8
330
8E
100
AcDbEntity
  8
USP-Geo
100
AcDbPolyline
 90
        2
 70
   128
 43
0.0
 10
4.538830626338174
 20
2.064155404841031
 10
4.538830626338174
 20
2.162354995937182
  0
LWPOLYLINE
  5
F9
330
8E
100
AcDbEntity
  8
USP-Geo
100
AcDbPolyline
 90
        2
 70
   128
 43
0.0
 10
4.538830626338174
 20
1.946315895525653
 10
4.538830626338174
 20
2.064155404841031
  0
LWPOLYLINE
  5
FA
330
8E
100
AcDbEntity
  8
USP-Geo
100
AcDbPolyline
 90
        2
 70
   128
 43
0.0
 10
4.538830626338174
 20
0.0981995910961473
 10
4.538830626338174
 20
1.946315895525653
  0
LWPOLYLINE
  5
FB
330
8E
100
AcDbEntity
  8
USP-Geo
100
AcDbPolyline
 90
        2
 70
   128
 43
0.0
 10
4.499550789899715
 20
0.8651383975570645
 10
4.381711280584338
 20
0.806218642899374
  0
LWPOLYLINE
  5
FC
330
8E
100
AcDbEntity
  8
USP-Geo
100
AcDbPolyline
 90
        2
 70
   128
 43
0.0
 10
4.401351198803566
 20
0.7472988882416871
 10
4.519190708118945
 20
0.8258585611186042
  0
LWPOLYLINE
  5
FD
330
8E
100
AcDbEntity
  8
USP-Geo
100
AcDbPolyline
 90
        2
 70
   128
 43
0.0
 10
4.519190708118945
 20
0.8258585611186042
 10
4.538830626338174
 20
0.8258585611186042
  0
LWPOLYLINE
  5
FE
330
8E
100
AcDbEntity
  8
USP-Geo
100
AcDbPolyline
 90
        2
 70
   128
 43
0.0
 10
4.519190708118945
 20
0.8258585611186042
 10
4.499550789899715
 20
0.8651383975570645
  0
LWPOLYLINE
  5
FF
330
8E
100
AcDbEntity
  8
USP-Geo
100
AcDbPolyline
 90
        2
 70
   128
 43
0.0
 10
4.538830626338174
 20
0.9044182339955249
 10
4.499550789899715
 20
0.8651383975570645
  0
LWPOLYLINE
  5
100
330
8E
100
AcDbEntity
  8
USP-Geo
100
AcDbPolyline
 90
        2
 70
   128
 43
0.0
 10
4.401351198803566
 20
0.7472988882416871
 10
4.381711280584338
 20
0.806218642899374
  0
ARC
  5
101
330
8E
100
AcDbEntity
  8
USP-Geo
100
AcDbCircle
 10
4.539803008963793
 20
1.232161758786117
 30
0.0
 40
0.302
100
AcDbArc
 50
59.24775229409827
 51
78.39113232416202
  0
ARC
  5
102
330
8E
100
AcDbEntity
  8
USP-Geo
100
AcDbCircle
 10
4.539803008963793
 20
1.232161758786117
 30
0.0
 40
0.302
100
AcDbArc
 50
280.6516193560783
 51
29.61831408848174
  0
ARC
  5
103
330
8E
100
AcDbEntity
  8
USP-Geo
100
AcDbCircle
 10
2.039803008963793
 20
1.232161758786217
 30
0.0
 40
0.302
100
AcDbArc
 50
101.0613943200875
 51
120.4576299496165
  0
ARC
  5
104
330
8E
100
AcDbEntity
  8
USP-Geo
100
AcDbCircle
 10
2.039803008963793
 20
1.232161758786217
 30
0.0
 40
0.302
100
AcDbArc
 50
152.0190586072748
 51
259.8527586226876
  0
TEXT
  5
105
330
8E
100
AcDbEntity
  8
USP-Txt
100
AcDbText
 10
0.7495381547949478
 20
-1.356565113022186
 30
0.0
 40
0.25
  1
TFL25118 - FRONT VIEW
 72
     1
 11
3.291204821461612
 21
-1.356565113022186
 31
0.0
100
AcDbText
  0
ENDBLK
  5
107
330
8E
100
AcDbEntity
  8
0
100
AcDbBlockEnd
  0
BLOCK
  5
153
330
109
100
AcDbEntity
  8
0
100
AcDbBlockBegin
  2
TFL25118PR_S
 70
     0
 10
0.0
 20
0.0
 30
0.0
  3
TFL25118PR_S
  1

  0
LWPOLYLINE
  5
10A
330
109
100
AcDbEntity
  8
USP-Geo
100
AcDbPolyline
 90
        2
 70
   128
 43
0.0
 10
1.985595731964114
 20
0.058919754657687
 10
0.0
 20
0.058919754657687
  0
LWPOLYLINE
  5
10B
330
109
100
AcDbEntity
  8
USP-Geo
100
AcDbPolyline
 90
        2
 70
   128
 43
0.0
 10
3.695250612948051
 20
11.9921340646616
 10
2.221274750594869
 20
11.9921340646616
  0
LWPOLYLINE
  5
10C
330
109
100
AcDbEntity
  8
USP-Geo
100
AcDbPolyline
 90
        2
 70
   128
 43
0.0
 10
3.695250612948051
 20
11.93321431000391
 10
3.695250612948051
 20
11.9921340646616
  0
LWPOLYLINE
  5
10D
330
109
100
AcDbEntity
  8
USP-Geo
100
AcDbPolyline
 90
        2
 70
   128
 43
0.0
 10
3.695250612948051
 20
11.93321431000391
 10
2.221274750594869
 20
11.93321431000391
  0
LWPOLYLINE
  5
10E
330
109
100
AcDbEntity
  8
USP-Geo
100
AcDbPolyline
 90
        2
 70
   128
 43
0.0
 10
2.201634832375638
 20
11.55907386792759
 10
2.142715077717951
 20
11.55907386792759
  0
LWPOLYLINE
  5
10F
330
109
100
AcDbEntity
  8
USP-Geo
100
AcDbPolyline
 90
        2
 70
   128
 43
0.0
 10
2.201634832375638
 20
2.162354995937182
 10
2.142715077717951
 20
2.162354995937182
  0
LWPOLYLINE
  5
110
330
109
100
AcDbEntity
  8
USP-Geo
100
AcDbPolyline
 90
        2
 70
   128
 43
0.0
 10
2.181994914156408
 20
2.064155404841031
 10
2.123075159498721
 20
2.064155404841031
  0
LWPOLYLINE
  5
111
330
109
100
AcDbEntity
  8
USP-Geo
100
AcDbPolyline
 90
        2
 70
   128
 43
0.0
 10
2.181994914156408
 20
2.064155404841031
 10
2.201634832375638
 20
2.083795323060261
  0
LWPOLYLINE
  5
112
330
109
100
AcDbEntity
  8
USP-Geo
100
AcDbPolyline
 90
        2
 70
   128
 43
0.0
 10
2.201634832375638
 20
2.162354995937182
 10
2.201634832375638
 20
2.083795323060261
  0
LWPOLYLINE
  5
113
330
109
100
AcDbEntity
  8
USP-Geo
100
AcDbPolyline
 90
        2
 70
   128
 43
0.0
 10
2.201634832375638
 20
5.307687898746804
 10
2.201634832375638
 20
2.162354995937182
  0
LWPOLYLINE
  5
114
330
109
100
AcDbEntity
  8
USP-Geo
100
AcDbPolyline
 90
        2
 70
   128
 43
0.0
 10
2.201634832375638
 20
5.465789240411602
 10
2.201634832375638
 20
5.307687898746804
  0
LWPOLYLINE
  5
115
330
109
100
AcDbEntity
  8
USP-Geo
100
AcDbPolyline
 90
        2
 70
   128
 43
0.0
 10
2.201634832375638
 20
10.12437784201287
 10
2.201634832375638
 20
5.465789240411602
  0
LWPOLYLINE
  5
116
330
109
100
AcDbEntity
  8
USP-Geo
100
AcDbPolyline
 90
        2
 70
   128
 43
0.0
 10
2.201634832375638
 20
10.45825645173977
 10
2.201634832375638
 20
10.12437784201287
  0
LWPOLYLINE
  5
117
330
109
100
AcDbEntity
  8
USP-Geo
100
AcDbPolyline
 90
        2
 70
   128
 43
0.0
 10
2.201634832375638
 20
11.48051419505067
 10
2.201634832375638
 20
10.45825645173977
  0
LWPOLYLINE
  5
118
330
109
100
AcDbEntity
  8
USP-Geo
100
AcDbPolyline
 90
        2
 70
   128
 43
0.0
 10
2.201634832375638
 20
11.55907386792759
 10
2.201634832375638
 20
11.48051419505067
  0
LWPOLYLINE
  5
119
330
109
100
AcDbEntity
  8
USP-Geo
100
AcDbPolyline
 90
        2
 70
   128
 43
0.0
 10
2.201634832375638
 20
11.55907386792759
 10
2.2026168282866
 20
11.55907386792759
  0
LWPOLYLINE
  5
11A
330
109
100
AcDbEntity
  8
USP-Geo
100
AcDbPolyline
 90
        2
 70
   128
 43
0.0
 10
2.201634832375638
 20
11.89393447356546
 10
2.201634832375638
 20
11.55907386792759
  0
ARC
  5
11B
330
109
100
AcDbEntity
  8
USP-Geo
100
AcDbCircle
 10
2.229871818015135
 20
11.89791175878622
 30
0.0
 40
0.038
100
AcDbArc
 50
103.6865687014301
 51
188.0175805134232
  0
CIRCLE
  5
11C
330
109
100
AcDbEntity
  8
USP-Geo
100
AcDbCircle
 10
1.389871818015132
 20
9.935911758786145
 30
0.0
 40
0.15625
  0
LWPOLYLINE
  5
11D
330
109
100
AcDbEntity
  8
USP-Geo
100
AcDbPolyline
 90
        2
 70
   128
 43
0.0
 10
1.709654880983936
 20
3.617672935982096
 10
1.591815371668559
 20
3.499833426666718
  0
LWPOLYLINE
  5
11E
330
109
100
AcDbEntity
  8
USP-Geo
100
AcDbPolyline
 90
        2
 70
   128
 43
0.0
 10
1.591815371668559
 20
3.735512445297473
 10
1.709654880983936
 20
3.617672935982096
  0
LWPOLYLINE
  5
11F
330
109
100
AcDbEntity
  8
USP-Geo
100
AcDbPolyline
 90
        2
 70
   128
 43
0.0
 10
1.473975862353182
 20
3.617672935982096
 10
1.591815371668559
 20
3.735512445297473
  0
LWPOLYLINE
  5
120
330
109
100
AcDbEntity
  8
USP-Geo
100
AcDbPolyline
 90
        2
 70
   128
 43
0.0
 10
1.591815371668559
 20
3.499833426666718
 10
1.473975862353182
 20
3.617672935982096
  0
LWPOLYLINE
  5
121
330
109
100
AcDbEntity
  8
USP-Geo
100
AcDbPolyline
 90
        2
 70
   128
 43
0.0
 10
1.257936761941657
 20
0.8454984793378343
 10
1.120457334407049
 20
0.7080190518032268
  0
LWPOLYLINE
  5
122
330
109
100
AcDbEntity
  8
USP-Geo
100
AcDbPolyline
 90
        2
 70
   128
 43
0.0
 10
1.257936761941657
 20
0.9044182339955249
 10
1.257936761941657
 20
0.8454984793378343
  0
LWPOLYLINE
  5
123
330
109
100
AcDbEntity
  8
USP-Geo
100
AcDbPolyline
 90
        2
 70
   128
 43
0.0
 10
0.982977906872442
 20
0.9044182339955249
 10
1.257936761941657
 20
0.9044182339955249
  0
LWPOLYLINE
  5
124
330
109
100
AcDbEntity
  8
USP-Geo
100
AcDbPolyline
 90
        2
 70
   128
 43
0.0
 10
0.982977906872442
 20
0.8454984793378343
 10
0.982977906872442
 20
0.9044182339955249
  0
LWPOLYLINE
  5
125
330
109
100
AcDbEntity
  8
USP-Geo
100
AcDbPolyline
 90
        2
 70
   128
 43
0.0
 10
0.0
 20
0.0981995910961473
 10
0.0
 20
1.946315895525653
  0
ARC
  5
126
330
109
100
AcDbEntity
  8
USP-Geo
100
AcDbCircle
 10
0.1171884175973563
 20
1.951536758786131
 30
0.0
 40
0.125
100
AcDbArc
 50
89.66875474707533
 51
182.5508985078927
  0
LWPOLYLINE
  5
127
330
109
100
AcDbEntity
  8
USP-Geo
100
AcDbPolyline
 90
        2
 70
   128
 43
0.0
 10
0.1374794275346076
 20
2.064155404841031
 10
0.1178395093153774
 20
2.064155404841031
  0
ARC
  5
128
330
109
100
AcDbEntity
  8
USP-Geo
100
AcDbCircle
 10
0.1398718180151324
 20
2.201536758786131
 30
0.0
 40
0.125
100
AcDbArc
 50
269.0023389642423
 51
341.4004258031468
  0
LWPOLYLINE
  5
129
330
109
100
AcDbEntity
  8
USP-Geo
100
AcDbPolyline
 90
        2
 70
   128
 43
0.0
 10
0.2563009327609471
 20
2.162354995937182
 10
0.8847783157762947
 20
5.307687898746804
  0
ARC
  5
12A
330
109
100
AcDbEntity
  8
USP-Geo
100
AcDbCircle
 10
0.1398718180151039
 20
5.464073607484733
 30
0.0
 40
0.75
100
AcDbArc
 50
348.143510620795
 51
0.1319606586743083
  0
LWPOLYLINE
  5
12B
330
109
100
AcDbEntity
  8
USP-Geo
100
AcDbPolyline
 90
        2
 70
   128
 43
0.0
 10
0.8847783157762947
 20
10.12437784201287
 10
0.8847783157762947
 20
5.465789240411602
  0
ARC
  5
12C
330
109
100
AcDbEntity
  8
USP-Geo
100
AcDbCircle
 10
1.389871818015132
 20
10.12813461386
 30
0.0
 40
0.5
100
AcDbArc
 50
138.0757812244979
 51
180.4261452610617
  0
LWPOLYLINE
  5
12D
330
109
100
AcDbEntity
  8
USP-Geo
100
AcDbPolyline
 90
        2
 70
   128
 43
0.0
 10
1.022257743310902
 20
10.45825645173977
 10
1.926675977306423
 20
11.48051419505067
  0
ARC
  5
12E
330
109
100
AcDbEntity
  8
USP-Geo
100
AcDbCircle
 10
2.105054479093917
 20
11.31091175878614
 30
0.0
 40
0.25
100
AcDbArc
 50
90.3738450504125
 51
136.4446910529545
  0
LWPOLYLINE
  5
12F
330
109
100
AcDbEntity
  8
USP-Geo
100
AcDbPolyline
 90
        2
 70
   128
 43
0.0
 10
2.103435241279491
 20
2.064155404841031
 10
2.123075159498721
 20
2.064155404841031
  0
ARC
  5
130
330
109
100
AcDbEntity
  8
USP-Geo
100
AcDbCircle
 10
2.117188417597356
 20
1.951536758786131
 30
0.0
 40
0.125
100
AcDbArc
 50
87.00778875092485
 51
182.2719851456474
  0
LWPOLYLINE
  5
131
330
109
100
AcDbEntity
  8
USP-Geo
100
AcDbPolyline
 90
        2
 70
   128
 43
0.0
 10
2.103435241279491
 20
11.55907386792759
 10
2.104417237190453
 20
11.55907386792759
  0
LWPOLYLINE
  5
132
330
109
100
AcDbEntity
  8
USP-Geo
100
AcDbPolyline
 90
        2
 70
   128
 43
0.0
 10
2.103435241279491
 20
11.55907386792759
 10
2.142715077717951
 20
11.57871378614682
  0
LWPOLYLINE
  5
133
330
109
100
AcDbEntity
  8
USP-Geo
100
AcDbPolyline
 90
        2
 70
   128
 43
0.0
 10
2.142715077717951
 20
2.083795323060261
 10
2.103435241279491
 20
2.064155404841031
  0
LWPOLYLINE
  5
134
330
109
100
AcDbEntity
  8
USP-Geo
100
AcDbPolyline
 90
        2
 70
   128
 43
0.0
 10
2.142715077717951
 20
11.55907386792759
 10
2.142715077717951
 20
11.89393447356546
  0
LWPOLYLINE
  5
135
330
109
100
AcDbEntity
  8
USP-Geo
100
AcDbPolyline
 90
        2
 70
   128
 43
0.0
 10
2.142715077717951
 20
11.55907386792759
 10
2.143697073628914
 20
11.55907386792759
  0
LWPOLYLINE
  5
136
330
109
100
AcDbEntity
  8
USP-Geo
100
AcDbPolyline
 90
        2
 70
   128
 43
0.0
 10
2.142715077717951
 20
11.55907386792759
 10
2.142715077717951
 20
11.48051419505067
  0
LWPOLYLINE
  5
137
330
109
100
AcDbEntity
  8
USP-Geo
100
AcDbPolyline
 90
        2
 70
   128
 43
0.0
 10
2.142715077717951
 20
10.45825645173977
 10
2.142715077717951
 20
11.48051419505067
  0
LWPOLYLINE
  5
138
330
109
100
AcDbEntity
  8
USP-Geo
100
AcDbPolyline
 90
        2
 70
   128
 43
0.0
 10
2.142715077717951
 20
10.45825645173977
 10
2.142715077717951
 20
10.12437784201287
  0
LWPOLYLINE
  5
139
330
109
100
AcDbEntity
  8
USP-Geo
100
AcDbPolyline
 90
        2
 70
   128
 43
0.0
 10
2.142715077717951
 20
10.12437784201287
 10
2.142715077717951
 20
5.465789240411602
  0
LWPOLYLINE
  5
13A
330
109
100
AcDbEntity
  8
USP-Geo
100
AcDbPolyline
 90
        2
 70
   128
 43
0.0
 10
2.142715077717951
 20
5.307687898746804
 10
2.142715077717951
 20
5.465789240411602
  0
LWPOLYLINE
  5
13B
330
109
100
AcDbEntity
  8
USP-Geo
100
AcDbPolyline
 90
        2
 70
   128
 43
0.0
 10
2.142715077717951
 20
2.162354995937182
 10
2.142715077717951
 20
5.307687898746804
  0
LWPOLYLINE
  5
13C
330
109
100
AcDbEntity
  8
USP-Geo
100
AcDbPolyline
 90
        2
 70
   128
 43
0.0
 10
2.142715077717951
 20
2.083795323060261
 10
2.142715077717951
 20
2.162354995937182
  0
ARC
  5
13D
330
109
100
AcDbEntity
  8
USP-Geo
100
AcDbCircle
 10
2.229871818015107
 20
11.89791175878622
 30
0.0
 40
0.09
100
AcDbArc
 50
95.21336786091188
 51
182.6128062007382
  0
LWPOLYLINE
  5
13E
330
109
100
AcDbEntity
  8
USP-Geo
100
AcDbPolyline
 90
        2
 70
   128
 43
0.0
 10
1.985595731964114
 20
0.0981995910961473
 10
1.985595731964114
 20
1.946315895525653
  0
LWPOLYLINE
  5
13F
330
109
100
AcDbEntity
  8
USP-Geo
100
AcDbPolyline
 90
        2
 70
   128
 43
0.0
 10
1.985595731964114
 20
0.0981995910961473
 10
1.985595731964114
 20
0.0
  0
LWPOLYLINE
  5
140
330
109
100
AcDbEntity
  8
USP-Geo
100
AcDbPolyline
 90
        2
 70
   128
 43
0.0
 10
1.985595731964114
 20
0.0
 10
0.0
 20
0.0
  0
LWPOLYLINE
  5
141
330
109
100
AcDbEntity
  8
USP-Geo
100
AcDbPolyline
 90
        2
 70
   128
 43
0.0
 10
0.0
 20
0.0
 10
0.0
 20
0.0981995910961473
  0
ARC
  5
142
330
109
100
AcDbEntity
  8
USP-Geo
100
AcDbCircle
 10
0.3069072820430492
 20
1.232161758786217
 30
0.0
 40
0.25
100
AcDbArc
 50
35.23505646574093
 51
54.38334513697864
  0
ELLIPSE
  5
143
330
109
100
AcDbEntity
  8
USP-Geo
  6
Continuous
370
     0
100
AcDbEllipse
 10
0.494407282043051
 20
1.40011413298785
 30
0.0
 11
-0.0779999999999994
 21
0.0000000000000017
 31
0.0
210
0.0
220
0.0
230
1.0
 40
0.7071067811865476
 41
3.425723908684039
 42
6.011969031526122
  0
CIRCLE
  5
144
330
109
100
AcDbEntity
  8
USP-Geo
100
AcDbCircle
 10
0.494407282043051
 20
1.232161758786117
 30
0.0
 40
0.2974894956128692
  0
ELLIPSE
  5
145
330
109
100
AcDbEntity
  8
USP-Geo
  6
Continuous
370
     0
100
AcDbEllipse
 10
0.494407282043051
 20
1.438462510117757
 30
0.0
 11
-0.0779999999999994
 21
0.0000000000000012
 31
0.0
210
0.0
220
0.0
230
1.0
 40
0.7071067811865476
 41
3.873303486827389
 42
6.660572666378441
  0
ELLIPSE
  5
146
330
109
100
AcDbEntity
  8
USP-Geo
  6
Continuous
370
     0
100
AcDbEllipse
 10
0.494407282043051
 20
1.438462510117757
 30
0.0
 11
-0.0779999999999994
 21
0.0000000000000012
 31
0.0
210
0.0
220
0.0
230
1.0
 40
0.7071067811865476
 41
0.373226844702272
 42
0.7780797399302945
  0
ELLIPSE
  5
147
330
109
100
AcDbEntity
  8
USP-Geo
  6
Continuous
370
     0
100
AcDbEllipse
 10
0.494407282043051
 20
1.438462510117757
 30
0.0
 11
-0.0779999999999994
 21
0.0000000000000012
 31
0.0
210
0.0
220
0.0
230
1.0
 40
0.7071067811865476
 41
0.7700135501989307
 42
1.333711776990034
  0
ELLIPSE
  5
148
330
109
100
AcDbEntity
  8
USP-Geo
  6
Continuous
370
     0
100
AcDbEllipse
 10
0.494407282043051
 20
1.438462510117757
 30
0.0
 11
-0.0779999999999994
 21
0.0000000000000012
 31
0.0
210
0.0
220
0.0
230
1.0
 40
0.7071067811865476
 41
1.323106901473558
 42
1.776354219920656
  0
ELLIPSE
  5
149
330
109
100
AcDbEntity
  8
USP-Geo
  6
Continuous
370
     0
100
AcDbEllipse
 10
0.494407282043051
 20
1.438462510117757
 30
0.0
 11
-0.0779999999999994
 21
0.0000000000000012
 31
0.0
210
0.0
220
0.0
230
1.0
 40
0.7071067811865476
 41
2.338981091263948
 42
8.048731187430172
  0
ELLIPSE
  5
14A
330
109
100
AcDbEntity
  8
USP-Geo
  6
Continuous
370
     0
100
AcDbEllipse
 10
0.494407282043051
 20
1.438462510117757
 30
0.0
 11
-0.0779999999999994
 21
0.0000000000000012
 31
0.0
210
0.0
220
0.0
230
1.0
 40
0.7071067811865476
 41
2.751429901694835
 42
8.613557764708611
  0
ELLIPSE
  5
14B
330
109
100
AcDbEntity
  8
USP-Geo
  6
Continuous
370
     0
100
AcDbEllipse
 10
0.494407282043051
 20
1.438462510117757
 30
0.0
 11
-0.0779999999999994
 21
0.0000000000000012
 31
0.0
210
0.0
220
0.0
230
1.0
 40
0.7071067811865476
 41
3.881878076555569
 42
9.724575771830215
  0
ELLIPSE
  5
14C
330
109
100
AcDbEntity
  8
USP-Geo
  6
Continuous
370
     0
100
AcDbEllipse
 10
0.494407282043051
 20
1.438462510117757
 30
0.0
 11
-0.0779999999999994
 21
0.0000000000000012
 31
0.0
210
0.0
220
0.0
230
1.0
 40
0.7071067811865476
 41
3.445025737471067
 42
9.03008655945811
  0
ELLIPSE
  5
14D
330
109
100
AcDbEntity
  8
USP-Geo
  6
Continuous
370
     0
100
AcDbEllipse
 10
0.494407282043051
 20
1.438462510117757
 30
0.0
 11
-0.0779999999999994
 21
0.0000000000000012
 31
0.0
210
0.0
220
0.0
230
1.0
 40
0.7071067811865476
 41
3.089914813597041
 42
3.09057174511371
  0
LWPOLYLINE
  5
14E
330
109
100
AcDbEntity
  8
USP-Geo
100
AcDbPolyline
 90
        2
 70
   128
 43
0.0
 10
1.120457334407049
 20
0.7080190518032268
 10
0.982977906872442
 20
0.8454984793378343
  0
LWPOLYLINE
  5
14F
330
109
100
AcDbEntity
  8
USP-Geo
100
AcDbPolyline
 90
        2
 70
   128
 43
0.0
 10
1.120457334407049
 20
0.7472988882416871
 10
1.022257743310902
 20
0.806218642899374
  0
LWPOLYLINE
  5
150
330
109
100
AcDbEntity
  8
USP-Geo
100
AcDbPolyline
 90
        2
 70
   128
 43
0.0
 10
0.982977906872442
 20
0.8454984793378343
 10
1.257936761941657
 20
0.8454984793378343
  0
LWPOLYLINE
  5
151
330
109
100
AcDbEntity
  8
USP-Geo
100
AcDbPolyline
 90
        2
 70
   128
 43
0.0
 10
1.199017007283966
 20
0.806218642899374
 10
1.120457334407049
 20
0.7472988882416871
  0
TEXT
  5
152
330
109
100
AcDbEntity
  8
USP-Txt
100
AcDbText
 10
-0.5273746935259736
 20
-1.356565113022186
 30
0.0
 40
0.25
  1
TFL25118 - SIDE VIEW
 72
     1
 11
1.847625306474025
 21
-1.356565113022186
 31
0.0
100
AcDbText
  0
ENDBLK
  5
154
330
109
100
AcDbEntity
  8
0
100
AcDbBlockEnd
  0
ENDSEC
  0
SECTION
  2
ENTITIES
  0
INSERT
  5
3
330
2
100
AcDbEntity
  8
USP
100
AcDbBlockReference
  2
TFL25118PR_T
 10
-0.0112149234623935
 20
16.00235251375257
 30
0.0
  0
INSERT
  5
8D
330
2
100
AcDbEntity
  8
USP
100
AcDbBlockReference
  2
TFL25118PR_F
 10
-0.0102784534256404
 20
1.356865497673044
 30
0.0
  0
INSERT
  5
108
330
2
100
AcDbEntity
  8
USP
100
AcDbBlockReference
  2
TFL25118PR_S
 10
9.873555916275876
 20
1.356865497673044
 30
0.0
  0
ENDSEC
  0
SECTION
  2
OBJECTS
  0
DICTIONARY
  5
16C
330
0
100
AcDbDictionary
281
     1
  3
ACAD_COLOR
350
175
  3
ACAD_GROUP
350
16A
  3
ACAD_LAYOUT
350
176
  3
ACAD_MATERIAL
350
174
  3
ACAD_MLINESTYLE
350
16B
  3
ACAD_PLOTSETTINGS
350
177
  3
ACAD_PLOTSTYLENAME
350
172
  3
ACDBHEADERROUNDTRIPXREC
350
180
  3
AcDbVariableDictionary
350
17C
  0
DICTIONARY
  5
155
330
2
100
AcDbDictionary
280
     1
281
     1
  3
ACAD_LAYOUTSELFREF
360
156
  0
DICTIONARY
  5
15A
330
159
100
AcDbDictionary
280
     1
281
     1
  3
ACAD_LAYOUTSELFREF
360
15B
  0
DICTIONARY
  5
175
102
{ACAD_REACTORS
330
16C
102
}
330
16C
100
AcDbDictionary
281
     1
  0
DICTIONARY
  5
16A
102
{ACAD_REACTORS
330
16C
102
}
330
16C
100
AcDbDictionary
281
     1
  0
DICTIONARY
  5
176
102
{ACAD_REACTORS
330
16C
102
}
330
16C
100
AcDbDictionary
281
     1
  3
Layout1
350
179
  3
Model
350
178
  0
DICTIONARY
  5
174
102
{ACAD_REACTORS
330
16C
102
}
330
16C
100
AcDbDictionary
281
     1
  0
DICTIONARY
  5
16B
102
{ACAD_REACTORS
330
16C
102
}
330
16C
100
AcDbDictionary
281
     1
  3
STANDARD
350
16D
  0
DICTIONARY
  5
177
102
{ACAD_REACTORS
330
16C
102
}
330
16C
100
AcDbDictionary
281
     1
  0
ACDBDICTIONARYWDFLT
  5
172
102
{ACAD_REACTORS
330
16C
102
}
330
16C
100
AcDbDictionary
281
     1
  3
Normal
350
173
100
AcDbDictionaryWithDefault
340
173
  0
DICTIONARY
  5
180
102
{ACAD_REACTORS
330
16C
102
}
330
16C
100
AcDbDictionary
281
     1
  3
COLORDICT
350
182
  3
MATERIALDICT
350
181
  0
DICTIONARY
  5
17C
102
{ACAD_REACTORS
330
16C
102
}
330
16C
100
AcDbDictionary
281
     1
  3
DIMASSOC
350
17D
  3
PROJECTNAME
350
17E
  0
XRECORD
  5
156
102
{ACAD_REACTORS
330
155
102
}
330
155
100
AcDbXrecord
280
     1
340
2
  0
XRECORD
  5
15B
102
{ACAD_REACTORS
330
15A
102
}
330
15A
100
AcDbXrecord
280
     1
340
0
  0
LAYOUT
  5
179
102
{ACAD_XDICTIONARY
360
185
102
}
102
{ACAD_REACTORS
330
176
102
}
330
176
100
AcDbPlotSettings
  1

  2
\\mitk-us-mtg-n28\Office Canon IR C2550
  4

  6

 40
0.0
 41
0.0
 42
0.0
 43
0.0
 44
0.0
 45
0.0
 46
0.0
 47
0.0
 48
0.0
 49
0.0
140
0.0
141
0.0
142
1.0
143
1.0
 70
   688
 72
     0
 73
     0
 74
     5
  7

 75
    16
147
1.0
148
0.0
149
0.0
100
AcDbLayout
  1
Layout1
 70
     0
 71
     1
 10
0.0
 20
0.0
 11
12.0
 21
9.0
 12
0.0
 22
0.0
 32
0.0
 14
1.000000000000000E+20
 24
1.000000000000000E+20
 34
1.000000000000000E+20
 15
-1.000000000000000E+20
 25
-1.000000000000000E+20
 35
-1.000000000000000E+20
146
0.0
 13
0.0
 23
0.0
 33
0.0
 16
1.0
 26
0.0
 36
0.0
 17
0.0
 27
1.0
 37
0.0
 76
     0
330
159
  0
LAYOUT
  5
178
102
{ACAD_XDICTIONARY
360
183
102
}
102
{ACAD_REACTORS
330
176
102
}
330
176
100
AcDbPlotSettings
  1

  2
\\mitk-us-mtg-n28\Office Canon IR C2550
  4

  6

 40
0.0
 41
0.0
 42
0.0
 43
0.0
 44
0.0
 45
0.0
 46
0.0
 47
0.0
 48
0.0
 49
0.0
140
0.0
141
0.0
142
1.0
143
1.0
 70
  1712
 72
     0
 73
     0
 74
     0
  7

 75
     0
147
1.0
148
0.0
149
0.0
100
AcDbLayout
  1
Model
 70
     1
 71
     0
 10
0.0
 20
0.0
 11
12.0
 21
9.0
 12
0.0
 22
0.0
 32
0.0
 14
0.0
 24
0.0
 34
0.0
 15
0.0
 25
0.0
 35
0.0
146
0.0
 13
0.0
 23
0.0
 33
0.0
 16
1.0
 26
0.0
 36
0.0
 17
0.0
 27
1.0
 37
0.0
 76
     0
330
2
  0
MLINESTYLE
  5
16D
102
{ACAD_REACTORS
330
16B
102
}
330
16B
100
AcDbMlineStyle
  2
STANDARD
 70
     0
  3

 62
     0
 51
90.0
 52
90.0
 71
     2
 49
0.5
 62
   256
  6
BYLAYER
 49
-0.5
 62
   256
  6
BYLAYER
  0
ACDBPLACEHOLDER
  5
173
102
{ACAD_REACTORS
330
172
102
}
330
172
  0
XRECORD
  5
182
102
{ACAD_REACTORS
330
180
102
}
330
180
100
AcDbXrecord
280
     1
340
175
  0
XRECORD
  5
181
102
{ACAD_REACTORS
330
180
102
}
330
180
100
AcDbXrecord
280
     1
340
174
  0
DICTIONARYVAR
  5
17D
102
{ACAD_REACTORS
330
17C
102
}
330
17C
100
DictionaryVariables
280
     0
  1
1
  0
DICTIONARYVAR
  5
17E
102
{ACAD_REACTORS
330
17C
102
}
330
17C
100
DictionaryVariables
280
     0
  1

  0
DICTIONARY
  5
185
330
179
100
AcDbDictionary
280
     1
281
     1
  3
ACAD_XREC_ROUNDTRIP
360
186
  0
DICTIONARY
  5
183
330
178
100
AcDbDictionary
280
     1
281
     1
  3
ACAD_XREC_ROUNDTRIP
360
184
  0
XRECORD
  5
186
102
{ACAD_REACTORS
330
185
102
}
330
185
100
AcDbXrecord
280
     1
102
SHADEPLOT
 70
     0
102
SHADEPLOTRESLEVEL
 70
     2
102
SHADEPLOTCUSTOMDPI
 70
   300
  0
XRECORD
  5
184
102
{ACAD_REACTORS
330
183
102
}
330
183
100
AcDbXrecord
280
     1
102
SHADEPLOT
 70
     0
102
SHADEPLOTRESLEVEL
 70
     2
102
SHADEPLOTCUSTOMDPI
 70
   300
  0
ENDSEC
  0
EOF
