  0
SECTION
  2
HEADER
  9
$ACADVER
  1
AC1014
  9
$ACADMAINTVER
 70
     8
  9
$DWGCODEPAGE
  3
ANSI_1252
  9
$INSBASE
 10
0.0
 20
0.0
 30
0.0
  9
$EXTMIN
 10
0.0073377819135408
 20
0.0003565039510338
 30
0.0
  9
$EXTMAX
 10
14.42778619196462
 20
23.4027940294361
 30
0.0
  9
$LIMMIN
 10
0.0
 20
0.0
  9
$LIMMAX
 10
12.0
 20
9.0
  9
$ORTHOMODE
 70
     0
  9
$REGENMODE
 70
     1
  9
$FILLMODE
 70
     1
  9
$QTEXTMODE
 70
     0
  9
$MIRRTEXT
 70
     0
  9
$DRAGMODE
 70
     2
  9
$LTSCALE
 40
1.5
  9
$OSMODE
 70
     0
  9
$ATTMODE
 70
     1
  9
$TEXTSIZE
 40
0.25
  9
$TRACEWID
 40
0.05
  9
$TEXTSTYLE
  7
STANDARD
  9
$CLAYER
  8
USP
  9
$CELTYPE
  6
BYLAYER
  9
$CECOLOR
 62
   256
  9
$CELTSCALE
 40
1.0
  9
$DELOBJ
 70
     1
  9
$DISPSILH
 70
     1
  9
$DIMSCALE
 40
5.0
  9
$DIMASZ
 40
0.125
  9
$DIMEXO
 40
0.0625
  9
$DIMDLI
 40
0.38
  9
$DIMRND
 40
0.0
  9
$DIMDLE
 40
0.0
  9
$DIMEXE
 40
0.09375
  9
$DIMTP
 40
0.0
  9
$DIMTM
 40
0.0
  9
$DIMTXT
 40
0.109375
  9
$DIMCEN
 40
0.0
  9
$DIMTSZ
 40
0.0
  9
$DIMTOL
 70
     0
  9
$DIMLIM
 70
     0
  9
$DIMTIH
 70
     1
  9
$DIMTOH
 70
     1
  9
$DIMSE1
 70
     0
  9
$DIMSE2
 70
     0
  9
$DIMTAD
 70
     0
  9
$DIMZIN
 70
     8
  9
$DIMBLK
  1

  9
$DIMASO
 70
     1
  9
$DIMSHO
 70
     1
  9
$DIMPOST
  1

  9
$DIMAPOST
  1

  9
$DIMALT
 70
     0
  9
$DIMALTD
 70
     2
  9
$DIMALTF
 40
25.4
  9
$DIMLFAC
 40
1.0
  9
$DIMTOFL
 70
     0
  9
$DIMTVP
 40
0.0
  9
$DIMTIX
 70
     0
  9
$DIMSOXD
 70
     0
  9
$DIMSAH
 70
     0
  9
$DIMBLK1
  1

  9
$DIMBLK2
  1

  9
$DIMSTYLE
  2
STANDARD
  9
$DIMCLRD
 70
   256
  9
$DIMCLRE
 70
   256
  9
$DIMCLRT
 70
   256
  9
$DIMTFAC
 40
1.0
  9
$DIMGAP
 40
0.09
  9
$DIMJUST
 70
     0
  9
$DIMSD1
 70
     0
  9
$DIMSD2
 70
     0
  9
$DIMTOLJ
 70
     1
  9
$DIMTZIN
 70
     0
  9
$DIMALTZ
 70
     0
  9
$DIMALTTZ
 70
     0
  9
$DIMFIT
 70
     3
  9
$DIMUPT
 70
     1
  9
$DIMUNIT
 70
     7
  9
$DIMDEC
 70
     4
  9
$DIMTDEC
 70
     4
  9
$DIMALTU
 70
     2
  9
$DIMALTTD
 70
     2
  9
$DIMTXSTY
  7
STANDARD
  9
$DIMAUNIT
 70
     0
  9
$LUNITS
 70
     5
  9
$LUPREC
 70
     6
  9
$SKETCHINC
 40
0.1
  9
$FILLETRAD
 40
0.0
  9
$AUNITS
 70
     0
  9
$AUPREC
 70
     1
  9
$MENU
  1
CUSTOM
  9
$ELEVATION
 40
0.0
  9
$PELEVATION
 40
0.0
  9
$THICKNESS
 40
0.0
  9
$LIMCHECK
 70
     0
  9
$BLIPMODE
 70
     0
  9
$CHAMFERA
 40
0.0
  9
$CHAMFERB
 40
0.0
  9
$CHAMFERC
 40
0.0
  9
$CHAMFERD
 40
0.0
  9
$SKPOLY
 70
     0
  9
$TDCREATE
 40
2451263.621564698
  9
$TDUPDATE
 40
2453026.001704282
  9
$TDINDWG
 40
1.0307809028
  9
$TDUSRTIMER
 40
1.0307809028
  9
$USRTIMER
 70
     1
  9
$ANGBASE
 50
0.0
  9
$ANGDIR
 70
     0
  9
$PDMODE
 70
     0
  9
$PDSIZE
 40
0.0
  9
$PLINEWID
 40
0.0
  9
$COORDS
 70
     2
  9
$SPLFRAME
 70
     0
  9
$SPLINETYPE
 70
     6
  9
$SPLINESEGS
 70
     8
  9
$ATTDIA
 70
     0
  9
$ATTREQ
 70
     0
  9
$HANDLING
 70
     1
  9
$HANDSEED
  5
179
  9
$SURFTAB1
 70
     6
  9
$SURFTAB2
 70
     6
  9
$SURFTYPE
 70
     6
  9
$SURFU
 70
     6
  9
$SURFV
 70
     6
  9
$UCSNAME
  2

  9
$UCSORG
 10
0.0
 20
0.0
 30
0.0
  9
$UCSXDIR
 10
1.0
 20
0.0
 30
0.0
  9
$UCSYDIR
 10
0.0
 20
1.0
 30
0.0
  9
$PUCSNAME
  2

  9
$PUCSORG
 10
0.0
 20
0.0
 30
0.0
  9
$PUCSXDIR
 10
1.0
 20
0.0
 30
0.0
  9
$PUCSYDIR
 10
0.0
 20
1.0
 30
0.0
  9
$USERI1
 70
     0
  9
$USERI2
 70
     0
  9
$USERI3
 70
     0
  9
$USERI4
 70
     0
  9
$USERI5
 70
     0
  9
$USERR1
 40
0.0
  9
$USERR2
 40
0.0
  9
$USERR3
 40
0.0
  9
$USERR4
 40
0.0
  9
$USERR5
 40
0.0
  9
$WORLDVIEW
 70
     1
  9
$SHADEDGE
 70
     3
  9
$SHADEDIF
 70
    70
  9
$TILEMODE
 70
     1
  9
$MAXACTVP
 70
    16
  9
$PINSBASE
 10
0.0
 20
0.0
 30
0.0
  9
$PLIMCHECK
 70
     0
  9
$PEXTMIN
 10
1.000000000000000E+20
 20
1.000000000000000E+20
 30
1.000000000000000E+20
  9
$PEXTMAX
 10
-1.000000000000000E+20
 20
-1.000000000000000E+20
 30
-1.000000000000000E+20
  9
$PLIMMIN
 10
0.0
 20
0.0
  9
$PLIMMAX
 10
12.0
 20
9.0
  9
$UNITMODE
 70
     0
  9
$VISRETAIN
 70
     0
  9
$PLINEGEN
 70
     0
  9
$PSLTSCALE
 70
     0
  9
$TREEDEPTH
 70
  3020
  9
$PICKSTYLE
 70
     1
  9
$CMLSTYLE
  2
STANDARD
  9
$CMLJUST
 70
     0
  9
$CMLSCALE
 40
1.0
  9
$PROXYGRAPHICS
 70
     1
  9
$MEASUREMENT
 70
     0
  0
ENDSEC
  0
SECTION
  2
CLASSES
  0
CLASS
  1
ACDBDICTIONARYWDFLT
  2
AcDbDictionaryWithDefault
  3
AutoCAD 2000
 90
        0
280
     0
281
     0
  0
CLASS
  1
ACDBPLACEHOLDER
  2
AcDbPlaceHolder
  3
AutoCAD 2000
 90
        0
280
     0
281
     0
  0
CLASS
  1
LAYOUT
  2
AcDbLayout
  3
AutoCAD 2000
 90
        0
280
     0
281
     0
  0
CLASS
  1
DICTIONARYVAR
  2
AcDbDictionaryVar
  3
"AutoCAD"
 90
        0
280
     0
281
     0
  0
CLASS
  1
SORTENTSTABLE
  2
AcDbSortentsTable
  3
"AutoCAD"
 90
        0
280
     0
281
     0
  0
CLASS
  1
LONG_TRANSACTION
  2
AcDbLongTransaction
  3
AutoCAD 2000
 90
        0
280
     0
281
     0
  0
CLASS
  1
LWPOLYLINE
  2
AcDbPolyline
  3
"AutoCAD"
 90
        0
280
     0
281
     1
  0
CLASS
  1
HATCH
  2
AcDbHatch
  3
"ACAD_SEDONA"
 90
        0
280
     0
281
     1
  0
CLASS
  1
XRECORD
  2
AcDbXrecord
  3
"<Built In>"
 90
        0
280
     0
281
     0
  0
CLASS
  1
LONG_TRANSACTION
  2
AcDbLongTransaction
  3
AutoCAD 2000
 90
        0
280
     0
281
     0
  0
CLASS
  1
LWPOLYLINE
  2
AcDbPolyline
  3
"AutoCAD"
 90
        0
280
     0
281
     1
  0
CLASS
  1
HATCH
  2
AcDbHatch
  3
"ACAD_SEDONA"
 90
        0
280
     0
281
     1
  0
CLASS
  1
XRECORD
  2
AcDbXrecord
  3
"<Built In>"
 90
        0
280
     0
281
     0
  0
CLASS
  1
LONG_TRANSACTION
  2
AcDbLongTransaction
  3
AutoCAD 2000
 90
        0
280
     0
281
     0
  0
CLASS
  1
LWPOLYLINE
  2
AcDbPolyline
  3
"AutoCAD"
 90
        0
280
     0
281
     1
  0
CLASS
  1
HATCH
  2
AcDbHatch
  3
"ACAD_SEDONA"
 90
        0
280
     0
281
     1
  0
CLASS
  1
XRECORD
  2
AcDbXrecord
  3
"<Built In>"
 90
        0
280
     0
281
     0
  0
CLASS
  1
LONG_TRANSACTION
  2
AcDbLongTransaction
  3
AutoCAD 2000
 90
        0
280
     0
281
     0
  0
CLASS
  1
LWPOLYLINE
  2
AcDbPolyline
  3
"AutoCAD"
 90
        0
280
     0
281
     1
  0
CLASS
  1
HATCH
  2
AcDbHatch
  3
"ACAD_SEDONA"
 90
        0
280
     0
281
     1
  0
CLASS
  1
XRECORD
  2
AcDbXrecord
  3
"<Built In>"
 90
        0
280
     0
281
     0
  0
CLASS
  1
LONG_TRANSACTION
  2
AcDbLongTransaction
  3
AutoCAD 2000
 90
        0
280
     0
281
     0
  0
CLASS
  1
LWPOLYLINE
  2
AcDbPolyline
  3
"AutoCAD"
 90
        0
280
     0
281
     1
  0
CLASS
  1
HATCH
  2
AcDbHatch
  3
"ACAD_SEDONA"
 90
        0
280
     0
281
     1
  0
CLASS
  1
XRECORD
  2
AcDbXrecord
  3
"<Built In>"
 90
        0
280
     0
281
     0
  0
ENDSEC
  0
SECTION
  2
TABLES
  0
TABLE
  2
VPORT
  5
16A
100
AcDbSymbolTable
 70
     1
  0
VPORT
  5
16B
100
AcDbSymbolTableRecord
100
AcDbViewportTableRecord
  2
*ACTIVE
 70
     0
 10
0.0
 20
0.0
 11
1.0
 21
1.0
 12
2.881456831548465
 22
13.57091643153242
 13
0.0
 23
0.0
 14
1.0
 24
1.0
 15
0.0
 25
0.0
 16
0.0
 26
0.0
 36
1.0
 17
6.992741496210374
 27
1.305382443008426
 37
-1.011372273922047
 40
29.90619821128127
 41
1.379227053140096
 42
50.0
 43
0.0
 44
0.0
 50
0.0
 51
0.0
 71
     0
 72
   100
 73
     1
 74
     1
 75
     0
 76
     0
 77
     0
 78
     0
  0
ENDTAB
  0
TABLE
  2
LTYPE
  5
165
100
AcDbSymbolTable
 70
     1
  0
LTYPE
  5
166
100
AcDbSymbolTableRecord
100
AcDbLinetypeTableRecord
  2
BYBLOCK
 70
     0
  3

 72
    65
 73
     0
 40
0.0
  0
LTYPE
  5
167
100
AcDbSymbolTableRecord
100
AcDbLinetypeTableRecord
  2
BYLAYER
 70
     0
  3

 72
    65
 73
     0
 40
0.0
  0
LTYPE
  5
5
100
AcDbSymbolTableRecord
100
AcDbLinetypeTableRecord
  2
CONTINUOUS
 70
     0
  3
Solid line
 72
    65
 73
     0
 40
0.0
  0
ENDTAB
  0
TABLE
  2
LAYER
  5
163
100
AcDbSymbolTable
 70
     4
  0
LAYER
  5
91
100
AcDbSymbolTableRecord
100
AcDbLayerTableRecord
  2
0
 70
     0
 62
     7
  6
CONTINUOUS
  0
LAYER
  5
8
102
{ACAD_XDICTIONARY
360
9
102
}
100
AcDbSymbolTableRecord
100
AcDbLayerTableRecord
  2
USP-GEO
 70
     0
 62
     7
  6
CONTINUOUS
  0
LAYER
  5
8C
102
{ACAD_XDICTIONARY
360
8D
102
}
100
AcDbSymbolTableRecord
100
AcDbLayerTableRecord
  2
USP-TXT
 70
     0
 62
     7
  6
CONTINUOUS
  0
LAYER
  5
4
100
AcDbSymbolTableRecord
100
AcDbLayerTableRecord
  2
USP
 70
     0
 62
     7
  6
CONTINUOUS
  0
ENDTAB
  0
TABLE
  2
STYLE
  5
164
100
AcDbSymbolTable
 70
     1
  0
STYLE
  5
8F
100
AcDbSymbolTableRecord
100
AcDbTextStyleTableRecord
  2
STANDARD
 70
     0
 40
0.0
 41
1.0
 50
0.0
 71
     0
 42
0.25
  3
txt
  4

  0
ENDTAB
  0
TABLE
  2
VIEW
  5
168
100
AcDbSymbolTable
 70
     0
  0
ENDTAB
  0
TABLE
  2
UCS
  5
169
100
AcDbSymbolTable
 70
     0
  0
ENDTAB
  0
TABLE
  2
APPID
  5
16C
100
AcDbSymbolTable
 70
     1
  0
APPID
  5
65
100
AcDbSymbolTableRecord
100
AcDbRegAppTableRecord
  2
ACAD
 70
     0
  0
ENDTAB
  0
TABLE
  2
DIMSTYLE
  5
16D
100
AcDbSymbolTable
 70
     1
  0
DIMSTYLE
105
173
102
{ACAD_XDICTIONARY
360
174
102
}
100
AcDbSymbolTableRecord
100
AcDbDimStyleTableRecord
  2
STANDARD
 70
     0
  3

  4

  5

  6

  7

 40
1.0
 41
0.125
 42
0.0625
 43
0.38
 44
0.09375
 45
0.0
 46
0.0
 47
0.0
 48
0.0
140
0.109375
141
0.0
142
0.0
143
25.4
144
1.0
145
0.0
146
1.0
147
0.09
 71
     0
 72
     0
 73
     1
 74
     1
 75
     0
 76
     0
 77
     0
 78
     8
170
     0
171
     2
172
     0
173
     0
174
     0
175
     0
176
     0
177
     0
178
     0
270
     7
271
     4
272
     4
273
     2
274
     2
340
8F
275
     0
280
     0
281
     0
282
     0
283
     1
284
     0
285
     0
286
     0
287
     3
288
     0
  0
ENDTAB
  0
TABLE
  2
BLOCK_RECORD
  5
1
100
AcDbSymbolTable
 70
     3
  0
BLOCK_RECORD
  5
2
102
{ACAD_XDICTIONARY
360
15A
102
}
100
AcDbSymbolTableRecord
100
AcDbBlockTableRecord
  2
*MODEL_SPACE
  0
BLOCK_RECORD
  5
15E
102
{ACAD_XDICTIONARY
360
15F
102
}
100
AcDbSymbolTableRecord
100
AcDbBlockTableRecord
  2
*PAPER_SPACE
  0
BLOCK_RECORD
  5
6
100
AcDbSymbolTableRecord
100
AcDbBlockTableRecord
  2
TFL2316PR_T
  0
BLOCK_RECORD
  5
94
100
AcDbSymbolTableRecord
100
AcDbBlockTableRecord
  2
TFL2316PR_F
  0
BLOCK_RECORD
  5
10F
100
AcDbSymbolTableRecord
100
AcDbBlockTableRecord
  2
TFL2316PR_S
  0
ENDTAB
  0
ENDSEC
  0
SECTION
  2
BLOCKS
  0
BLOCK
  5
15C
100
AcDbEntity
  8
0
100
AcDbBlockBegin
  2
*MODEL_SPACE
 70
     0
 10
0.0
 20
0.0
 30
0.0
  3
*MODEL_SPACE
  1

  0
ENDBLK
  5
15D
100
AcDbEntity
  8
0
100
AcDbBlockEnd
  0
BLOCK
  5
161
100
AcDbEntity
 67
     1
  8
0
100
AcDbBlockBegin
  2
*PAPER_SPACE
 70
     0
 10
0.0
 20
0.0
 30
0.0
  3
*PAPER_SPACE
  1

  0
ENDBLK
  5
162
100
AcDbEntity
 67
     1
  8
0
100
AcDbBlockEnd
  0
BLOCK
  5
90
100
AcDbEntity
  8
0
100
AcDbBlockBegin
  2
TFL2316PR_T
 70
     0
 10
0.0
 20
0.0
 30
0.0
  3
TFL2316PR_T
  1

  0
LWPOLYLINE
  5
7
100
AcDbEntity
  8
USP-GEO
100
AcDbPolyline
 90
        2
 70
   128
 43
0.0
 10
6.367280920130086
 20
2.193524197635881
 10
4.454649034731319
 20
2.193524197635881
  0
LWPOLYLINE
  5
B
100
AcDbEntity
  8
USP-GEO
100
AcDbPolyline
 90
        2
 70
   128
 43
0.0
 10
1.889321320067887
 20
2.193524197635881
 10
0.0
 20
2.193524197635881
  0
CIRCLE
  5
C
100
AcDbEntity
  8
USP-GEO
100
AcDbCircle
 10
4.757473551623847
 20
3.386979078662484
 30
0.0
 40
0.09
  0
CIRCLE
  5
D
100
AcDbEntity
  8
USP-GEO
100
AcDbCircle
 10
6.157473551623853
 20
3.186979078662496
 30
0.0
 40
0.09
  0
LWPOLYLINE
  5
E
100
AcDbEntity
  8
USP-GEO
100
AcDbPolyline
 90
        2
 70
   128
 43
0.0
 10
6.367280920130086
 20
3.709876472409675
 10
4.454649034731319
 20
3.709876472409675
  0
LWPOLYLINE
  5
F
100
AcDbEntity
  8
USP-GEO
100
AcDbPolyline
 90
        2
 70
   128
 43
0.0
 10
4.454649034731319
 20
3.709876472409675
 10
4.454649034731319
 20
2.240145328297643
  0
LWPOLYLINE
  5
10
100
AcDbEntity
  8
USP-GEO
100
AcDbPolyline
 90
        2
 70
   128
 43
0.0
 10
4.338096208076915
 20
0.2564162186396857
 10
4.384717338738676
 20
0.2564162186396857
  0
LWPOLYLINE
  5
11
100
AcDbEntity
  8
USP-GEO
100
AcDbPolyline
 90
        2
 70
   128
 43
0.0
 10
4.338096208076915
 20
0.8869670108400136
 10
4.384717338738676
 20
0.8869670108400136
  0
LWPOLYLINE
  5
12
100
AcDbEntity
  8
USP-GEO
100
AcDbPolyline
 90
        2
 70
   128
 43
0.0
 10
4.338096208076915
 20
0.0
 10
4.384717338738676
 20
0.0
  0
LWPOLYLINE
  5
13
100
AcDbEntity
  8
USP-GEO
100
AcDbPolyline
 90
        2
 70
   128
 43
0.0
 10
2.029184712053172
 20
2.100281936312356
 10
2.029184712053172
 20
1.91379741366531
  0
LWPOLYLINE
  5
14
100
AcDbEntity
  8
USP-GEO
100
AcDbPolyline
 90
        2
 70
   128
 43
0.0
 10
2.029184712053172
 20
1.91379741366531
 10
2.029184712053172
 20
1.026830402825297
  0
LWPOLYLINE
  5
15
100
AcDbEntity
  8
USP-GEO
100
AcDbPolyline
 90
        2
 70
   128
 43
0.0
 10
2.029184712053172
 20
1.026830402825297
 10
2.029184712053172
 20
0.8869670108400136
  0
LWPOLYLINE
  5
16
100
AcDbEntity
  8
USP-GEO
100
AcDbPolyline
 90
        2
 70
   128
 43
0.0
 10
2.029184712053172
 20
0.8869670108400136
 10
1.959253016060531
 20
0.8869670108400136
  0
LWPOLYLINE
  5
17
100
AcDbEntity
  8
USP-GEO
100
AcDbPolyline
 90
        2
 70
   128
 43
0.0
 10
2.029184712053172
 20
0.8869670108400136
 10
2.030350240319716
 20
0.8869670108400136
  0
LWPOLYLINE
  5
18
100
AcDbEntity
  8
USP-GEO
100
AcDbPolyline
 90
        2
 70
   128
 43
0.0
 10
2.029184712053172
 20
0.8869670108400136
 10
2.029184712053172
 20
0.2564162186396857
  0
LWPOLYLINE
  5
19
100
AcDbEntity
  8
USP-GEO
100
AcDbPolyline
 90
        2
 70
   128
 43
0.0
 10
2.029184712053172
 20
0.2564162186396857
 10
1.959253016060531
 20
0.2564162186396857
  0
LWPOLYLINE
  5
1A
100
AcDbEntity
  8
USP-GEO
100
AcDbPolyline
 90
        2
 70
   128
 43
0.0
 10
2.029184712053172
 20
0.2564162186396857
 10
2.029184712053172
 20
0.1398633919852834
  0
LWPOLYLINE
  5
1B
100
AcDbEntity
  8
USP-GEO
100
AcDbPolyline
 90
        2
 70
   128
 43
0.0
 10
2.029184712053172
 20
0.1398633919852834
 10
2.029184712053172
 20
0.1165528266544022
  0
LWPOLYLINE
  5
1C
100
AcDbEntity
  8
USP-GEO
100
AcDbPolyline
 90
        2
 70
   128
 43
0.0
 10
2.029184712053172
 20
0.0
 10
1.959253016060531
 20
0.0
  0
LWPOLYLINE
  5
1D
100
AcDbEntity
  8
USP-GEO
100
AcDbPolyline
 90
        2
 70
   128
 43
0.0
 10
2.029184712053172
 20
0.1165528266544022
 10
2.029184712053172
 20
0.0
  0
LWPOLYLINE
  5
1E
100
AcDbEntity
  8
USP-GEO
100
AcDbPolyline
 90
        2
 70
   128
 43
0.0
 10
2.052495277384053
 20
0.0
 10
2.029184712053172
 20
0.0
  0
LWPOLYLINE
  5
1F
100
AcDbEntity
  8
USP-GEO
100
AcDbPolyline
 90
        2
 70
   128
 43
0.0
 10
2.029184712053172
 20
2.007039674988835
 10
2.052495277384053
 20
2.007039674988835
  0
LWPOLYLINE
  5
20
100
AcDbEntity
  8
USP-GEO
100
AcDbPolyline
 90
        2
 70
   128
 43
0.0
 10
2.052495277384053
 20
0.0
 10
4.291475077415153
 20
0.0
  0
LWPOLYLINE
  5
21
100
AcDbEntity
  8
USP-GEO
100
AcDbPolyline
 90
        2
 70
   128
 43
0.0
 10
4.291475077415153
 20
2.007039674988835
 10
2.052495277384053
 20
2.007039674988835
  0
LWPOLYLINE
  5
22
100
AcDbEntity
  8
USP-GEO
100
AcDbPolyline
 90
        2
 70
   128
 43
0.0
 10
3.428984160172564
 20
0.3729690452940915
 10
3.545536986826968
 20
0.4895218719484938
  0
LWPOLYLINE
  5
23
100
AcDbEntity
  8
USP-GEO
100
AcDbPolyline
 90
        2
 70
   128
 43
0.0
 10
3.545536986826968
 20
0.2331056533088045
 10
3.428984160172564
 20
0.3729690452940915
  0
LWPOLYLINE
  5
24
100
AcDbEntity
  8
USP-GEO
100
AcDbPolyline
 90
        2
 70
   128
 43
0.0
 10
3.685400378812254
 20
0.3729690452940915
 10
3.545536986826968
 20
0.2331056533088045
  0
LWPOLYLINE
  5
25
100
AcDbEntity
  8
USP-GEO
100
AcDbPolyline
 90
        2
 70
   128
 43
0.0
 10
3.545536986826968
 20
0.4895218719484938
 10
3.685400378812254
 20
0.3729690452940915
  0
LWPOLYLINE
  5
26
100
AcDbEntity
  8
USP-GEO
100
AcDbPolyline
 90
        2
 70
   128
 43
0.0
 10
2.681880541317834
 20
0.3729690452940915
 10
2.798433367972238
 20
0.4895218719484938
  0
LWPOLYLINE
  5
27
100
AcDbEntity
  8
USP-GEO
100
AcDbPolyline
 90
        2
 70
   128
 43
0.0
 10
2.798433367972238
 20
0.2331056533088045
 10
2.681880541317834
 20
0.3729690452940915
  0
LWPOLYLINE
  5
28
100
AcDbEntity
  8
USP-GEO
100
AcDbPolyline
 90
        2
 70
   128
 43
0.0
 10
2.938296759957523
 20
0.3729690452940915
 10
2.798433367972238
 20
0.2331056533088045
  0
LWPOLYLINE
  5
29
100
AcDbEntity
  8
USP-GEO
100
AcDbPolyline
 90
        2
 70
   128
 43
0.0
 10
2.798433367972238
 20
0.4895218719484938
 10
2.938296759957523
 20
0.3729690452940915
  0
LWPOLYLINE
  5
2A
100
AcDbEntity
  8
USP-GEO
100
AcDbPolyline
 90
        2
 70
   128
 43
0.0
 10
4.338096208076915
 20
0.0
 10
4.291475077415153
 20
0.0
  0
LWPOLYLINE
  5
2B
100
AcDbEntity
  8
USP-GEO
100
AcDbPolyline
 90
        2
 70
   128
 43
0.0
 10
4.291475077415153
 20
2.007039674988835
 10
4.338096208076915
 20
2.007039674988835
  0
LWPOLYLINE
  5
2C
100
AcDbEntity
  8
USP-GEO
100
AcDbPolyline
 90
        2
 70
   128
 43
0.0
 10
4.431338469400438
 20
2.193524197635881
 10
4.454649034731319
 20
2.193524197635881
  0
LWPOLYLINE
  5
2D
100
AcDbEntity
  8
USP-GEO
100
AcDbPolyline
 90
        2
 70
   128
 43
0.0
 10
4.384717338738676
 20
2.146903066974118
 10
4.454649034731319
 20
2.146903066974118
  0
LWPOLYLINE
  5
2E
100
AcDbEntity
  8
USP-GEO
100
AcDbPolyline
 90
        2
 70
   128
 43
0.0
 10
6.367280920130086
 20
3.709876472409675
 10
6.367280920130086
 20
2.240145328297643
  0
LWPOLYLINE
  5
2F
100
AcDbEntity
  8
USP-GEO
100
AcDbPolyline
 90
        2
 70
   128
 43
0.0
 10
6.367280920130086
 20
2.146903066974118
 10
4.454649034731319
 20
2.146903066974118
  0
LWPOLYLINE
  5
30
100
AcDbEntity
  8
USP-GEO
100
AcDbPolyline
 90
        2
 70
   128
 43
0.0
 10
4.454649034731319
 20
2.146903066974118
 10
4.454649034731319
 20
2.240145328297643
  0
LWPOLYLINE
  5
31
100
AcDbEntity
  8
USP-GEO
100
AcDbPolyline
 90
        2
 70
   128
 43
0.0
 10
6.367280920130086
 20
2.240145328297643
 10
6.367280920130086
 20
2.146903066974118
  0
LWPOLYLINE
  5
32
100
AcDbEntity
  8
USP-GEO
100
AcDbPolyline
 90
        2
 70
   128
 43
0.0
 10
4.338096208076915
 20
1.026830402825297
 10
4.338096208076915
 20
1.91379741366531
  0
LWPOLYLINE
  5
33
100
AcDbEntity
  8
USP-GEO
100
AcDbPolyline
 90
        2
 70
   128
 43
0.0
 10
4.338096208076915
 20
0.8869670108400136
 10
4.338096208076915
 20
1.026830402825297
  0
LWPOLYLINE
  5
34
100
AcDbEntity
  8
USP-GEO
100
AcDbPolyline
 90
        2
 70
   128
 43
0.0
 10
4.338096208076915
 20
0.8869670108400136
 10
4.339261736343459
 20
0.8869670108400136
  0
LWPOLYLINE
  5
35
100
AcDbEntity
  8
USP-GEO
100
AcDbPolyline
 90
        2
 70
   128
 43
0.0
 10
4.338096208076915
 20
0.2564162186396857
 10
4.338096208076915
 20
0.8869670108400136
  0
LWPOLYLINE
  5
36
100
AcDbEntity
  8
USP-GEO
100
AcDbPolyline
 90
        2
 70
   128
 43
0.0
 10
4.338096208076915
 20
0.1398633919852834
 10
4.338096208076915
 20
0.2564162186396857
  0
LWPOLYLINE
  5
37
100
AcDbEntity
  8
USP-GEO
100
AcDbPolyline
 90
        2
 70
   128
 43
0.0
 10
4.338096208076915
 20
0.1165528266544022
 10
4.338096208076915
 20
0.1398633919852834
  0
LWPOLYLINE
  5
38
100
AcDbEntity
  8
USP-GEO
100
AcDbPolyline
 90
        2
 70
   128
 43
0.0
 10
4.338096208076915
 20
0.0
 10
4.338096208076915
 20
0.1165528266544022
  0
LWPOLYLINE
  5
39
100
AcDbEntity
  8
USP-GEO
100
AcDbPolyline
 90
        2
 70
   128
 43
0.0
 10
4.338096208076915
 20
1.91379741366531
 10
4.338096208076915
 20
2.100281936312356
  0
LWPOLYLINE
  5
3A
100
AcDbEntity
  8
USP-GEO
100
AcDbPolyline
 90
        2
 70
   128
 43
0.0
 10
4.384717338738676
 20
2.193524197635881
 10
4.384717338738676
 20
2.146903066974118
  0
LWPOLYLINE
  5
3B
100
AcDbEntity
  8
USP-GEO
100
AcDbPolyline
 90
        2
 70
   128
 43
0.0
 10
4.338096208076915
 20
2.146903066974118
 10
4.384717338738676
 20
2.146903066974118
  0
LWPOLYLINE
  5
3C
100
AcDbEntity
  8
USP-GEO
100
AcDbPolyline
 90
        2
 70
   128
 43
0.0
 10
4.431338469400438
 20
2.193524197635881
 10
4.384717338738676
 20
2.193524197635881
  0
ARC
  5
3D
100
AcDbEntity
  8
USP-GEO
100
AcDbCircle
 10
4.42440695204141
 20
2.096979078662485
 30
0.0
 40
0.09
100
AcDbArc
 50
112.3475205606985
 51
149.9539894342142
  0
LWPOLYLINE
  5
3E
100
AcDbEntity
  8
USP-GEO
100
AcDbPolyline
 90
        2
 70
   128
 43
0.0
 10
4.338096208076915
 20
2.146903066974118
 10
4.338096208076915
 20
2.100281936312356
  0
LWPOLYLINE
  5
3F
100
AcDbEntity
  8
USP-GEO
100
AcDbPolyline
 90
        2
 70
   128
 43
0.0
 10
4.338096208076915
 20
2.100281936312356
 10
4.339261736343459
 20
2.100281936312356
  0
LWPOLYLINE
  5
40
100
AcDbEntity
  8
USP-GEO
100
AcDbPolyline
 90
        2
 70
   128
 43
0.0
 10
4.384717338738676
 20
0.1165528266544022
 10
4.384717338738676
 20
0.0
  0
LWPOLYLINE
  5
41
100
AcDbEntity
  8
USP-GEO
100
AcDbPolyline
 90
        2
 70
   128
 43
0.0
 10
4.384717338738676
 20
0.1398633919852834
 10
4.384717338738676
 20
0.1165528266544022
  0
LWPOLYLINE
  5
42
100
AcDbEntity
  8
USP-GEO
100
AcDbPolyline
 90
        2
 70
   128
 43
0.0
 10
4.384717338738676
 20
0.1398633919852834
 10
4.384717338738676
 20
0.2564162186396857
  0
LWPOLYLINE
  5
43
100
AcDbEntity
  8
USP-GEO
100
AcDbPolyline
 90
        2
 70
   128
 43
0.0
 10
4.384717338738676
 20
0.2564162186396857
 10
4.384717338738676
 20
0.8869670108400136
  0
LWPOLYLINE
  5
44
100
AcDbEntity
  8
USP-GEO
100
AcDbPolyline
 90
        2
 70
   128
 43
0.0
 10
4.384717338738676
 20
0.8869670108400136
 10
4.385882867005221
 20
0.8869670108400136
  0
LWPOLYLINE
  5
45
100
AcDbEntity
  8
USP-GEO
100
AcDbPolyline
 90
        2
 70
   128
 43
0.0
 10
4.384717338738676
 20
1.026830402825297
 10
4.384717338738676
 20
0.8869670108400136
  0
LWPOLYLINE
  5
46
100
AcDbEntity
  8
USP-GEO
100
AcDbPolyline
 90
        2
 70
   128
 43
0.0
 10
4.384717338738676
 20
1.026830402825297
 10
4.384717338738676
 20
1.91379741366531
  0
LWPOLYLINE
  5
47
100
AcDbEntity
  8
USP-GEO
100
AcDbPolyline
 90
        2
 70
   128
 43
0.0
 10
4.384717338738676
 20
2.100281936312356
 10
4.384717338738676
 20
1.91379741366531
  0
LWPOLYLINE
  5
48
100
AcDbEntity
  8
USP-GEO
100
AcDbPolyline
 90
        2
 70
   128
 43
0.0
 10
4.384717338738676
 20
2.100281936312356
 10
4.385882867005221
 20
2.100281936312356
  0
LWPOLYLINE
  5
49
100
AcDbEntity
  8
USP-GEO
100
AcDbPolyline
 90
        2
 70
   128
 43
0.0
 10
4.384717338738676
 20
2.100281936312356
 10
4.431338469400438
 20
2.146903066974118
  0
LWPOLYLINE
  5
4A
100
AcDbEntity
  8
USP-GEO
100
AcDbPolyline
 90
        2
 70
   128
 43
0.0
 10
1.959253016060531
 20
1.91379741366531
 10
1.959253016060531
 20
2.100281936312356
  0
LWPOLYLINE
  5
4B
100
AcDbEntity
  8
USP-GEO
100
AcDbPolyline
 90
        2
 70
   128
 43
0.0
 10
1.959253016060531
 20
1.026830402825297
 10
1.959253016060531
 20
1.91379741366531
  0
LWPOLYLINE
  5
4C
100
AcDbEntity
  8
USP-GEO
100
AcDbPolyline
 90
        2
 70
   128
 43
0.0
 10
1.959253016060531
 20
0.8869670108400136
 10
1.959253016060531
 20
1.026830402825297
  0
LWPOLYLINE
  5
4D
100
AcDbEntity
  8
USP-GEO
100
AcDbPolyline
 90
        2
 70
   128
 43
0.0
 10
1.959253016060531
 20
0.8869670108400136
 10
1.960418544327074
 20
0.8869670108400136
  0
LWPOLYLINE
  5
4E
100
AcDbEntity
  8
USP-GEO
100
AcDbPolyline
 90
        2
 70
   128
 43
0.0
 10
1.959253016060531
 20
0.2564162186396857
 10
1.959253016060531
 20
0.8869670108400136
  0
LWPOLYLINE
  5
4F
100
AcDbEntity
  8
USP-GEO
100
AcDbPolyline
 90
        2
 70
   128
 43
0.0
 10
1.959253016060531
 20
0.2564162186396857
 10
1.959253016060531
 20
0.1398633919852834
  0
LWPOLYLINE
  5
50
100
AcDbEntity
  8
USP-GEO
100
AcDbPolyline
 90
        2
 70
   128
 43
0.0
 10
1.959253016060531
 20
0.1398633919852834
 10
1.959253016060531
 20
0.1165528266544022
  0
LWPOLYLINE
  5
51
100
AcDbEntity
  8
USP-GEO
100
AcDbPolyline
 90
        2
 70
   128
 43
0.0
 10
1.959253016060531
 20
0.0
 10
1.959253016060531
 20
0.1165528266544022
  0
LWPOLYLINE
  5
52
100
AcDbEntity
  8
USP-GEO
100
AcDbPolyline
 90
        2
 70
   128
 43
0.0
 10
1.959253016060531
 20
2.100281936312356
 10
1.960418544327074
 20
2.100281936312356
  0
CIRCLE
  5
53
100
AcDbEntity
  8
USP-GEO
100
AcDbCircle
 10
0.1988403524592019
 20
3.186979078662496
 30
0.0
 40
0.09
  0
CIRCLE
  5
54
100
AcDbEntity
  8
USP-GEO
100
AcDbCircle
 10
1.598840352459207
 20
3.386979078662484
 30
0.0
 40
0.09
  0
LWPOLYLINE
  5
55
100
AcDbEntity
  8
USP-GEO
100
AcDbPolyline
 90
        2
 70
   128
 43
0.0
 10
0.0
 20
3.709876472409675
 10
0.0
 20
2.240145328297643
  0
LWPOLYLINE
  5
56
100
AcDbEntity
  8
USP-GEO
100
AcDbPolyline
 90
        2
 70
   128
 43
0.0
 10
0.0
 20
3.709876472409675
 10
1.889321320067887
 20
3.709876472409675
  0
LWPOLYLINE
  5
57
100
AcDbEntity
  8
USP-GEO
100
AcDbPolyline
 90
        2
 70
   128
 43
0.0
 10
1.889321320067887
 20
3.709876472409675
 10
1.889321320067887
 20
2.240145328297643
  0
LWPOLYLINE
  5
58
100
AcDbEntity
  8
USP-GEO
100
AcDbPolyline
 90
        2
 70
   128
 43
0.0
 10
1.889321320067887
 20
2.240145328297643
 10
1.889321320067887
 20
2.146903066974118
  0
LWPOLYLINE
  5
59
100
AcDbEntity
  8
USP-GEO
100
AcDbPolyline
 90
        2
 70
   128
 43
0.0
 10
1.889321320067887
 20
2.146903066974118
 10
0.0
 20
2.146903066974118
  0
LWPOLYLINE
  5
5A
100
AcDbEntity
  8
USP-GEO
100
AcDbPolyline
 90
        2
 70
   128
 43
0.0
 10
0.0
 20
2.146903066974118
 10
0.0
 20
2.240145328297643
  0
LWPOLYLINE
  5
5B
100
AcDbEntity
  8
USP-GEO
100
AcDbPolyline
 90
        2
 70
   128
 43
0.0
 10
1.889321320067887
 20
2.146903066974118
 10
1.959253016060531
 20
2.146903066974118
  0
LWPOLYLINE
  5
5C
100
AcDbEntity
  8
USP-GEO
100
AcDbPolyline
 90
        2
 70
   128
 43
0.0
 10
1.889321320067887
 20
2.193524197635881
 10
1.935942450729649
 20
2.193524197635881
  0
LWPOLYLINE
  5
5D
100
AcDbEntity
  8
USP-GEO
100
AcDbPolyline
 90
        2
 70
   128
 43
0.0
 10
1.959253016060531
 20
2.193524197635881
 10
1.959253016060531
 20
2.146903066974118
  0
LWPOLYLINE
  5
5E
100
AcDbEntity
  8
USP-GEO
100
AcDbPolyline
 90
        2
 70
   128
 43
0.0
 10
1.935942450729649
 20
2.146903066974118
 10
1.959253016060531
 20
2.100281936312356
  0
LWPOLYLINE
  5
5F
100
AcDbEntity
  8
USP-GEO
100
AcDbPolyline
 90
        2
 70
   128
 43
0.0
 10
2.005874146722291
 20
2.146903066974118
 10
1.959253016060531
 20
2.146903066974118
  0
LWPOLYLINE
  5
60
100
AcDbEntity
  8
USP-GEO
100
AcDbPolyline
 90
        2
 70
   128
 43
0.0
 10
2.029184712053172
 20
2.100281936312356
 10
2.005874146722291
 20
2.146903066974118
  0
ARC
  5
61
100
AcDbEntity
  8
USP-GEO
100
AcDbCircle
 10
1.931906952041389
 20
2.096979078662485
 30
0.0
 40
0.09
100
AcDbArc
 50
34.01729153198747
 51
74.18541328458096
  0
LWPOLYLINE
  5
62
100
AcDbEntity
  8
USP-GEO
100
AcDbPolyline
 90
        2
 70
   128
 43
0.0
 10
1.959253016060531
 20
2.193524197635881
 10
1.935942450729649
 20
2.193524197635881
  0
LWPOLYLINE
  5
63
100
AcDbEntity
  8
USP-GEO
100
AcDbPolyline
 90
        2
 70
   128
 43
0.0
 10
2.029184712053172
 20
2.100281936312356
 10
2.030350240319716
 20
2.100281936312356
  0
ELLIPSE
  5
64
100
AcDbEntity
  8
USP-GEO
  6
CONTINUOUS
100
AcDbEllipse
 10
1.85395457783966
 20
0.3020145426903937
 30
0.0
 11
-0.0000000000000015
 21
-0.078000000000003
 31
0.0
210
0.0
220
0.0
230
1.0
 40
0.7071067811865475
 41
5.463043687245368
 42
11.26143377250583
1001
ACAD
1000
RTLwPs
1070
   128
  0
ELLIPSE
  5
66
100
AcDbEntity
  8
USP-GEO
  6
CONTINUOUS
100
AcDbEllipse
 10
1.85395457783966
 20
0.3020145426903937
 30
0.0
 11
-0.0000000000000015
 21
-0.078000000000003
 31
0.0
210
0.0
220
0.0
230
1.0
 40
0.7071067811865475
 41
3.728920924261521
 42
4.983451240137472
1001
ACAD
1000
RTLwPs
1070
   128
  0
ELLIPSE
  5
67
100
AcDbEntity
  8
USP-GEO
  6
CONTINUOUS
100
AcDbEllipse
 10
1.85395457783966
 20
0.3020145426903937
 30
0.0
 11
-0.0000000000000015
 21
-0.078000000000003
 31
0.0
210
0.0
220
0.0
230
1.0
 40
0.7071067811865475
 41
3.744845998451392
 42
9.645439637159316
1001
ACAD
1000
RTLwPs
1070
   128
  0
ELLIPSE
  5
68
100
AcDbEntity
  8
USP-GEO
  6
CONTINUOUS
100
AcDbEllipse
 10
1.85395457783966
 20
0.3020145426903937
 30
0.0
 11
-0.0000000000000015
 21
-0.078000000000003
 31
0.0
210
0.0
220
0.0
230
1.0
 40
0.7071067811865475
 41
5.480170126543312
 42
6.056192783084117
1001
ACAD
1000
RTLwPs
1070
   128
  0
ELLIPSE
  5
69
100
AcDbEntity
  8
USP-GEO
  6
CONTINUOUS
100
AcDbEllipse
 10
1.815606200709753
 20
0.3020145426903937
 30
0.0
 11
-0.0000000000000011
 21
-0.078000000000003
 31
0.0
210
0.0
220
0.0
230
1.0
 40
0.7071067811865475
 41
4.032524370496126
 42
5.370903155226067
1001
ACAD
1000
RTLwPs
1070
   128
  0
ELLIPSE
  5
6A
100
AcDbEntity
  8
USP-GEO
  6
CONTINUOUS
100
AcDbEllipse
 10
1.815606200709753
 20
0.3020145426903937
 30
0.0
 11
-0.0000000000000011
 21
-0.078000000000003
 31
0.0
210
0.0
220
0.0
230
1.0
 40
0.7071067811865475
 41
5.357600082981261
 42
5.922807326687283
1001
ACAD
1000
RTLwPs
1070
   128
  0
ELLIPSE
  5
6B
100
AcDbEntity
  8
USP-GEO
  6
CONTINUOUS
100
AcDbEllipse
 10
1.815606200709753
 20
0.3020145426903937
 30
0.0
 11
-0.0000000000000011
 21
-0.078000000000003
 31
0.0
210
0.0
220
0.0
230
1.0
 40
0.7071067811865475
 41
4.045970262777113
 42
9.368077916048836
1001
ACAD
1000
RTLwPs
1070
   128
  0
ELLIPSE
  5
6C
100
AcDbEntity
  8
USP-GEO
  6
CONTINUOUS
100
AcDbEllipse
 10
1.815606200709753
 20
0.3020145426903937
 30
0.0
 11
-0.0000000000000011
 21
-0.078000000000003
 31
0.0
210
0.0
220
0.0
230
1.0
 40
0.7071067811865475
 41
5.90202864964695
 42
6.384405279743918
1001
ACAD
1000
RTLwPs
1070
   128
  0
ELLIPSE
  5
6D
100
AcDbEntity
  8
USP-GEO
  6
CONTINUOUS
100
AcDbEllipse
 10
1.815606200709753
 20
0.3020145426903937
 30
0.0
 11
-0.0000000000000011
 21
-0.078000000000003
 31
0.0
210
0.0
220
0.0
230
1.0
 40
0.7071067811865475
 41
0.0
 42
6.283185307179586
1001
ACAD
1000
RTLwPs
1070
   128
  0
ELLIPSE
  5
6E
100
AcDbEntity
  8
USP-GEO
  6
CONTINUOUS
100
AcDbEllipse
 10
1.815606200709753
 20
0.3020145426903937
 30
0.0
 11
-0.0000000000000011
 21
-0.078000000000003
 31
0.0
210
0.0
220
0.0
230
1.0
 40
0.7071067811865475
 41
0.5074751283234991
 42
6.360676824662873
1001
ACAD
1000
RTLwPs
1070
   128
  0
ELLIPSE
  5
6F
100
AcDbEntity
  8
USP-GEO
  6
CONTINUOUS
100
AcDbEllipse
 10
1.815606200709753
 20
0.3020145426903937
 30
0.0
 11
-0.0000000000000011
 21
-0.078000000000003
 31
0.0
210
0.0
220
0.0
230
1.0
 40
0.7071067811865475
 41
3.08489260886925
 42
8.91182035637632
1001
ACAD
1000
RTLwPs
1070
   128
  0
ELLIPSE
  5
70
100
AcDbEntity
  8
USP-GEO
  6
CONTINUOUS
100
AcDbEllipse
 10
1.815606200709753
 20
0.3020145426903937
 30
0.0
 11
-0.0000000000000011
 21
-0.078000000000003
 31
0.0
210
0.0
220
0.0
230
1.0
 40
0.7071067811865475
 41
2.646445697501286
 42
8.443168840695443
1001
ACAD
1000
RTLwPs
1070
   128
  0
ELLIPSE
  5
71
100
AcDbEntity
  8
USP-GEO
  6
CONTINUOUS
100
AcDbEllipse
 10
1.815606200709753
 20
0.3020145426903937
 30
0.0
 11
-0.0000000000000011
 21
-0.078000000000003
 31
0.0
210
0.0
220
0.0
230
1.0
 40
0.7071067811865475
 41
0.5255602978463213
 42
2.149469105115053
1001
ACAD
1000
RTLwPs
1070
   128
  0
ELLIPSE
  5
72
100
AcDbEntity
  8
USP-GEO
  6
CONTINUOUS
100
AcDbEllipse
 10
4.502359326243139
 20
0.4895145426903938
 30
0.0
 11
0.0000000000000015
 21
-0.078000000000003
 31
0.0
210
0.0
220
0.0
230
1.0
 40
0.7071067811865475
 41
0.9561620288857554
 42
6.724999296670022
1001
ACAD
1000
RTLwPs
1070
   128
  0
ELLIPSE
  5
73
100
AcDbEntity
  8
USP-GEO
  6
CONTINUOUS
100
AcDbEllipse
 10
4.502359326243139
 20
0.4895145426903938
 30
0.0
 11
0.0000000000000015
 21
-0.078000000000003
 31
0.0
210
0.0
220
0.0
230
1.0
 40
0.7071067811865475
 41
2.197537409624378
 42
2.699859678470611
1001
ACAD
1000
RTLwPs
1070
   128
  0
ELLIPSE
  5
74
100
AcDbEntity
  8
USP-GEO
  6
CONTINUOUS
100
AcDbEllipse
 10
4.502359326243139
 20
0.4895145426903938
 30
0.0
 11
0.0000000000000015
 21
-0.078000000000003
 31
0.0
210
0.0
220
0.0
230
1.0
 40
0.7071067811865475
 41
1.223562543420337
 42
7.227389904386436
1001
ACAD
1000
RTLwPs
1070
   128
  0
ELLIPSE
  5
75
100
AcDbEntity
  8
USP-GEO
  6
CONTINUOUS
100
AcDbEllipse
 10
4.502359326243139
 20
0.4895145426903938
 30
0.0
 11
0.0000000000000015
 21
-0.078000000000003
 31
0.0
210
0.0
220
0.0
230
1.0
 40
0.7071067811865475
 41
2.185578761688272
 42
7.514757452942911
1001
ACAD
1000
RTLwPs
1070
   128
  0
ELLIPSE
  5
76
100
AcDbEntity
  8
USP-GEO
  6
CONTINUOUS
100
AcDbEllipse
 10
4.540707703373046
 20
0.4895145426903938
 30
0.0
 11
0.0000000000000011
 21
-0.078000000000003
 31
0.0
210
0.0
220
0.0
230
1.0
 40
0.7071067811865475
 41
3.800206034751807
 42
5.408566910460472
1001
ACAD
1000
RTLwPs
1070
   128
  0
ELLIPSE
  5
77
100
AcDbEntity
  8
USP-GEO
  6
CONTINUOUS
100
AcDbEllipse
 10
4.540707703373046
 20
0.4895145426903938
 30
0.0
 11
0.0000000000000011
 21
-0.078000000000003
 31
0.0
210
0.0
220
0.0
230
1.0
 40
0.7071067811865475
 41
0.0
 42
6.283185307179586
1001
ACAD
1000
RTLwPs
1070
   128
  0
ELLIPSE
  5
78
100
AcDbEntity
  8
USP-GEO
  6
CONTINUOUS
100
AcDbEllipse
 10
4.540707703373046
 20
0.4895145426903938
 30
0.0
 11
0.0000000000000011
 21
-0.078000000000003
 31
0.0
210
0.0
220
0.0
230
1.0
 40
0.7071067811865475
 41
5.408566910460472
 42
5.989350611668451
1001
ACAD
1000
RTLwPs
1070
   128
  0
ELLIPSE
  5
79
100
AcDbEntity
  8
USP-GEO
  6
CONTINUOUS
100
AcDbEllipse
 10
4.540707703373046
 20
0.4895145426903938
 30
0.0
 11
0.0000000000000011
 21
-0.078000000000003
 31
0.0
210
0.0
220
0.0
230
1.0
 40
0.7071067811865475
 41
3.364718329002999
 42
3.814778752440511
1001
ACAD
1000
RTLwPs
1070
   128
  0
ELLIPSE
  5
7A
100
AcDbEntity
  8
USP-GEO
  6
CONTINUOUS
100
AcDbEllipse
 10
4.540707703373046
 20
0.4895145426903938
 30
0.0
 11
0.0000000000000011
 21
-0.078000000000003
 31
0.0
210
0.0
220
0.0
230
1.0
 40
0.7071067811865475
 41
5.967898743382163
 42
6.450467436725008
1001
ACAD
1000
RTLwPs
1070
   128
  0
ELLIPSE
  5
7B
100
AcDbEntity
  8
USP-GEO
  6
CONTINUOUS
100
AcDbEllipse
 10
4.540707703373046
 20
0.4895145426903938
 30
0.0
 11
0.0000000000000011
 21
-0.078000000000003
 31
0.0
210
0.0
220
0.0
230
1.0
 40
0.7071067811865475
 41
3.381463656445408
 42
9.298826341291183
1001
ACAD
1000
RTLwPs
1070
   128
  0
ELLIPSE
  5
7C
100
AcDbEntity
  8
USP-GEO
  6
CONTINUOUS
100
AcDbEllipse
 10
4.540707703373046
 20
0.4895145426903938
 30
0.0
 11
0.0000000000000011
 21
-0.078000000000003
 31
0.0
210
0.0
220
0.0
230
1.0
 40
0.7071067811865475
 41
3.033075023155682
 42
8.872233117583569
1001
ACAD
1000
RTLwPs
1070
   128
  0
ELLIPSE
  5
7D
100
AcDbEntity
  8
USP-GEO
  6
CONTINUOUS
100
AcDbEllipse
 10
4.540707703373046
 20
0.4895145426903938
 30
0.0
 11
0.0000000000000011
 21
-0.078000000000003
 31
0.0
210
0.0
220
0.0
230
1.0
 40
0.7071067811865475
 41
0.1442779586909464
 42
0.7465433536308233
1001
ACAD
1000
RTLwPs
1070
   128
  0
ELLIPSE
  5
7E
100
AcDbEntity
  8
USP-GEO
  6
CONTINUOUS
100
AcDbEllipse
 10
4.540707703373046
 20
0.4895145426903938
 30
0.0
 11
0.0000000000000011
 21
-0.078000000000003
 31
0.0
210
0.0
220
0.0
230
1.0
 40
0.7071067811865475
 41
0.0
 42
6.283185307179586
1001
ACAD
1000
RTLwPs
1070
   128
  0
ELLIPSE
  5
7F
100
AcDbEntity
  8
USP-GEO
  6
CONTINUOUS
100
AcDbEllipse
 10
4.540707703373046
 20
0.4895145426903938
 30
0.0
 11
0.0000000000000011
 21
-0.078000000000003
 31
0.0
210
0.0
220
0.0
230
1.0
 40
0.7071067811865475
 41
1.868156326315793
 42
2.589047810403982
1001
ACAD
1000
RTLwPs
1070
   128
  0
ELLIPSE
  5
80
100
AcDbEntity
  8
USP-GEO
  6
CONTINUOUS
100
AcDbEllipse
 10
4.540707703373046
 20
0.4895145426903938
 30
0.0
 11
0.0000000000000011
 21
-0.078000000000003
 31
0.0
210
0.0
220
0.0
230
1.0
 40
0.7071067811865475
 41
0.7652641423157415
 42
1.862205820686606
1001
ACAD
1000
RTLwPs
1070
   128
  0
LWPOLYLINE
  5
81
100
AcDbEntity
  8
USP-GEO
100
AcDbPolyline
 90
        2
 70
   128
 43
0.0
 10
2.075805842714935
 20
0.9802092721635347
 10
2.169048104038457
 20
1.120072664148821
  0
LWPOLYLINE
  5
82
100
AcDbEntity
  8
USP-GEO
100
AcDbPolyline
 90
        2
 70
   128
 43
0.0
 10
2.029184712053172
 20
0.9802092721635347
 10
2.075805842714935
 20
0.9802092721635347
  0
LWPOLYLINE
  5
83
100
AcDbEntity
  8
USP-GEO
100
AcDbPolyline
 90
        2
 70
   128
 43
0.0
 10
2.169048104038457
 20
1.120072664148821
 10
2.075805842714935
 20
1.259936056134105
  0
LWPOLYLINE
  5
84
100
AcDbEntity
  8
USP-GEO
100
AcDbPolyline
 90
        2
 70
   128
 43
0.0
 10
2.075805842714935
 20
1.259936056134105
 10
2.029184712053172
 20
1.259936056134105
  0
LWPOLYLINE
  5
85
100
AcDbEntity
  8
USP-GEO
100
AcDbPolyline
 90
        2
 70
   128
 43
0.0
 10
4.291475077415153
 20
0.9802092721635347
 10
4.174922250760749
 20
1.120072664148821
  0
LWPOLYLINE
  5
86
100
AcDbEntity
  8
USP-GEO
100
AcDbPolyline
 90
        2
 70
   128
 43
0.0
 10
4.174922250760749
 20
1.120072664148821
 10
4.291475077415153
 20
1.259936056134105
  0
LWPOLYLINE
  5
87
100
AcDbEntity
  8
USP-GEO
100
AcDbPolyline
 90
        2
 70
   128
 43
0.0
 10
4.291475077415153
 20
1.259936056134105
 10
4.338096208076915
 20
1.259936056134105
  0
LWPOLYLINE
  5
88
100
AcDbEntity
  8
USP-GEO
100
AcDbPolyline
 90
        2
 70
   128
 43
0.0
 10
4.338096208076915
 20
0.9802092721635347
 10
4.291475077415153
 20
0.9802092721635347
  0
ARC
  5
89
100
AcDbEntity
  8
USP-GEO
100
AcDbCircle
 10
4.334406952041407
 20
0.4895145426903938
 30
0.0
 40
0.302
100
AcDbArc
 50
280.1962129026329
 51
80.60940201894419
  0
ARC
  5
8A
100
AcDbEntity
  8
USP-GEO
100
AcDbCircle
 10
2.021906952041392
 20
0.3020145426903937
 30
0.0
 40
0.302
100
AcDbArc
 50
101.6432717018864
 51
257.3302731156415
  0
TEXT
  5
8B
100
AcDbEntity
  8
USP-TXT
100
AcDbText
 10
0.9636518440662701
 20
-0.9638751623555705
 30
0.0
 40
0.25
  1
TFL2316 - TOP VIEW
 72
     1
 11
3.171985177399603
 21
-0.9638751623555705
 31
0.0
100
AcDbText
  0
ENDBLK
  5
92
100
AcDbEntity
  8
0
100
AcDbBlockEnd
  0
BLOCK
  5
10C
100
AcDbEntity
  8
0
100
AcDbBlockBegin
  2
TFL2316PR_F
 70
     0
 10
0.0
 20
0.0
 30
0.0
  3
TFL2316PR_F
  1

  0
LWPOLYLINE
  5
95
100
AcDbEntity
  8
USP-GEO
100
AcDbPolyline
 90
        2
 70
   128
 43
0.0
 10
1.889615846665198
 20
16.07613138044194
 10
0.0002945265973106
 20
16.07613138044194
  0
LWPOLYLINE
  5
96
100
AcDbEntity
  8
USP-GEO
100
AcDbPolyline
 90
        2
 70
   128
 43
0.0
 10
6.367575446727397
 20
16.07613138044194
 10
4.45494356132863
 20
16.07613138044194
  0
CIRCLE
  5
97
100
AcDbEntity
  8
USP-GEO
100
AcDbCircle
 10
1.52413487905649
 20
15.07183656657218
 30
0.0
 40
0.09
  0
LWPOLYLINE
  5
98
100
AcDbEntity
  8
USP-GEO
100
AcDbPolyline
 90
        2
 70
   128
 43
0.0
 10
1.539957366701987
 20
4.8299491365585
 10
1.656510193356391
 20
4.946501963212902
  0
LWPOLYLINE
  5
99
100
AcDbEntity
  8
USP-GEO
100
AcDbPolyline
 90
        2
 70
   128
 43
0.0
 10
1.656510193356391
 20
4.736706875234975
 10
1.539957366701987
 20
4.8299491365585
  0
LWPOLYLINE
  5
9A
100
AcDbEntity
  8
USP-GEO
100
AcDbPolyline
 90
        2
 70
   128
 43
0.0
 10
1.773063020010794
 20
4.8299491365585
 10
1.656510193356391
 20
4.736706875234975
  0
LWPOLYLINE
  5
9B
100
AcDbEntity
  8
USP-GEO
100
AcDbPolyline
 90
        2
 70
   128
 43
0.0
 10
1.656510193356391
 20
4.946501963212902
 10
1.773063020010794
 20
4.8299491365585
  0
LWPOLYLINE
  5
9C
100
AcDbEntity
  8
USP-GEO
100
AcDbPolyline
 90
        2
 70
   128
 43
0.0
 10
1.842994716003437
 20
2.263455893628524
 10
1.236920017400536
 20
5.412713269830518
  0
ARC
  5
9D
100
AcDbEntity
  8
USP-GEO
100
AcDbCircle
 10
1.970201478638728
 20
5.568798415270814
 30
0.0
 40
0.75
100
AcDbArc
 50
181.2282651624944
 51
192.0165474783145
  0
LWPOLYLINE
  5
9E
100
AcDbEntity
  8
USP-GEO
100
AcDbPolyline
 90
        2
 70
   128
 43
0.0
 10
1.213609452069655
 20
14.27888679343102
 10
1.213609452069655
 20
5.552576661815805
  0
ARC
  5
9F
100
AcDbEntity
  8
USP-GEO
100
AcDbCircle
 10
0.7202014786387288
 20
14.26405942164603
 30
0.0
 40
0.5
100
AcDbArc
 50
1.721273831828591
 51
42.34081802938772
  0
LWPOLYLINE
  5
A0
100
AcDbEntity
  8
USP-GEO
100
AcDbPolyline
 90
        2
 70
   128
 43
0.0
 10
1.095891097148707
 20
14.6064002363299
 10
0.1867790492443564
 20
15.60992007382432
  0
ARC
  5
A1
100
AcDbEntity
  8
USP-GEO
100
AcDbCircle
 10
0.0050188175599437
 20
15.44683656657218
 30
0.0
 40
0.25
100
AcDbArc
 50
41.89989147034295
 51
91.05588794822677
  0
ARC
  5
A2
100
AcDbEntity
  8
USP-GEO
100
AcDbCircle
 10
0.0050188175599437
 20
15.80272050507562
 30
0.0
 40
0.1058839385034389
100
AcDbArc
 50
267.2832060032857
 51
267.9528018195424
  0
LWPOLYLINE
  5
A3
100
AcDbEntity
  8
USP-GEO
100
AcDbPolyline
 90
        2
 70
   128
 43
0.0
 10
0.0002945265973106
 20
16.02951024978017
 10
0.0002945265973106
 20
15.70316233514784
  0
LWPOLYLINE
  5
A4
100
AcDbEntity
  8
USP-GEO
100
AcDbPolyline
 90
        2
 70
   128
 43
0.0
 10
4.338390734674226
 20
2.170213632305003
 10
4.385011865335987
 20
2.170213632305003
  0
LWPOLYLINE
  5
A5
100
AcDbEntity
  8
USP-GEO
100
AcDbPolyline
 90
        2
 70
   128
 43
0.0
 10
4.338390734674226
 20
2.263455893628524
 10
4.385011865335987
 20
2.263455893628524
  0
LWPOLYLINE
  5
A6
100
AcDbEntity
  8
USP-GEO
100
AcDbPolyline
 90
        2
 70
   128
 43
0.0
 10
2.029479238650483
 20
2.053660805650597
 10
2.029479238650483
 20
0.0932422613235247
  0
LWPOLYLINE
  5
A7
100
AcDbEntity
  8
USP-GEO
100
AcDbPolyline
 90
        2
 70
   128
 43
0.0
 10
2.029479238650483
 20
15.70316233514784
 10
2.029479238650483
 20
15.60992007382432
  0
LWPOLYLINE
  5
A8
100
AcDbEntity
  8
USP-GEO
100
AcDbPolyline
 90
        2
 70
   128
 43
0.0
 10
2.029479238650483
 20
15.60992007382432
 10
2.029479238650483
 20
14.6064002363299
  0
LWPOLYLINE
  5
A9
100
AcDbEntity
  8
USP-GEO
100
AcDbPolyline
 90
        2
 70
   128
 43
0.0
 10
2.029479238650483
 20
14.6064002363299
 10
2.029479238650483
 20
14.27888679343102
  0
LWPOLYLINE
  5
AA
100
AcDbEntity
  8
USP-GEO
100
AcDbPolyline
 90
        2
 70
   128
 43
0.0
 10
2.029479238650483
 20
14.27888679343102
 10
2.029479238650483
 20
5.552576661815805
  0
LWPOLYLINE
  5
AB
100
AcDbEntity
  8
USP-GEO
100
AcDbPolyline
 90
        2
 70
   128
 43
0.0
 10
2.029479238650483
 20
5.552576661815805
 10
2.029479238650483
 20
5.412713269830518
  0
LWPOLYLINE
  5
AC
100
AcDbEntity
  8
USP-GEO
100
AcDbPolyline
 90
        2
 70
   128
 43
0.0
 10
2.029479238650483
 20
5.412713269830518
 10
2.029479238650483
 20
2.263455893628524
  0
LWPOLYLINE
  5
AD
100
AcDbEntity
  8
USP-GEO
100
AcDbPolyline
 90
        2
 70
   128
 43
0.0
 10
2.029479238650483
 20
2.263455893628524
 10
1.959547542657841
 20
2.263455893628524
  0
LWPOLYLINE
  5
AE
100
AcDbEntity
  8
USP-GEO
100
AcDbPolyline
 90
        2
 70
   128
 43
0.0
 10
2.029479238650483
 20
2.263455893628524
 10
2.029479238650483
 20
2.170213632305003
  0
LWPOLYLINE
  5
AF
100
AcDbEntity
  8
USP-GEO
100
AcDbPolyline
 90
        2
 70
   128
 43
0.0
 10
2.029479238650483
 20
2.170213632305003
 10
1.959547542657841
 20
2.170213632305003
  0
LWPOLYLINE
  5
B0
100
AcDbEntity
  8
USP-GEO
100
AcDbPolyline
 90
        2
 70
   128
 43
0.0
 10
2.029479238650483
 20
2.170213632305003
 10
2.029479238650483
 20
2.053660805650597
  0
ARC
  5
B1
100
AcDbEntity
  8
USP-GEO
100
AcDbCircle
 10
2.060201478638703
 20
0.1098865665721913
 30
0.0
 40
0.038
100
AcDbArc
 50
208.4473866868345
 51
259.4910204745542
  0
ARC
  5
B2
100
AcDbEntity
  8
USP-GEO
100
AcDbCircle
 10
2.060201478638703
 20
0.1098865665721913
 30
0.0
 40
0.09
100
AcDbArc
 50
189.3895581555931
 51
266.1413348434647
  0
LWPOLYLINE
  5
B3
100
AcDbEntity
  8
USP-GEO
100
AcDbPolyline
 90
        2
 70
   128
 43
0.0
 10
2.052789803981364
 20
0.0
 10
4.291769604012464
 20
0.0
  0
ARC
  5
B4
100
AcDbEntity
  8
USP-GEO
100
AcDbCircle
 10
4.29670147863871
 20
0.1098865665721913
 30
0.0
 40
0.09
100
AcDbArc
 50
267.4302036762388
 51
349.3263849254174
  0
LWPOLYLINE
  5
B5
100
AcDbEntity
  8
USP-GEO
100
AcDbPolyline
 90
        2
 70
   128
 43
0.0
 10
2.052789803981364
 20
0.0699316959926435
 10
4.291769604012464
 20
0.0699316959926435
  0
ARC
  5
B6
100
AcDbEntity
  8
USP-GEO
100
AcDbCircle
 10
4.296701478638724
 20
0.1098865665721913
 30
0.0
 40
0.038
100
AcDbArc
 50
262.9632251679303
 51
338.2357991436449
  0
CIRCLE
  5
B7
100
AcDbEntity
  8
USP-GEO
100
AcDbCircle
 10
4.832768078221179
 20
15.07183656657228
 30
0.0
 40
0.09
  0
LWPOLYLINE
  5
B8
100
AcDbEntity
  8
USP-GEO
100
AcDbPolyline
 90
        2
 70
   128
 43
0.0
 10
4.688049214637438
 20
4.736706875234975
 10
4.594806953313914
 20
4.8299491365585
  0
LWPOLYLINE
  5
B9
100
AcDbEntity
  8
USP-GEO
100
AcDbPolyline
 90
        2
 70
   128
 43
0.0
 10
4.804602041291841
 20
4.8299491365585
 10
4.688049214637438
 20
4.736706875234975
  0
LWPOLYLINE
  5
BA
100
AcDbEntity
  8
USP-GEO
100
AcDbPolyline
 90
        2
 70
   128
 43
0.0
 10
4.688049214637438
 20
4.946501963212902
 10
4.804602041291841
 20
4.8299491365585
  0
LWPOLYLINE
  5
BB
100
AcDbEntity
  8
USP-GEO
100
AcDbPolyline
 90
        2
 70
   128
 43
0.0
 10
4.594806953313914
 20
4.8299491365585
 10
4.688049214637438
 20
4.946501963212902
  0
ARC
  5
BC
100
AcDbEntity
  8
USP-GEO
100
AcDbCircle
 10
4.35188413971774
 20
15.80272050507572
 30
0.0
 40
0.1058839385034389
100
AcDbArc
 50
288.4047309324571
 51
9.363892852794513
  0
LWPOLYLINE
  5
BD
100
AcDbEntity
  8
USP-GEO
100
AcDbPolyline
 90
        2
 70
   128
 43
0.0
 10
4.45494356132863
 20
15.81971516180225
 10
4.45494356132863
 20
16.02951024978017
  0
ARC
  5
BE
100
AcDbEntity
  8
USP-GEO
100
AcDbCircle
 10
6.351884139717726
 20
15.80272050507572
 30
0.0
 40
0.1058839385034389
100
AcDbArc
 50
265.6236435327756
 51
278.9566769975075
  0
ARC
  5
BF
100
AcDbEntity
  8
USP-GEO
100
AcDbCircle
 10
6.351884139717726
 20
15.44683656657228
 30
0.0
 40
0.25
100
AcDbArc
 50
91.70261008420293
 51
139.9634536099737
  0
LWPOLYLINE
  5
C0
100
AcDbEntity
  8
USP-GEO
100
AcDbPolyline
 90
        2
 70
   128
 43
0.0
 10
5.271978876176
 20
14.6064002363299
 10
6.15778035874947
 20
15.60992007382432
  0
ARC
  5
C1
100
AcDbEntity
  8
USP-GEO
100
AcDbCircle
 10
5.636701478638941
 20
14.26405942164613
 30
0.0
 40
0.5
100
AcDbArc
 50
136.8130678003428
 51
178.3168351175939
  0
LWPOLYLINE
  5
C2
100
AcDbEntity
  8
USP-GEO
100
AcDbPolyline
 90
        2
 70
   128
 43
0.0
 10
5.132115484190717
 20
14.27888679343102
 10
5.132115484190717
 20
5.552576661815805
  0
ARC
  5
C3
100
AcDbEntity
  8
USP-GEO
100
AcDbCircle
 10
4.386701478638941
 20
5.568798415270878
 30
0.0
 40
0.75
100
AcDbArc
 50
348.1734851495078
 51
358.7533218848363
  0
LWPOLYLINE
  5
C4
100
AcDbEntity
  8
USP-GEO
100
AcDbPolyline
 90
        2
 70
   128
 43
0.0
 10
4.501564691990391
 20
2.263455893628524
 10
5.132115484190717
 20
5.412713269830518
  0
ARC
  5
C5
100
AcDbEntity
  8
USP-GEO
100
AcDbCircle
 10
4.386701478638955
 20
2.306261566572276
 30
0.0
 40
0.125
100
AcDbArc
 50
288.2764468625055
 51
339.5612602424496
  0
LWPOLYLINE
  5
C6
100
AcDbEntity
  8
USP-GEO
100
AcDbPolyline
 90
        2
 70
   128
 43
0.0
 10
6.367575446727397
 20
15.70316233514784
 10
6.367575446727397
 20
16.02951024978017
  0
LWPOLYLINE
  5
C7
100
AcDbEntity
  8
USP-GEO
100
AcDbPolyline
 90
        2
 70
   128
 43
0.0
 10
4.45494356132863
 20
16.02951024978017
 10
4.45494356132863
 20
16.1227525111037
  0
LWPOLYLINE
  5
C8
100
AcDbEntity
  8
USP-GEO
100
AcDbPolyline
 90
        2
 70
   128
 43
0.0
 10
4.45494356132863
 20
16.1227525111037
 10
6.367575446727397
 20
16.1227525111037
  0
LWPOLYLINE
  5
C9
100
AcDbEntity
  8
USP-GEO
100
AcDbPolyline
 90
        2
 70
   128
 43
0.0
 10
6.367575446727397
 20
16.1227525111037
 10
6.367575446727397
 20
16.02951024978017
  0
LWPOLYLINE
  5
CA
100
AcDbEntity
  8
USP-GEO
100
AcDbPolyline
 90
        2
 70
   128
 43
0.0
 10
4.338390734674226
 20
14.6064002363299
 10
4.338390734674226
 20
15.60992007382432
  0
LWPOLYLINE
  5
CB
100
AcDbEntity
  8
USP-GEO
100
AcDbPolyline
 90
        2
 70
   128
 43
0.0
 10
4.338390734674226
 20
14.27888679343102
 10
4.338390734674226
 20
14.6064002363299
  0
LWPOLYLINE
  5
CC
100
AcDbEntity
  8
USP-GEO
100
AcDbPolyline
 90
        2
 70
   128
 43
0.0
 10
4.338390734674226
 20
5.552576661815805
 10
4.338390734674226
 20
14.27888679343102
  0
LWPOLYLINE
  5
CD
100
AcDbEntity
  8
USP-GEO
100
AcDbPolyline
 90
        2
 70
   128
 43
0.0
 10
4.338390734674226
 20
5.412713269830518
 10
4.338390734674226
 20
5.552576661815805
  0
LWPOLYLINE
  5
CE
100
AcDbEntity
  8
USP-GEO
100
AcDbPolyline
 90
        2
 70
   128
 43
0.0
 10
4.338390734674226
 20
2.263455893628524
 10
4.338390734674226
 20
5.412713269830518
  0
LWPOLYLINE
  5
CF
100
AcDbEntity
  8
USP-GEO
100
AcDbPolyline
 90
        2
 70
   128
 43
0.0
 10
4.338390734674226
 20
2.170213632305003
 10
4.338390734674226
 20
2.263455893628524
  0
LWPOLYLINE
  5
D0
100
AcDbEntity
  8
USP-GEO
100
AcDbPolyline
 90
        2
 70
   128
 43
0.0
 10
4.338390734674226
 20
2.053660805650597
 10
4.338390734674226
 20
2.170213632305003
  0
LWPOLYLINE
  5
D1
100
AcDbEntity
  8
USP-GEO
100
AcDbPolyline
 90
        2
 70
   128
 43
0.0
 10
4.338390734674226
 20
0.0932422613235247
 10
4.338390734674226
 20
2.053660805650597
  0
LWPOLYLINE
  5
D2
100
AcDbEntity
  8
USP-GEO
100
AcDbPolyline
 90
        2
 70
   128
 43
0.0
 10
4.338390734674226
 20
15.60992007382432
 10
4.338390734674226
 20
15.70316233514784
  0
LWPOLYLINE
  5
D3
100
AcDbEntity
  8
USP-GEO
100
AcDbPolyline
 90
        2
 70
   128
 43
0.0
 10
4.431632995997749
 20
15.70316233514784
 10
4.385011865335987
 20
15.70316233514784
  0
LWPOLYLINE
  5
D4
100
AcDbEntity
  8
USP-GEO
100
AcDbPolyline
 90
        2
 70
   128
 43
0.0
 10
4.338390734674226
 20
15.70316233514784
 10
4.385011865335987
 20
15.70316233514784
  0
LWPOLYLINE
  5
D5
100
AcDbEntity
  8
USP-GEO
100
AcDbPolyline
 90
        2
 70
   128
 43
0.0
 10
4.338390734674226
 20
15.70316233514784
 10
4.33955626294077
 20
15.70316233514784
  0
LWPOLYLINE
  5
D6
100
AcDbEntity
  8
USP-GEO
100
AcDbPolyline
 90
        2
 70
   128
 43
0.0
 10
4.338390734674226
 20
15.70316233514784
 10
4.33955626294077
 20
15.70316233514784
  0
LWPOLYLINE
  5
D7
100
AcDbEntity
  8
USP-GEO
100
AcDbPolyline
 90
        2
 70
   128
 43
0.0
 10
4.385011865335987
 20
0.0932422613235247
 10
4.385011865335987
 20
2.053660805650597
  0
LWPOLYLINE
  5
D8
100
AcDbEntity
  8
USP-GEO
100
AcDbPolyline
 90
        2
 70
   128
 43
0.0
 10
4.385011865335987
 20
2.170213632305003
 10
4.385011865335987
 20
2.053660805650597
  0
LWPOLYLINE
  5
D9
100
AcDbEntity
  8
USP-GEO
100
AcDbPolyline
 90
        2
 70
   128
 43
0.0
 10
4.385011865335987
 20
2.170213632305003
 10
4.385011865335987
 20
2.263455893628524
  0
LWPOLYLINE
  5
DA
100
AcDbEntity
  8
USP-GEO
100
AcDbPolyline
 90
        2
 70
   128
 43
0.0
 10
4.385011865335987
 20
2.263455893628524
 10
4.385011865335987
 20
5.412713269830518
  0
LWPOLYLINE
  5
DB
100
AcDbEntity
  8
USP-GEO
100
AcDbPolyline
 90
        2
 70
   128
 43
0.0
 10
4.385011865335987
 20
5.412713269830518
 10
4.385011865335987
 20
5.552576661815805
  0
LWPOLYLINE
  5
DC
100
AcDbEntity
  8
USP-GEO
100
AcDbPolyline
 90
        2
 70
   128
 43
0.0
 10
4.385011865335987
 20
14.27888679343102
 10
4.385011865335987
 20
5.552576661815805
  0
LWPOLYLINE
  5
DD
100
AcDbEntity
  8
USP-GEO
100
AcDbPolyline
 90
        2
 70
   128
 43
0.0
 10
4.385011865335987
 20
14.6064002363299
 10
4.385011865335987
 20
14.27888679343102
  0
LWPOLYLINE
  5
DE
100
AcDbEntity
  8
USP-GEO
100
AcDbPolyline
 90
        2
 70
   128
 43
0.0
 10
4.385011865335987
 20
14.6064002363299
 10
4.385011865335987
 20
15.60992007382432
  0
LWPOLYLINE
  5
DF
100
AcDbEntity
  8
USP-GEO
100
AcDbPolyline
 90
        2
 70
   128
 43
0.0
 10
4.385011865335987
 20
15.70316233514784
 10
4.385011865335987
 20
15.60992007382432
  0
LWPOLYLINE
  5
E0
100
AcDbEntity
  8
USP-GEO
100
AcDbPolyline
 90
        2
 70
   128
 43
0.0
 10
4.385011865335987
 20
15.70316233514784
 10
4.386177393602532
 20
15.70316233514784
  0
LWPOLYLINE
  5
E1
100
AcDbEntity
  8
USP-GEO
100
AcDbPolyline
 90
        2
 70
   128
 43
0.0
 10
4.385011865335987
 20
15.70316233514784
 10
4.431632995997749
 20
15.70316233514784
  0
LWPOLYLINE
  5
E2
100
AcDbEntity
  8
USP-GEO
100
AcDbPolyline
 90
        2
 70
   128
 43
0.0
 10
4.431632995997749
 20
2.170213632305003
 10
4.385011865335987
 20
2.170213632305003
  0
LWPOLYLINE
  5
E3
100
AcDbEntity
  8
USP-GEO
100
AcDbPolyline
 90
        2
 70
   128
 43
0.0
 10
1.959547542657841
 20
15.60992007382432
 10
1.959547542657841
 20
15.70316233514784
  0
LWPOLYLINE
  5
E4
100
AcDbEntity
  8
USP-GEO
100
AcDbPolyline
 90
        2
 70
   128
 43
0.0
 10
1.959547542657841
 20
14.6064002363299
 10
1.959547542657841
 20
15.60992007382432
  0
LWPOLYLINE
  5
E5
100
AcDbEntity
  8
USP-GEO
100
AcDbPolyline
 90
        2
 70
   128
 43
0.0
 10
1.959547542657841
 20
14.27888679343102
 10
1.959547542657841
 20
14.6064002363299
  0
LWPOLYLINE
  5
E6
100
AcDbEntity
  8
USP-GEO
100
AcDbPolyline
 90
        2
 70
   128
 43
0.0
 10
1.959547542657841
 20
14.27888679343102
 10
1.959547542657841
 20
5.552576661815805
  0
LWPOLYLINE
  5
E7
100
AcDbEntity
  8
USP-GEO
100
AcDbPolyline
 90
        2
 70
   128
 43
0.0
 10
1.959547542657841
 20
5.552576661815805
 10
1.959547542657841
 20
5.412713269830518
  0
LWPOLYLINE
  5
E8
100
AcDbEntity
  8
USP-GEO
100
AcDbPolyline
 90
        2
 70
   128
 43
0.0
 10
1.959547542657841
 20
2.263455893628524
 10
1.959547542657841
 20
5.412713269830518
  0
LWPOLYLINE
  5
E9
100
AcDbEntity
  8
USP-GEO
100
AcDbPolyline
 90
        2
 70
   128
 43
0.0
 10
1.959547542657841
 20
2.263455893628524
 10
1.959547542657841
 20
2.170213632305003
  0
LWPOLYLINE
  5
EA
100
AcDbEntity
  8
USP-GEO
100
AcDbPolyline
 90
        2
 70
   128
 43
0.0
 10
1.959547542657841
 20
2.053660805650597
 10
1.959547542657841
 20
2.170213632305003
  0
LWPOLYLINE
  5
EB
100
AcDbEntity
  8
USP-GEO
100
AcDbPolyline
 90
        2
 70
   128
 43
0.0
 10
1.959547542657841
 20
2.053660805650597
 10
1.959547542657841
 20
0.0932422613235247
  0
LWPOLYLINE
  5
EC
100
AcDbEntity
  8
USP-GEO
100
AcDbPolyline
 90
        2
 70
   128
 43
0.0
 10
1.959547542657841
 20
15.70316233514784
 10
1.960713070924385
 20
15.70316233514784
  0
LWPOLYLINE
  5
ED
100
AcDbEntity
  8
USP-GEO
100
AcDbPolyline
 90
        2
 70
   128
 43
0.0
 10
1.889615846665198
 20
16.02951024978017
 10
1.889615846665198
 20
15.81971516180225
  0
LWPOLYLINE
  5
EE
100
AcDbEntity
  8
USP-GEO
100
AcDbPolyline
 90
        2
 70
   128
 43
0.0
 10
0.0002945265973106
 20
16.1227525111037
 10
1.889615846665198
 20
16.1227525111037
  0
LWPOLYLINE
  5
EF
100
AcDbEntity
  8
USP-GEO
100
AcDbPolyline
 90
        2
 70
   128
 43
0.0
 10
1.889615846665198
 20
16.1227525111037
 10
1.889615846665198
 20
16.02951024978017
  0
LWPOLYLINE
  5
F0
100
AcDbEntity
  8
USP-GEO
100
AcDbPolyline
 90
        2
 70
   128
 43
0.0
 10
0.0002945265973106
 20
16.02951024978017
 10
0.0002945265973106
 20
16.1227525111037
  0
ARC
  5
F1
100
AcDbEntity
  8
USP-GEO
100
AcDbCircle
 10
1.970201478638714
 20
2.306261566572183
 30
0.0
 40
0.125
100
AcDbArc
 50
198.5983280470885
 51
255.9825786603298
  0
LWPOLYLINE
  5
F2
100
AcDbEntity
  8
USP-GEO
100
AcDbPolyline
 90
        2
 70
   128
 43
0.0
 10
1.959547542657841
 20
2.170213632305003
 10
1.93623697732696
 20
2.170213632305003
  0
ARC
  5
F3
100
AcDbEntity
  8
USP-GEO
100
AcDbCircle
 10
2.005018817559929
 20
15.80272050507562
 30
0.0
 40
0.1058839385034389
100
AcDbArc
 50
171.6226298594482
 51
245.452363536479
  0
LWPOLYLINE
  5
F4
100
AcDbEntity
  8
USP-GEO
100
AcDbPolyline
 90
        2
 70
   128
 43
0.0
 10
1.93623697732696
 20
15.70316233514784
 10
1.959547542657841
 20
15.70316233514784
  0
LWPOLYLINE
  5
F5
100
AcDbEntity
  8
USP-GEO
100
AcDbPolyline
 90
        2
 70
   128
 43
0.0
 10
1.959547542657841
 20
15.70316233514784
 10
1.93623697732696
 20
15.70316233514784
  0
LWPOLYLINE
  5
F6
100
AcDbEntity
  8
USP-GEO
100
AcDbPolyline
 90
        2
 70
   128
 43
0.0
 10
2.006168673319602
 20
15.70316233514784
 10
1.959547542657841
 20
15.70316233514784
  0
LWPOLYLINE
  5
F7
100
AcDbEntity
  8
USP-GEO
100
AcDbPolyline
 90
        2
 70
   128
 43
0.0
 10
2.029479238650483
 20
15.70316233514784
 10
2.006168673319602
 20
15.70316233514784
  0
LWPOLYLINE
  5
F8
100
AcDbEntity
  8
USP-GEO
100
AcDbPolyline
 90
        2
 70
   128
 43
0.0
 10
2.029479238650483
 20
15.70316233514784
 10
2.030644766917026
 20
15.70316233514784
  0
LWPOLYLINE
  5
F9
100
AcDbEntity
  8
USP-GEO
100
AcDbPolyline
 90
        2
 70
   128
 43
0.0
 10
1.866305281334318
 20
1.586283970766437
 10
1.749752454679914
 20
1.469731144112035
  0
LWPOLYLINE
  5
FA
100
AcDbEntity
  8
USP-GEO
100
AcDbPolyline
 90
        2
 70
   128
 43
0.0
 10
4.478254126659511
 20
1.586283970766437
 10
4.594806953313914
 20
1.469731144112035
  0
LWPOLYLINE
  5
FB
100
AcDbEntity
  8
USP-GEO
100
AcDbPolyline
 90
        2
 70
   128
 43
0.0
 10
2.076100369312245
 20
0.9802092721635382
 10
2.169342630635768
 20
0.9102775761708947
  0
LWPOLYLINE
  5
FC
100
AcDbEntity
  8
USP-GEO
100
AcDbPolyline
 90
        2
 70
   128
 43
0.0
 10
2.029479238650483
 20
1.003519837494419
 10
2.076100369312245
 20
0.9802092721635382
  0
LWPOLYLINE
  5
FD
100
AcDbEntity
  8
USP-GEO
100
AcDbPolyline
 90
        2
 70
   128
 43
0.0
 10
2.029479238650483
 20
0.9335881415017759
 10
2.076100369312245
 20
0.9802092721635382
  0
LWPOLYLINE
  5
FE
100
AcDbEntity
  8
USP-GEO
100
AcDbPolyline
 90
        2
 70
   128
 43
0.0
 10
2.146032065304887
 20
0.8636564455091324
 10
2.169342630635768
 20
0.9102775761708947
  0
LWPOLYLINE
  5
FF
100
AcDbEntity
  8
USP-GEO
100
AcDbPolyline
 90
        2
 70
   128
 43
0.0
 10
2.029479238650483
 20
0.9335881415017759
 10
2.030644766917026
 20
0.9335881415017759
  0
LWPOLYLINE
  5
100
100
AcDbEntity
  8
USP-GEO
100
AcDbPolyline
 90
        2
 70
   128
 43
0.0
 10
2.146032065304887
 20
0.8636564455091324
 10
2.029479238650483
 20
0.9335881415017759
  0
LWPOLYLINE
  5
101
100
AcDbEntity
  8
USP-GEO
100
AcDbPolyline
 90
        2
 70
   128
 43
0.0
 10
4.291769604012464
 20
0.9802092721635382
 10
4.17521677735806
 20
0.9102775761708947
  0
LWPOLYLINE
  5
102
100
AcDbEntity
  8
USP-GEO
100
AcDbPolyline
 90
        2
 70
   128
 43
0.0
 10
4.198527342688941
 20
0.8636564455091324
 10
4.315080169343345
 20
0.9335881415017759
  0
LWPOLYLINE
  5
103
100
AcDbEntity
  8
USP-GEO
100
AcDbPolyline
 90
        2
 70
   128
 43
0.0
 10
4.198527342688941
 20
0.8636564455091324
 10
4.17521677735806
 20
0.9102775761708947
  0
LWPOLYLINE
  5
104
100
AcDbEntity
  8
USP-GEO
100
AcDbPolyline
 90
        2
 70
   128
 43
0.0
 10
4.315080169343345
 20
0.9335881415017759
 10
4.338390734674226
 20
0.9335881415017759
  0
LWPOLYLINE
  5
105
100
AcDbEntity
  8
USP-GEO
100
AcDbPolyline
 90
        2
 70
   128
 43
0.0
 10
4.315080169343345
 20
0.9335881415017759
 10
4.291769604012464
 20
0.9802092721635382
  0
LWPOLYLINE
  5
106
100
AcDbEntity
  8
USP-GEO
100
AcDbPolyline
 90
        2
 70
   128
 43
0.0
 10
4.338390734674226
 20
1.003519837494419
 10
4.291769604012464
 20
0.9802092721635382
  0
ARC
  5
107
100
AcDbEntity
  8
USP-GEO
100
AcDbCircle
 10
4.334701478638721
 20
1.336886566572191
 30
0.0
 40
0.302
100
AcDbArc
 50
60.07535518877332
 51
80.3543558832464
  0
ARC
  5
108
100
AcDbEntity
  8
USP-GEO
100
AcDbCircle
 10
4.334701478638721
 20
1.336886566572191
 30
0.0
 40
0.302
100
AcDbArc
 50
279.216609794689
 51
27.05492303736924
  0
ARC
  5
109
100
AcDbEntity
  8
USP-GEO
100
AcDbCircle
 10
2.022201478638706
 20
1.336886566572305
 30
0.0
 40
0.302
100
AcDbArc
 50
101.950592840749
 51
122.0091529569487
  0
ARC
  5
10A
100
AcDbEntity
  8
USP-GEO
100
AcDbCircle
 10
2.022201478638706
 20
1.336886566572305
 30
0.0
 40
0.302
100
AcDbArc
 50
154.0064033832104
 51
258.5759149422773
  0
TEXT
  5
10B
100
AcDbEntity
  8
USP-TXT
100
AcDbText
 10
0.7139463706635821
 20
-1.073246995034358
 30
0.0
 40
0.25
  1
TFL2316 - FRONT VIEW
 72
     1
 11
3.172279703996914
 21
-1.073246995034358
 31
0.0
100
AcDbText
  0
ENDBLK
  5
10D
100
AcDbEntity
  8
0
100
AcDbBlockEnd
  0
BLOCK
  5
158
100
AcDbEntity
  8
0
100
AcDbBlockBegin
  2
TFL2316PR_S
 70
     0
 10
0.0
 20
0.0
 30
0.0
  3
TFL2316PR_S
  1

  0
LWPOLYLINE
  5
110
100
AcDbEntity
  8
USP-GEO
100
AcDbPolyline
 90
        2
 70
   128
 43
0.0
 10
2.005874146722291
 20
0.0699316959926435
 10
0.0
 20
0.0699316959926435
  0
LWPOLYLINE
  5
111
100
AcDbEntity
  8
USP-GEO
100
AcDbPolyline
 90
        2
 70
   128
 43
0.0
 10
2.192358669369337
 20
2.263455893628524
 10
2.145737538707578
 20
2.263455893628524
  0
LWPOLYLINE
  5
112
100
AcDbEntity
  8
USP-GEO
100
AcDbPolyline
 90
        2
 70
   128
 43
0.0
 10
2.192358669369337
 20
2.170213632305003
 10
2.122426973376697
 20
2.170213632305003
  0
LWPOLYLINE
  5
113
100
AcDbEntity
  8
USP-GEO
100
AcDbPolyline
 90
        2
 70
   128
 43
0.0
 10
2.005874146722291
 20
0.0
 10
0.0
 20
0.0
  0
LWPOLYLINE
  5
114
100
AcDbEntity
  8
USP-GEO
100
AcDbPolyline
 90
        2
 70
   128
 43
0.0
 10
0.0
 20
0.0
 10
0.0
 20
0.0932422613235247
  0
LWPOLYLINE
  5
115
100
AcDbEntity
  8
USP-GEO
100
AcDbPolyline
 90
        2
 70
   128
 43
0.0
 10
2.005874146722291
 20
0.0932422613235247
 10
2.005874146722291
 20
0.0
  0
LWPOLYLINE
  5
116
100
AcDbEntity
  8
USP-GEO
100
AcDbPolyline
 90
        2
 70
   128
 43
0.0
 10
2.192358669369337
 20
2.263455893628524
 10
2.192358669369337
 20
2.170213632305003
  0
LWPOLYLINE
  5
117
100
AcDbEntity
  8
USP-GEO
100
AcDbPolyline
 90
        2
 70
   128
 43
0.0
 10
2.192358669369337
 20
5.412713269830518
 10
2.192358669369337
 20
2.263455893628524
  0
LWPOLYLINE
  5
118
100
AcDbEntity
  8
USP-GEO
100
AcDbPolyline
 90
        2
 70
   128
 43
0.0
 10
2.192358669369337
 20
5.552576661815805
 10
2.192358669369337
 20
5.412713269830518
  0
LWPOLYLINE
  5
119
100
AcDbEntity
  8
USP-GEO
100
AcDbPolyline
 90
        2
 70
   128
 43
0.0
 10
2.192358669369337
 20
14.27888679343102
 10
2.192358669369337
 20
5.552576661815805
  0
LWPOLYLINE
  5
11A
100
AcDbEntity
  8
USP-GEO
100
AcDbPolyline
 90
        2
 70
   128
 43
0.0
 10
2.192358669369337
 20
14.6064002363299
 10
2.192358669369337
 20
14.27888679343102
  0
LWPOLYLINE
  5
11B
100
AcDbEntity
  8
USP-GEO
100
AcDbPolyline
 90
        2
 70
   128
 43
0.0
 10
2.192358669369337
 20
15.60992007382432
 10
2.192358669369337
 20
14.6064002363299
  0
LWPOLYLINE
  5
11C
100
AcDbEntity
  8
USP-GEO
100
AcDbPolyline
 90
        2
 70
   128
 43
0.0
 10
2.192358669369337
 20
15.70316233514784
 10
2.192358669369337
 20
15.60992007382432
  0
LWPOLYLINE
  5
11D
100
AcDbEntity
  8
USP-GEO
100
AcDbPolyline
 90
        2
 70
   128
 43
0.0
 10
2.192358669369337
 20
15.70316233514784
 10
2.193524197635884
 20
15.70316233514784
  0
LWPOLYLINE
  5
11E
100
AcDbEntity
  8
USP-GEO
100
AcDbPolyline
 90
        2
 70
   128
 43
0.0
 10
2.145737538707578
 20
15.70316233514784
 10
2.146903066974122
 20
15.70316233514784
  0
LWPOLYLINE
  5
11F
100
AcDbEntity
  8
USP-GEO
100
AcDbPolyline
 90
        2
 70
   128
 43
0.0
 10
2.145737538707578
 20
15.70316233514784
 10
2.145737538707578
 20
15.60992007382432
  0
LWPOLYLINE
  5
120
100
AcDbEntity
  8
USP-GEO
100
AcDbPolyline
 90
        2
 70
   128
 43
0.0
 10
2.145737538707578
 20
14.6064002363299
 10
2.145737538707578
 20
15.60992007382432
  0
LWPOLYLINE
  5
121
100
AcDbEntity
  8
USP-GEO
100
AcDbPolyline
 90
        2
 70
   128
 43
0.0
 10
2.145737538707578
 20
14.6064002363299
 10
2.145737538707578
 20
14.27888679343102
  0
LWPOLYLINE
  5
122
100
AcDbEntity
  8
USP-GEO
100
AcDbPolyline
 90
        2
 70
   128
 43
0.0
 10
2.145737538707578
 20
14.27888679343102
 10
2.145737538707578
 20
5.552576661815805
  0
LWPOLYLINE
  5
123
100
AcDbEntity
  8
USP-GEO
100
AcDbPolyline
 90
        2
 70
   128
 43
0.0
 10
2.145737538707578
 20
5.412713269830518
 10
2.145737538707578
 20
5.552576661815805
  0
LWPOLYLINE
  5
124
100
AcDbEntity
  8
USP-GEO
100
AcDbPolyline
 90
        2
 70
   128
 43
0.0
 10
2.145737538707578
 20
2.263455893628524
 10
2.145737538707578
 20
5.412713269830518
  0
LWPOLYLINE
  5
125
100
AcDbEntity
  8
USP-GEO
100
AcDbPolyline
 90
        2
 70
   128
 43
0.0
 10
2.145737538707578
 20
2.170213632305003
 10
2.145737538707578
 20
2.263455893628524
  0
LWPOLYLINE
  5
126
100
AcDbEntity
  8
USP-GEO
100
AcDbPolyline
 90
        2
 70
   128
 43
0.0
 10
3.685400378812254
 20
16.1227525111037
 10
2.238979800031099
 20
16.1227525111037
  0
LWPOLYLINE
  5
127
100
AcDbEntity
  8
USP-GEO
100
AcDbPolyline
 90
        2
 70
   128
 43
0.0
 10
3.685400378812254
 20
16.07613138044194
 10
3.685400378812254
 20
16.1227525111037
  0
LWPOLYLINE
  5
128
100
AcDbEntity
  8
USP-GEO
100
AcDbPolyline
 90
        2
 70
   128
 43
0.0
 10
3.685400378812254
 20
16.07613138044194
 10
2.238979800031099
 20
16.07613138044194
  0
ARC
  5
129
100
AcDbEntity
  8
USP-GEO
100
AcDbCircle
 10
2.233051922914095
 20
16.03383656657229
 30
0.0
 40
0.038
100
AcDbArc
 50
82.0216165840865
 51
186.0686239255054
  0
LWPOLYLINE
  5
12A
100
AcDbEntity
  8
USP-GEO
100
AcDbPolyline
 90
        2
 70
   128
 43
0.0
 10
2.192358669369337
 20
16.02951024978017
 10
2.192358669369337
 20
15.70316233514784
  0
LWPOLYLINE
  5
12B
100
AcDbEntity
  8
USP-GEO
100
AcDbPolyline
 90
        2
 70
   128
 43
0.0
 10
2.192358669369337
 20
15.70316233514784
 10
2.145737538707578
 20
15.70316233514784
  0
LWPOLYLINE
  5
12C
100
AcDbEntity
  8
USP-GEO
100
AcDbPolyline
 90
        2
 70
   128
 43
0.0
 10
2.145737538707578
 20
15.70316233514784
 10
2.145737538707578
 20
16.02951024978017
  0
ARC
  5
12D
100
AcDbEntity
  8
USP-GEO
100
AcDbCircle
 10
2.233051922914102
 20
16.03383656657229
 30
0.0
 40
0.09
100
AcDbArc
 50
86.18583055184757
 51
182.8366132227057
  0
LWPOLYLINE
  5
12E
100
AcDbEntity
  8
USP-GEO
100
AcDbPolyline
 90
        2
 70
   128
 43
0.0
 10
2.192358669369337
 20
2.170213632305003
 10
2.193524197635884
 20
2.170213632305003
  0
ARC
  5
12F
100
AcDbEntity
  8
USP-GEO
100
AcDbCircle
 10
2.120368522496306
 20
2.05626156657221
 30
0.0
 40
0.125
100
AcDbArc
 50
88.96511115479327
 51
181.3012604514053
  0
LWPOLYLINE
  5
130
100
AcDbEntity
  8
USP-GEO
100
AcDbPolyline
 90
        2
 70
   128
 43
0.0
 10
2.005874146722291
 20
0.0932422613235247
 10
2.005874146722291
 20
2.053660805650597
  0
LWPOLYLINE
  5
131
100
AcDbEntity
  8
USP-GEO
100
AcDbPolyline
 90
        2
 70
   128
 43
0.0
 10
0.0
 20
0.0932422613235247
 10
0.0
 20
2.053660805650597
  0
ARC
  5
132
100
AcDbEntity
  8
USP-GEO
100
AcDbCircle
 10
0.1203685224963067
 20
2.05626156657221
 30
0.0
 40
0.125
100
AcDbArc
 50
91.91783808921767
 51
181.2377774439068
  0
LWPOLYLINE
  5
133
100
AcDbEntity
  8
USP-GEO
100
AcDbPolyline
 90
        2
 70
   128
 43
0.0
 10
0.139863391985287
 20
2.170213632305003
 10
0.1165528266544058
 20
2.170213632305003
  0
ARC
  5
134
100
AcDbEntity
  8
USP-GEO
100
AcDbCircle
 10
0.143051922914097
 20
2.30626156657221
 30
0.0
 40
0.125
100
AcDbArc
 50
268.6574149207716
 51
339.3137666266442
  0
LWPOLYLINE
  5
135
100
AcDbEntity
  8
USP-GEO
100
AcDbPolyline
 90
        2
 70
   128
 43
0.0
 10
0.2564162186396892
 20
2.263455893628524
 10
0.8869670108400136
 20
5.412713269830518
  0
ARC
  5
136
100
AcDbEntity
  8
USP-GEO
100
AcDbCircle
 10
0.1430519229140827
 20
5.568798415270812
 30
0.0
 40
0.75
100
AcDbArc
 50
348.1503289155829
 51
358.7508107430398
  0
LWPOLYLINE
  5
137
100
AcDbEntity
  8
USP-GEO
100
AcDbPolyline
 90
        2
 70
   128
 43
0.0
 10
0.8869670108400136
 20
14.27888679343102
 10
0.8869670108400136
 20
5.552576661815805
  0
ARC
  5
138
100
AcDbEntity
  8
USP-GEO
100
AcDbCircle
 10
1.393051922914096
 20
14.26405942164607
 30
0.0
 40
0.5
100
AcDbArc
 50
136.9303113491191
 51
178.3218174449045
  0
LWPOLYLINE
  5
139
100
AcDbEntity
  8
USP-GEO
100
AcDbPolyline
 90
        2
 70
   128
 43
0.0
 10
1.0268304028253
 20
14.6064002363299
 10
1.91263188539877
 20
15.60992007382432
  0
ARC
  5
13A
100
AcDbEntity
  8
USP-GEO
100
AcDbCircle
 10
2.108234583992881
 20
15.44683656657222
 30
0.0
 40
0.25
100
AcDbArc
 50
92.03730122272052
 51
140.1803846070232
  0
LWPOLYLINE
  5
13B
100
AcDbEntity
  8
USP-GEO
100
AcDbPolyline
 90
        2
 70
   128
 43
0.0
 10
2.099116408045816
 20
2.170213632305003
 10
2.122426973376697
 20
2.170213632305003
  0
CIRCLE
  5
13C
100
AcDbEntity
  8
USP-GEO
100
AcDbCircle
 10
1.393051922914096
 20
14.07183656657222
 30
0.0
 40
0.15625
  0
LWPOLYLINE
  5
13D
100
AcDbEntity
  8
USP-GEO
100
AcDbPolyline
 90
        2
 70
   128
 43
0.0
 10
1.586283970766437
 20
3.826429299064081
 10
1.702836797420843
 20
3.73318703774056
  0
LWPOLYLINE
  5
13E
100
AcDbEntity
  8
USP-GEO
100
AcDbPolyline
 90
        2
 70
   128
 43
0.0
 10
1.493041709442916
 20
3.73318703774056
 10
1.586283970766437
 20
3.826429299064081
  0
LWPOLYLINE
  5
13F
100
AcDbEntity
  8
USP-GEO
100
AcDbPolyline
 90
        2
 70
   128
 43
0.0
 10
1.586283970766437
 20
3.616634211086154
 10
1.493041709442916
 20
3.73318703774056
  0
LWPOLYLINE
  5
140
100
AcDbEntity
  8
USP-GEO
100
AcDbPolyline
 90
        2
 70
   128
 43
0.0
 10
1.702836797420843
 20
3.73318703774056
 10
1.586283970766437
 20
3.616634211086154
  0
LWPOLYLINE
  5
141
100
AcDbEntity
  8
USP-GEO
100
AcDbPolyline
 90
        2
 70
   128
 43
0.0
 10
0.9802092721635382
 20
1.003519837494419
 10
1.259936056134108
 20
1.003519837494419
  0
LWPOLYLINE
  5
142
100
AcDbEntity
  8
USP-GEO
100
AcDbPolyline
 90
        2
 70
   128
 43
0.0
 10
2.099116408045816
 20
15.70316233514784
 10
2.100281936312359
 20
15.70316233514784
  0
LWPOLYLINE
  5
143
100
AcDbEntity
  8
USP-GEO
100
AcDbPolyline
 90
        2
 70
   128
 43
0.0
 10
2.099116408045816
 20
15.70316233514784
 10
2.145737538707578
 20
15.70316233514784
  0
LWPOLYLINE
  5
144
100
AcDbEntity
  8
USP-GEO
100
AcDbPolyline
 90
        2
 70
   128
 43
0.0
 10
2.145737538707578
 20
2.170213632305003
 10
2.099116408045816
 20
2.170213632305003
  0
ARC
  5
145
100
AcDbEntity
  8
USP-GEO
100
AcDbCircle
 10
0.3100873869420013
 20
1.336886566572296
 30
0.0
 40
0.25
100
AcDbArc
 50
33.23400730427686
 51
56.77621057025832
  0
ELLIPSE
  5
146
100
AcDbEntity
  8
USP-GEO
  6
CONTINUOUS
100
AcDbEllipse
 10
0.4975873869420014
 20
1.504838940773922
 30
0.0
 11
-0.078000000000003
 21
0.0
 31
0.0
210
0.0
220
0.0
230
1.0
 40
0.7071067811865476
 41
3.394385880410828
 42
6.077385760324797
1001
ACAD
1000
RTLwPs
1070
   128
  0
CIRCLE
  5
147
100
AcDbEntity
  8
USP-GEO
100
AcDbCircle
 10
0.4975873869420014
 20
1.336886566572189
 30
0.0
 40
0.2974894956128717
  0
ELLIPSE
  5
148
100
AcDbEntity
  8
USP-GEO
  6
CONTINUOUS
100
AcDbEllipse
 10
0.4975873869420014
 20
1.543187317903829
 30
0.0
 11
-0.078000000000003
 21
0.0
 31
0.0
210
0.0
220
0.0
230
1.0
 40
0.7071067811865476
 41
5.801451112342355
 42
6.741975691453567
1001
ACAD
1000
RTLwPs
1070
   128
  0
ELLIPSE
  5
149
100
AcDbEntity
  8
USP-GEO
  6
CONTINUOUS
100
AcDbEllipse
 10
0.4975873869420014
 20
1.543187317903829
 30
0.0
 11
-0.078000000000003
 21
0.0
 31
0.0
210
0.0
220
0.0
230
1.0
 40
0.7071067811865476
 41
0.4528395628139
 42
0.9242907663616289
1001
ACAD
1000
RTLwPs
1070
   128
  0
ELLIPSE
  5
14A
100
AcDbEntity
  8
USP-GEO
  6
CONTINUOUS
100
AcDbEllipse
 10
0.4975873869420014
 20
1.543187317903829
 30
0.0
 11
-0.078000000000003
 21
0.0
 31
0.0
210
0.0
220
0.0
230
1.0
 40
0.7071067811865476
 41
4.825120281474078
 42
5.810241903935808
1001
ACAD
1000
RTLwPs
1070
   128
  0
ELLIPSE
  5
14B
100
AcDbEntity
  8
USP-GEO
  6
CONTINUOUS
100
AcDbEllipse
 10
0.4975873869420014
 20
1.543187317903829
 30
0.0
 11
-0.078000000000003
 21
0.0
 31
0.0
210
0.0
220
0.0
230
1.0
 40
0.7071067811865476
 41
4.843959142621403
 42
10.73255605105005
1001
ACAD
1000
RTLwPs
1070
   128
  0
ELLIPSE
  5
14C
100
AcDbEntity
  8
USP-GEO
  6
CONTINUOUS
100
AcDbEllipse
 10
0.4975873869420014
 20
1.543187317903829
 30
0.0
 11
-0.078000000000003
 21
0.0
 31
0.0
210
0.0
220
0.0
230
1.0
 40
0.7071067811865476
 41
0.9139021587780234
 42
2.297397168034701
1001
ACAD
1000
RTLwPs
1070
   128
  0
ELLIPSE
  5
14D
100
AcDbEntity
  8
USP-GEO
  6
CONTINUOUS
100
AcDbEllipse
 10
0.4975873869420014
 20
1.543187317903829
 30
0.0
 11
-0.078000000000003
 21
0.0
 31
0.0
210
0.0
220
0.0
230
1.0
 40
0.7071067811865476
 41
3.559388461776762
 42
4.467285507148505
1001
ACAD
1000
RTLwPs
1070
   128
  0
ELLIPSE
  5
14E
100
AcDbEntity
  8
USP-GEO
  6
CONTINUOUS
100
AcDbEllipse
 10
0.4975873869420014
 20
1.543187317903829
 30
0.0
 11
-0.078000000000003
 21
0.0
 31
0.0
210
0.0
220
0.0
230
1.0
 40
0.7071067811865476
 41
2.288140167065761
 42
3.566353315992951
1001
ACAD
1000
RTLwPs
1070
   128
  0
ELLIPSE
  5
14F
100
AcDbEntity
  8
USP-GEO
  6
CONTINUOUS
100
AcDbEllipse
 10
0.4975873869420014
 20
1.543187317903829
 30
0.0
 11
-0.078000000000003
 21
0.0
 31
0.0
210
0.0
220
0.0
230
1.0
 40
0.7071067811865476
 41
3.083928681418059
 42
3.08469504800627
1001
ACAD
1000
RTLwPs
1070
   128
  0
LWPOLYLINE
  5
150
100
AcDbEntity
  8
USP-GEO
100
AcDbPolyline
 90
        2
 70
   128
 43
0.0
 10
1.259936056134108
 20
0.956898706832657
 10
1.120072664148821
 20
0.8170353148473736
  0
LWPOLYLINE
  5
151
100
AcDbEntity
  8
USP-GEO
100
AcDbPolyline
 90
        2
 70
   128
 43
0.0
 10
1.259936056134108
 20
1.003519837494419
 10
1.259936056134108
 20
0.956898706832657
  0
LWPOLYLINE
  5
152
100
AcDbEntity
  8
USP-GEO
100
AcDbPolyline
 90
        2
 70
   128
 43
0.0
 10
0.9802092721635382
 20
0.956898706832657
 10
0.9802092721635382
 20
1.003519837494419
  0
LWPOLYLINE
  5
153
100
AcDbEntity
  8
USP-GEO
100
AcDbPolyline
 90
        2
 70
   128
 43
0.0
 10
1.120072664148821
 20
0.8170353148473736
 10
0.9802092721635382
 20
0.956898706832657
  0
LWPOLYLINE
  5
154
100
AcDbEntity
  8
USP-GEO
100
AcDbPolyline
 90
        2
 70
   128
 43
0.0
 10
1.120072664148821
 20
0.8636564455091324
 10
1.0268304028253
 20
0.9102775761708947
  0
LWPOLYLINE
  5
155
100
AcDbEntity
  8
USP-GEO
100
AcDbPolyline
 90
        2
 70
   128
 43
0.0
 10
0.9802092721635382
 20
0.956898706832657
 10
1.259936056134108
 20
0.956898706832657
  0
LWPOLYLINE
  5
156
100
AcDbEntity
  8
USP-GEO
100
AcDbPolyline
 90
        2
 70
   128
 43
0.0
 10
1.213314925472346
 20
0.9102775761708947
 10
1.120072664148821
 20
0.8636564455091324
  0
TEXT
  5
157
100
AcDbEntity
  8
USP-TXT
100
AcDbText
 10
-0.44896647726054
 20
-1.073246995034358
 30
0.0
 40
0.25
  1
TFL2316 - SIDE VIEW
 72
     1
 11
1.842700189406127
 21
-1.073246995034358
 31
0.0
100
AcDbText
  0
ENDBLK
  5
159
100
AcDbEntity
  8
0
100
AcDbBlockEnd
  0
ENDSEC
  0
SECTION
  2
ENTITIES
  0
INSERT
  5
3
100
AcDbEntity
  8
USP
100
AcDbBlockReference
  2
TFL2316PR_T
 10
0.007632383640674
 20
19.69291755702642
 30
0.0
  0
INSERT
  5
93
100
AcDbEntity
  8
USP
100
AcDbBlockReference
  2
TFL2316PR_F
 10
0.0073378570433633
 20
1.073603498985391
 30
0.0
  0
INSERT
  5
10E
100
AcDbEntity
  8
USP
100
AcDbBlockReference
  2
TFL2316PR_S
 10
10.29341933589182
 20
1.073603498985391
 30
0.0
  0
ENDSEC
  0
SECTION
  2
OBJECTS
  0
DICTIONARY
  5
171
100
AcDbDictionary
  3
ACAD_GROUP
350
16F
  3
ACAD_MLINESTYLE
350
170
  0
DICTIONARY
  5
9
100
AcDbDictionary
280
     1
  3
ACAD_XREC_ROUNDTRIP
360
A
  0
DICTIONARY
  5
8D
100
AcDbDictionary
280
     1
  3
ACAD_XREC_ROUNDTRIP
360
8E
  0
DICTIONARY
  5
174
100
AcDbDictionary
280
     1
  3
ACAD_XREC_ROUNDTRIP
360
175
  0
DICTIONARY
  5
15A
100
AcDbDictionary
280
     1
  3
ACAD_LAYOUTSELFREF
360
15B
  0
DICTIONARY
  5
15F
100
AcDbDictionary
280
     1
  3
ACAD_LAYOUTSELFREF
360
160
  0
DICTIONARY
  5
16F
102
{ACAD_REACTORS
330
171
102
}
100
AcDbDictionary
  0
DICTIONARY
  5
170
102
{ACAD_REACTORS
330
171
102
}
100
AcDbDictionary
  3
STANDARD
350
172
  0
XRECORD
  5
A
102
{ACAD_REACTORS
330
9
102
}
100
AcDbXrecord
102
EXTNAMES
  1
USP-GEO
  2
USP-Geo
  0
XRECORD
  5
8E
102
{ACAD_REACTORS
330
8D
102
}
100
AcDbXrecord
102
EXTNAMES
  1
USP-TXT
  2
USP-Txt
  0
XRECORD
  5
175
102
{ACAD_REACTORS
330
174
102
}
100
AcDbXrecord
102
ACADR14ROUNDTRIP
1000
DSTYLE
1002
{
1070
   276
 70
     2
1070
   277
 70
     5
1002
}
  0
XRECORD
  5
15B
102
{ACAD_REACTORS
330
15A
102
}
100
AcDbXrecord
340
2
  0
XRECORD
  5
160
102
{ACAD_REACTORS
330
15F
102
}
100
AcDbXrecord
340
0
  0
MLINESTYLE
  5
172
102
{ACAD_REACTORS
330
170
102
}
100
AcDbMlineStyle
  2
STANDARD
 70
     0
  3

 62
     0
 51
90.0
 52
90.0
 71
     2
 49
0.5
 62
   256
  6
BYLAYER
 49
-0.5
 62
   256
  6
BYLAYER
  0
ENDSEC
  0
EOF
