  0
SECTION
  2
HEADER
  9
$ACADVER
  1
AC1014
  9
$ACADMAINTVER
 70
     8
  9
$DWGCODEPAGE
  3
ANSI_1252
  9
$INSBASE
 10
0.0
 20
0.0
 30
0.0
  9
$EXTMIN
 10
-0.0024237848308477
 20
0.999104192858071
 30
0.0
  9
$EXTMAX
 10
13.48028262451659
 20
24.01735208622442
 30
0.0
  9
$LIMMIN
 10
0.0
 20
0.0
  9
$LIMMAX
 10
12.0
 20
9.0
  9
$ORTHOMODE
 70
     0
  9
$REGENMODE
 70
     1
  9
$FILLMODE
 70
     1
  9
$QTEXTMODE
 70
     0
  9
$MIRRTEXT
 70
     0
  9
$DRAGMODE
 70
     2
  9
$LTSCALE
 40
1.5
  9
$OSMODE
 70
     0
  9
$ATTMODE
 70
     1
  9
$TEXTSIZE
 40
0.25
  9
$TRACEWID
 40
0.05
  9
$TEXTSTYLE
  7
STANDARD
  9
$CLAYER
  8
USP
  9
$CELTYPE
  6
BYLAYER
  9
$CECOLOR
 62
   256
  9
$CELTSCALE
 40
1.0
  9
$DELOBJ
 70
     1
  9
$DISPSILH
 70
     1
  9
$DIMSCALE
 40
5.0
  9
$DIMASZ
 40
0.125
  9
$DIMEXO
 40
0.0625
  9
$DIMDLI
 40
0.38
  9
$DIMRND
 40
0.0
  9
$DIMDLE
 40
0.0
  9
$DIMEXE
 40
0.09375
  9
$DIMTP
 40
0.0
  9
$DIMTM
 40
0.0
  9
$DIMTXT
 40
0.109375
  9
$DIMCEN
 40
0.0
  9
$DIMTSZ
 40
0.0
  9
$DIMTOL
 70
     0
  9
$DIMLIM
 70
     0
  9
$DIMTIH
 70
     1
  9
$DIMTOH
 70
     1
  9
$DIMSE1
 70
     0
  9
$DIMSE2
 70
     0
  9
$DIMTAD
 70
     0
  9
$DIMZIN
 70
     8
  9
$DIMBLK
  1

  9
$DIMASO
 70
     1
  9
$DIMSHO
 70
     1
  9
$DIMPOST
  1

  9
$DIMAPOST
  1

  9
$DIMALT
 70
     0
  9
$DIMALTD
 70
     2
  9
$DIMALTF
 40
25.4
  9
$DIMLFAC
 40
1.0
  9
$DIMTOFL
 70
     0
  9
$DIMTVP
 40
0.0
  9
$DIMTIX
 70
     0
  9
$DIMSOXD
 70
     0
  9
$DIMSAH
 70
     0
  9
$DIMBLK1
  1

  9
$DIMBLK2
  1

  9
$DIMSTYLE
  2
STANDARD
  9
$DIMCLRD
 70
   256
  9
$DIMCLRE
 70
   256
  9
$DIMCLRT
 70
   256
  9
$DIMTFAC
 40
1.0
  9
$DIMGAP
 40
0.09
  9
$DIMJUST
 70
     0
  9
$DIMSD1
 70
     0
  9
$DIMSD2
 70
     0
  9
$DIMTOLJ
 70
     1
  9
$DIMTZIN
 70
     0
  9
$DIMALTZ
 70
     0
  9
$DIMALTTZ
 70
     0
  9
$DIMFIT
 70
     3
  9
$DIMUPT
 70
     1
  9
$DIMUNIT
 70
     7
  9
$DIMDEC
 70
     4
  9
$DIMTDEC
 70
     4
  9
$DIMALTU
 70
     2
  9
$DIMALTTD
 70
     2
  9
$DIMTXSTY
  7
STANDARD
  9
$DIMAUNIT
 70
     0
  9
$LUNITS
 70
     5
  9
$LUPREC
 70
     6
  9
$SKETCHINC
 40
0.1
  9
$FILLETRAD
 40
0.0
  9
$AUNITS
 70
     0
  9
$AUPREC
 70
     1
  9
$MENU
  1
CUSTOM
  9
$ELEVATION
 40
0.0
  9
$PELEVATION
 40
0.0
  9
$THICKNESS
 40
0.0
  9
$LIMCHECK
 70
     0
  9
$BLIPMODE
 70
     0
  9
$CHAMFERA
 40
0.0
  9
$CHAMFERB
 40
0.0
  9
$CHAMFERC
 40
0.0
  9
$CHAMFERD
 40
0.0
  9
$SKPOLY
 70
     0
  9
$TDCREATE
 40
2451263.621564698
  9
$TDUPDATE
 40
2453026.003640578
  9
$TDINDWG
 40
1.0270840509
  9
$TDUSRTIMER
 40
1.0270840509
  9
$USRTIMER
 70
     1
  9
$ANGBASE
 50
0.0
  9
$ANGDIR
 70
     0
  9
$PDMODE
 70
     0
  9
$PDSIZE
 40
0.0
  9
$PLINEWID
 40
0.0
  9
$COORDS
 70
     2
  9
$SPLFRAME
 70
     0
  9
$SPLINETYPE
 70
     6
  9
$SPLINESEGS
 70
     8
  9
$ATTDIA
 70
     0
  9
$ATTREQ
 70
     0
  9
$HANDLING
 70
     1
  9
$HANDSEED
  5
181
  9
$SURFTAB1
 70
     6
  9
$SURFTAB2
 70
     6
  9
$SURFTYPE
 70
     6
  9
$SURFU
 70
     6
  9
$SURFV
 70
     6
  9
$UCSNAME
  2

  9
$UCSORG
 10
0.0
 20
0.0
 30
0.0
  9
$UCSXDIR
 10
1.0
 20
0.0
 30
0.0
  9
$UCSYDIR
 10
0.0
 20
1.0
 30
0.0
  9
$PUCSNAME
  2

  9
$PUCSORG
 10
0.0
 20
0.0
 30
0.0
  9
$PUCSXDIR
 10
1.0
 20
0.0
 30
0.0
  9
$PUCSYDIR
 10
0.0
 20
1.0
 30
0.0
  9
$USERI1
 70
     0
  9
$USERI2
 70
     0
  9
$USERI3
 70
     0
  9
$USERI4
 70
     0
  9
$USERI5
 70
     0
  9
$USERR1
 40
0.0
  9
$USERR2
 40
0.0
  9
$USERR3
 40
0.0
  9
$USERR4
 40
0.0
  9
$USERR5
 40
0.0
  9
$WORLDVIEW
 70
     1
  9
$SHADEDGE
 70
     3
  9
$SHADEDIF
 70
    70
  9
$TILEMODE
 70
     1
  9
$MAXACTVP
 70
    16
  9
$PINSBASE
 10
0.0
 20
0.0
 30
0.0
  9
$PLIMCHECK
 70
     0
  9
$PEXTMIN
 10
1.000000000000000E+20
 20
1.000000000000000E+20
 30
1.000000000000000E+20
  9
$PEXTMAX
 10
-1.000000000000000E+20
 20
-1.000000000000000E+20
 30
-1.000000000000000E+20
  9
$PLIMMIN
 10
0.0
 20
0.0
  9
$PLIMMAX
 10
12.0
 20
9.0
  9
$UNITMODE
 70
     0
  9
$VISRETAIN
 70
     0
  9
$PLINEGEN
 70
     0
  9
$PSLTSCALE
 70
     0
  9
$TREEDEPTH
 70
  3020
  9
$PICKSTYLE
 70
     1
  9
$CMLSTYLE
  2
STANDARD
  9
$CMLJUST
 70
     0
  9
$CMLSCALE
 40
1.0
  9
$PROXYGRAPHICS
 70
     1
  9
$MEASUREMENT
 70
     0
  0
ENDSEC
  0
SECTION
  2
CLASSES
  0
CLASS
  1
ACDBDICTIONARYWDFLT
  2
AcDbDictionaryWithDefault
  3
AutoCAD 2000
 90
        0
280
     0
281
     0
  0
CLASS
  1
ACDBPLACEHOLDER
  2
AcDbPlaceHolder
  3
AutoCAD 2000
 90
        0
280
     0
281
     0
  0
CLASS
  1
LAYOUT
  2
AcDbLayout
  3
AutoCAD 2000
 90
        0
280
     0
281
     0
  0
CLASS
  1
DICTIONARYVAR
  2
AcDbDictionaryVar
  3
"AutoCAD"
 90
        0
280
     0
281
     0
  0
CLASS
  1
SORTENTSTABLE
  2
AcDbSortentsTable
  3
"AutoCAD"
 90
        0
280
     0
281
     0
  0
CLASS
  1
LONG_TRANSACTION
  2
AcDbLongTransaction
  3
AutoCAD 2000
 90
        0
280
     0
281
     0
  0
CLASS
  1
LWPOLYLINE
  2
AcDbPolyline
  3
"AutoCAD"
 90
        0
280
     0
281
     1
  0
CLASS
  1
HATCH
  2
AcDbHatch
  3
"ACAD_SEDONA"
 90
        0
280
     0
281
     1
  0
CLASS
  1
XRECORD
  2
AcDbXrecord
  3
"<Built In>"
 90
        0
280
     0
281
     0
  0
CLASS
  1
LONG_TRANSACTION
  2
AcDbLongTransaction
  3
AutoCAD 2000
 90
        0
280
     0
281
     0
  0
CLASS
  1
LWPOLYLINE
  2
AcDbPolyline
  3
"AutoCAD"
 90
        0
280
     0
281
     1
  0
CLASS
  1
HATCH
  2
AcDbHatch
  3
"ACAD_SEDONA"
 90
        0
280
     0
281
     1
  0
CLASS
  1
XRECORD
  2
AcDbXrecord
  3
"<Built In>"
 90
        0
280
     0
281
     0
  0
CLASS
  1
LONG_TRANSACTION
  2
AcDbLongTransaction
  3
AutoCAD 2000
 90
        0
280
     0
281
     0
  0
CLASS
  1
LWPOLYLINE
  2
AcDbPolyline
  3
"AutoCAD"
 90
        0
280
     0
281
     1
  0
CLASS
  1
HATCH
  2
AcDbHatch
  3
"ACAD_SEDONA"
 90
        0
280
     0
281
     1
  0
CLASS
  1
XRECORD
  2
AcDbXrecord
  3
"<Built In>"
 90
        0
280
     0
281
     0
  0
CLASS
  1
LONG_TRANSACTION
  2
AcDbLongTransaction
  3
AutoCAD 2000
 90
        0
280
     0
281
     0
  0
CLASS
  1
LWPOLYLINE
  2
AcDbPolyline
  3
"AutoCAD"
 90
        0
280
     0
281
     1
  0
CLASS
  1
HATCH
  2
AcDbHatch
  3
"ACAD_SEDONA"
 90
        0
280
     0
281
     1
  0
CLASS
  1
XRECORD
  2
AcDbXrecord
  3
"<Built In>"
 90
        0
280
     0
281
     0
  0
CLASS
  1
LONG_TRANSACTION
  2
AcDbLongTransaction
  3
AutoCAD 2000
 90
        0
280
     0
281
     0
  0
CLASS
  1
LWPOLYLINE
  2
AcDbPolyline
  3
"AutoCAD"
 90
        0
280
     0
281
     1
  0
CLASS
  1
HATCH
  2
AcDbHatch
  3
"ACAD_SEDONA"
 90
        0
280
     0
281
     1
  0
CLASS
  1
XRECORD
  2
AcDbXrecord
  3
"<Built In>"
 90
        0
280
     0
281
     0
  0
ENDSEC
  0
SECTION
  2
TABLES
  0
TABLE
  2
VPORT
  5
172
100
AcDbSymbolTable
 70
     1
  0
VPORT
  5
173
100
AcDbSymbolTableRecord
100
AcDbViewportTableRecord
  2
*ACTIVE
 70
     0
 10
0.0
 20
0.0
 11
1.0
 21
1.0
 12
2.612562467817895
 22
13.46991276493169
 13
0.0
 23
0.0
 14
1.0
 24
1.0
 15
0.0
 25
0.0
 16
0.0
 26
0.0
 36
1.0
 17
6.739010197429557
 27
2.160790896648013
 37
-1.389853740166908
 40
29.4114848218546
 41
1.379227053140096
 42
50.0
 43
0.0
 44
0.0
 50
0.0
 51
0.0
 71
     0
 72
   100
 73
     1
 74
     1
 75
     0
 76
     0
 77
     0
 78
     0
  0
ENDTAB
  0
TABLE
  2
LTYPE
  5
16D
100
AcDbSymbolTable
 70
     1
  0
LTYPE
  5
16E
100
AcDbSymbolTableRecord
100
AcDbLinetypeTableRecord
  2
BYBLOCK
 70
     0
  3

 72
    65
 73
     0
 40
0.0
  0
LTYPE
  5
16F
100
AcDbSymbolTableRecord
100
AcDbLinetypeTableRecord
  2
BYLAYER
 70
     0
  3

 72
    65
 73
     0
 40
0.0
  0
LTYPE
  5
5
100
AcDbSymbolTableRecord
100
AcDbLinetypeTableRecord
  2
CONTINUOUS
 70
     0
  3
Solid line
 72
    65
 73
     0
 40
0.0
  0
ENDTAB
  0
TABLE
  2
LAYER
  5
16B
100
AcDbSymbolTable
 70
     4
  0
LAYER
  5
98
100
AcDbSymbolTableRecord
100
AcDbLayerTableRecord
  2
0
 70
     0
 62
     7
  6
CONTINUOUS
  0
LAYER
  5
8
102
{ACAD_XDICTIONARY
360
9
102
}
100
AcDbSymbolTableRecord
100
AcDbLayerTableRecord
  2
USP-GEO
 70
     0
 62
     7
  6
CONTINUOUS
  0
LAYER
  5
93
102
{ACAD_XDICTIONARY
360
94
102
}
100
AcDbSymbolTableRecord
100
AcDbLayerTableRecord
  2
USP-TXT
 70
     0
 62
     7
  6
CONTINUOUS
  0
LAYER
  5
4
100
AcDbSymbolTableRecord
100
AcDbLayerTableRecord
  2
USP
 70
     0
 62
     7
  6
CONTINUOUS
  0
ENDTAB
  0
TABLE
  2
STYLE
  5
16C
100
AcDbSymbolTable
 70
     1
  0
STYLE
  5
96
100
AcDbSymbolTableRecord
100
AcDbTextStyleTableRecord
  2
STANDARD
 70
     0
 40
0.0
 41
1.0
 50
0.0
 71
     0
 42
0.25
  3
txt
  4

  0
ENDTAB
  0
TABLE
  2
VIEW
  5
170
100
AcDbSymbolTable
 70
     0
  0
ENDTAB
  0
TABLE
  2
UCS
  5
171
100
AcDbSymbolTable
 70
     0
  0
ENDTAB
  0
TABLE
  2
APPID
  5
174
100
AcDbSymbolTable
 70
     1
  0
APPID
  5
5B
100
AcDbSymbolTableRecord
100
AcDbRegAppTableRecord
  2
ACAD
 70
     0
  0
ENDTAB
  0
TABLE
  2
DIMSTYLE
  5
175
100
AcDbSymbolTable
 70
     1
  0
DIMSTYLE
105
17B
102
{ACAD_XDICTIONARY
360
17C
102
}
100
AcDbSymbolTableRecord
100
AcDbDimStyleTableRecord
  2
STANDARD
 70
     0
  3

  4

  5

  6

  7

 40
1.0
 41
0.125
 42
0.0625
 43
0.38
 44
0.09375
 45
0.0
 46
0.0
 47
0.0
 48
0.0
140
0.109375
141
0.0
142
0.0
143
25.4
144
1.0
145
0.0
146
1.0
147
0.09
 71
     0
 72
     0
 73
     1
 74
     1
 75
     0
 76
     0
 77
     0
 78
     8
170
     0
171
     2
172
     0
173
     0
174
     0
175
     0
176
     0
177
     0
178
     0
270
     7
271
     4
272
     4
273
     2
274
     2
340
96
275
     0
280
     0
281
     0
282
     0
283
     1
284
     0
285
     0
286
     0
287
     3
288
     0
  0
ENDTAB
  0
TABLE
  2
BLOCK_RECORD
  5
1
100
AcDbSymbolTable
 70
     3
  0
BLOCK_RECORD
  5
2
102
{ACAD_XDICTIONARY
360
162
102
}
100
AcDbSymbolTableRecord
100
AcDbBlockTableRecord
  2
*MODEL_SPACE
  0
BLOCK_RECORD
  5
166
102
{ACAD_XDICTIONARY
360
167
102
}
100
AcDbSymbolTableRecord
100
AcDbBlockTableRecord
  2
*PAPER_SPACE
  0
BLOCK_RECORD
  5
6
100
AcDbSymbolTableRecord
100
AcDbBlockTableRecord
  2
TFL2314PR_T
  0
BLOCK_RECORD
  5
9B
100
AcDbSymbolTableRecord
100
AcDbBlockTableRecord
  2
TFL2314PR_F
  0
BLOCK_RECORD
  5
115
100
AcDbSymbolTableRecord
100
AcDbBlockTableRecord
  2
TFL2314PR_S
  0
ENDTAB
  0
ENDSEC
  0
SECTION
  2
BLOCKS
  0
BLOCK
  5
164
100
AcDbEntity
  8
0
100
AcDbBlockBegin
  2
*MODEL_SPACE
 70
     0
 10
0.0
 20
0.0
 30
0.0
  3
*MODEL_SPACE
  1

  0
ENDBLK
  5
165
100
AcDbEntity
  8
0
100
AcDbBlockEnd
  0
BLOCK
  5
169
100
AcDbEntity
 67
     1
  8
0
100
AcDbBlockBegin
  2
*PAPER_SPACE
 70
     0
 10
0.0
 20
0.0
 30
0.0
  3
*PAPER_SPACE
  1

  0
ENDBLK
  5
16A
100
AcDbEntity
 67
     1
  8
0
100
AcDbBlockEnd
  0
BLOCK
  5
97
100
AcDbEntity
  8
0
100
AcDbBlockBegin
  2
TFL2314PR_T
 70
     0
 10
0.0
 20
0.0
 30
0.0
  3
TFL2314PR_T
  1

  0
LWPOLYLINE
  5
7
100
AcDbEntity
  8
USP-GEO
100
AcDbPolyline
 90
        2
 70
   128
 43
0.0
 10
6.367026993404204
 20
2.203280804405512
 10
4.47593744304312
 20
2.203280804405512
  0
LWPOLYLINE
  5
B
100
AcDbEntity
  8
USP-GEO
100
AcDbPolyline
 90
        2
 70
   128
 43
0.0
 10
1.915012251820426
 20
2.203280804405512
 10
0.0
 20
2.203280804405512
  0
LWPOLYLINE
  5
C
100
AcDbEntity
  8
USP-GEO
100
AcDbPolyline
 90
        2
 70
   128
 43
0.0
 10
4.40416933866509
 20
2.155435401486823
 10
4.47593744304312
 20
2.155435401486823
  0
LWPOLYLINE
  5
D
100
AcDbEntity
  8
USP-GEO
100
AcDbPolyline
 90
        2
 70
   128
 43
0.0
 10
4.332401234287059
 20
0.2631497160527729
 10
4.40416933866509
 20
0.2631497160527729
  0
LWPOLYLINE
  5
E
100
AcDbEntity
  8
USP-GEO
100
AcDbPolyline
 90
        2
 70
   128
 43
0.0
 10
4.332401234287059
 20
0.8863360890686671
 10
4.40416933866509
 20
0.8863360890686671
  0
LWPOLYLINE
  5
F
100
AcDbEntity
  8
USP-GEO
100
AcDbPolyline
 90
        2
 70
   128
 43
0.0
 10
2.034625759117142
 20
1.916208386893391
 10
2.034625759117142
 20
1.029872297824724
  0
LWPOLYLINE
  5
10
100
AcDbEntity
  8
USP-GEO
100
AcDbPolyline
 90
        2
 70
   128
 43
0.0
 10
2.034625759117142
 20
1.029872297824724
 10
2.034625759117142
 20
0.8863360890686671
  0
LWPOLYLINE
  5
11
100
AcDbEntity
  8
USP-GEO
100
AcDbPolyline
 90
        2
 70
   128
 43
0.0
 10
2.034625759117142
 20
0.8863360890686671
 10
1.986780356198455
 20
0.8863360890686671
  0
LWPOLYLINE
  5
12
100
AcDbEntity
  8
USP-GEO
100
AcDbPolyline
 90
        2
 70
   128
 43
0.0
 10
2.034625759117142
 20
0.8863360890686671
 10
2.035821894190108
 20
0.8863360890686671
  0
LWPOLYLINE
  5
13
100
AcDbEntity
  8
USP-GEO
100
AcDbPolyline
 90
        2
 70
   128
 43
0.0
 10
2.034625759117142
 20
0.8863360890686671
 10
2.034625759117142
 20
0.2631497160527729
  0
LWPOLYLINE
  5
14
100
AcDbEntity
  8
USP-GEO
100
AcDbPolyline
 90
        2
 70
   128
 43
0.0
 10
2.034625759117142
 20
0.2631497160527729
 10
1.986780356198455
 20
0.2631497160527729
  0
LWPOLYLINE
  5
15
100
AcDbEntity
  8
USP-GEO
100
AcDbPolyline
 90
        2
 70
   128
 43
0.0
 10
2.034625759117142
 20
0.2631497160527729
 10
2.034625759117142
 20
0.143536208756057
  0
LWPOLYLINE
  5
16
100
AcDbEntity
  8
USP-GEO
100
AcDbPolyline
 90
        2
 70
   128
 43
0.0
 10
2.034625759117142
 20
0.143536208756057
 10
2.034625759117142
 20
0.1196135072967159
  0
LWPOLYLINE
  5
17
100
AcDbEntity
  8
USP-GEO
100
AcDbPolyline
 90
        2
 70
   128
 43
0.0
 10
2.034625759117142
 20
0.1196135072967159
 10
2.034625759117142
 20
0.0
  0
LWPOLYLINE
  5
18
100
AcDbEntity
  8
USP-GEO
100
AcDbPolyline
 90
        2
 70
   128
 43
0.0
 10
2.034625759117142
 20
0.0
 10
1.986780356198455
 20
0.0
  0
LWPOLYLINE
  5
19
100
AcDbEntity
  8
USP-GEO
100
AcDbPolyline
 90
        2
 70
   128
 43
0.0
 10
4.332401234287059
 20
0.0
 10
4.40416933866509
 20
0.0
  0
LWPOLYLINE
  5
1A
100
AcDbEntity
  8
USP-GEO
100
AcDbPolyline
 90
        2
 70
   128
 43
0.0
 10
3.686488294884794
 20
0.3827632233494889
 10
3.566874787588076
 20
0.2392270145934319
  0
LWPOLYLINE
  5
1B
100
AcDbEntity
  8
USP-GEO
100
AcDbPolyline
 90
        2
 70
   128
 43
0.0
 10
3.566874787588076
 20
0.5023767306462084
 10
3.686488294884794
 20
0.3827632233494889
  0
LWPOLYLINE
  5
1C
100
AcDbEntity
  8
USP-GEO
100
AcDbPolyline
 90
        2
 70
   128
 43
0.0
 10
3.423338578832018
 20
0.3827632233494889
 10
3.566874787588076
 20
0.5023767306462084
  0
LWPOLYLINE
  5
1D
100
AcDbEntity
  8
USP-GEO
100
AcDbPolyline
 90
        2
 70
   128
 43
0.0
 10
3.566874787588076
 20
0.2392270145934319
 10
3.423338578832018
 20
0.3827632233494889
  0
LWPOLYLINE
  5
1E
100
AcDbEntity
  8
USP-GEO
100
AcDbPolyline
 90
        2
 70
   128
 43
0.0
 10
2.801348340889093
 20
0.5023767306462084
 10
2.944884549645152
 20
0.3827632233494889
  0
LWPOLYLINE
  5
1F
100
AcDbEntity
  8
USP-GEO
100
AcDbPolyline
 90
        2
 70
   128
 43
0.0
 10
2.681734833592377
 20
0.3827632233494889
 10
2.801348340889093
 20
0.5023767306462084
  0
LWPOLYLINE
  5
20
100
AcDbEntity
  8
USP-GEO
100
AcDbPolyline
 90
        2
 70
   128
 43
0.0
 10
2.801348340889093
 20
0.2392270145934319
 10
2.681734833592377
 20
0.3827632233494889
  0
LWPOLYLINE
  5
21
100
AcDbEntity
  8
USP-GEO
100
AcDbPolyline
 90
        2
 70
   128
 43
0.0
 10
2.944884549645152
 20
0.3827632233494889
 10
2.801348340889093
 20
0.2392270145934319
  0
LWPOLYLINE
  5
22
100
AcDbEntity
  8
USP-GEO
100
AcDbPolyline
 90
        2
 70
   128
 43
0.0
 10
4.308478532827718
 20
1.987976491271421
 10
2.058548460576485
 20
1.987976491271421
  0
LWPOLYLINE
  5
23
100
AcDbEntity
  8
USP-GEO
100
AcDbPolyline
 90
        2
 70
   128
 43
0.0
 10
2.058548460576485
 20
0.0
 10
4.308478532827718
 20
0.0
  0
LWPOLYLINE
  5
24
100
AcDbEntity
  8
USP-GEO
100
AcDbPolyline
 90
        2
 70
   128
 43
0.0
 10
4.332401234287059
 20
0.0
 10
4.308478532827718
 20
0.0
  0
LWPOLYLINE
  5
25
100
AcDbEntity
  8
USP-GEO
100
AcDbPolyline
 90
        2
 70
   128
 43
0.0
 10
4.308478532827718
 20
1.987976491271421
 10
4.332401234287059
 20
1.987976491271421
  0
LWPOLYLINE
  5
26
100
AcDbEntity
  8
USP-GEO
100
AcDbPolyline
 90
        2
 70
   128
 43
0.0
 10
2.058548460576485
 20
0.0
 10
2.034625759117142
 20
0.0
  0
LWPOLYLINE
  5
27
100
AcDbEntity
  8
USP-GEO
100
AcDbPolyline
 90
        2
 70
   128
 43
0.0
 10
2.034625759117142
 20
1.987976491271421
 10
2.058548460576485
 20
1.987976491271421
  0
CIRCLE
  5
28
100
AcDbEntity
  8
USP-GEO
100
AcDbCircle
 10
6.167537056458504
 20
3.188108451439322
 30
0.0
 40
0.09
  0
CIRCLE
  5
29
100
AcDbEntity
  8
USP-GEO
100
AcDbCircle
 10
4.767537056458499
 20
3.388108451439311
 30
0.0
 40
0.09
  0
LWPOLYLINE
  5
2A
100
AcDbEntity
  8
USP-GEO
100
AcDbPolyline
 90
        2
 70
   128
 43
0.0
 10
4.47593744304312
 20
3.711607131417103
 10
4.47593744304312
 20
2.227203505864853
  0
LWPOLYLINE
  5
2B
100
AcDbEntity
  8
USP-GEO
100
AcDbPolyline
 90
        2
 70
   128
 43
0.0
 10
6.367026993404204
 20
3.711607131417103
 10
4.47593744304312
 20
3.711607131417103
  0
LWPOLYLINE
  5
2C
100
AcDbEntity
  8
USP-GEO
100
AcDbPolyline
 90
        2
 70
   128
 43
0.0
 10
6.367026993404204
 20
3.711607131417103
 10
6.367026993404204
 20
2.227203505864853
  0
LWPOLYLINE
  5
2D
100
AcDbEntity
  8
USP-GEO
100
AcDbPolyline
 90
        2
 70
   128
 43
0.0
 10
6.367026993404204
 20
2.155435401486823
 10
4.47593744304312
 20
2.155435401486823
  0
LWPOLYLINE
  5
2E
100
AcDbEntity
  8
USP-GEO
100
AcDbPolyline
 90
        2
 70
   128
 43
0.0
 10
4.47593744304312
 20
2.155435401486823
 10
4.47593744304312
 20
2.227203505864853
  0
LWPOLYLINE
  5
2F
100
AcDbEntity
  8
USP-GEO
100
AcDbPolyline
 90
        2
 70
   128
 43
0.0
 10
6.367026993404204
 20
2.227203505864853
 10
6.367026993404204
 20
2.155435401486823
  0
CIRCLE
  5
30
100
AcDbEntity
  8
USP-GEO
100
AcDbCircle
 10
0.2089038572938673
 20
3.188108451439344
 30
0.0
 40
0.09
  0
CIRCLE
  5
31
100
AcDbEntity
  8
USP-GEO
100
AcDbCircle
 10
1.608903857293872
 20
3.388108451439332
 30
0.0
 40
0.09
  0
LWPOLYLINE
  5
32
100
AcDbEntity
  8
USP-GEO
100
AcDbPolyline
 90
        2
 70
   128
 43
0.0
 10
0.0
 20
3.711607131417103
 10
0.0
 20
2.227203505864853
  0
LWPOLYLINE
  5
33
100
AcDbEntity
  8
USP-GEO
100
AcDbPolyline
 90
        2
 70
   128
 43
0.0
 10
0.0
 20
3.711607131417103
 10
1.915012251820426
 20
3.711607131417103
  0
LWPOLYLINE
  5
34
100
AcDbEntity
  8
USP-GEO
100
AcDbPolyline
 90
        2
 70
   128
 43
0.0
 10
1.915012251820426
 20
3.711607131417103
 10
1.915012251820426
 20
2.227203505864853
  0
LWPOLYLINE
  5
35
100
AcDbEntity
  8
USP-GEO
100
AcDbPolyline
 90
        2
 70
   128
 43
0.0
 10
1.915012251820426
 20
2.227203505864853
 10
1.915012251820426
 20
2.155435401486823
  0
LWPOLYLINE
  5
36
100
AcDbEntity
  8
USP-GEO
100
AcDbPolyline
 90
        2
 70
   128
 43
0.0
 10
1.915012251820426
 20
2.155435401486823
 10
0.0
 20
2.155435401486823
  0
LWPOLYLINE
  5
37
100
AcDbEntity
  8
USP-GEO
100
AcDbPolyline
 90
        2
 70
   128
 43
0.0
 10
0.0
 20
2.155435401486823
 10
0.0
 20
2.227203505864853
  0
LWPOLYLINE
  5
38
100
AcDbEntity
  8
USP-GEO
100
AcDbPolyline
 90
        2
 70
   128
 43
0.0
 10
4.40416933866509
 20
0.1196135072967159
 10
4.40416933866509
 20
0.0
  0
LWPOLYLINE
  5
39
100
AcDbEntity
  8
USP-GEO
100
AcDbPolyline
 90
        2
 70
   128
 43
0.0
 10
4.40416933866509
 20
0.143536208756057
 10
4.40416933866509
 20
0.1196135072967159
  0
LWPOLYLINE
  5
3A
100
AcDbEntity
  8
USP-GEO
100
AcDbPolyline
 90
        2
 70
   128
 43
0.0
 10
4.40416933866509
 20
0.143536208756057
 10
4.40416933866509
 20
0.2631497160527729
  0
LWPOLYLINE
  5
3B
100
AcDbEntity
  8
USP-GEO
100
AcDbPolyline
 90
        2
 70
   128
 43
0.0
 10
4.40416933866509
 20
0.2631497160527729
 10
4.40416933866509
 20
0.8863360890686671
  0
LWPOLYLINE
  5
3C
100
AcDbEntity
  8
USP-GEO
100
AcDbPolyline
 90
        2
 70
   128
 43
0.0
 10
4.40416933866509
 20
0.8863360890686671
 10
4.405365473738056
 20
0.8863360890686671
  0
LWPOLYLINE
  5
3D
100
AcDbEntity
  8
USP-GEO
100
AcDbPolyline
 90
        2
 70
   128
 43
0.0
 10
4.40416933866509
 20
1.029872297824724
 10
4.40416933866509
 20
0.8863360890686671
  0
LWPOLYLINE
  5
3E
100
AcDbEntity
  8
USP-GEO
100
AcDbPolyline
 90
        2
 70
   128
 43
0.0
 10
4.40416933866509
 20
1.029872297824724
 10
4.40416933866509
 20
1.916208386893391
  0
LWPOLYLINE
  5
3F
100
AcDbEntity
  8
USP-GEO
100
AcDbPolyline
 90
        2
 70
   128
 43
0.0
 10
4.40416933866509
 20
2.107589998568137
 10
4.40416933866509
 20
1.916208386893391
  0
LWPOLYLINE
  5
40
100
AcDbEntity
  8
USP-GEO
100
AcDbPolyline
 90
        2
 70
   128
 43
0.0
 10
4.40416933866509
 20
2.107589998568137
 10
4.405365473738056
 20
2.107589998568137
  0
LWPOLYLINE
  5
41
100
AcDbEntity
  8
USP-GEO
100
AcDbPolyline
 90
        2
 70
   128
 43
0.0
 10
4.40416933866509
 20
2.107589998568137
 10
4.428092040124434
 20
2.155435401486823
  0
LWPOLYLINE
  5
42
100
AcDbEntity
  8
USP-GEO
100
AcDbPolyline
 90
        2
 70
   128
 43
0.0
 10
4.40416933866509
 20
2.203280804405512
 10
4.40416933866509
 20
2.155435401486823
  0
LWPOLYLINE
  5
43
100
AcDbEntity
  8
USP-GEO
100
AcDbPolyline
 90
        2
 70
   128
 43
0.0
 10
4.332401234287059
 20
2.155435401486823
 10
4.40416933866509
 20
2.155435401486823
  0
LWPOLYLINE
  5
44
100
AcDbEntity
  8
USP-GEO
100
AcDbPolyline
 90
        2
 70
   128
 43
0.0
 10
4.40416933866509
 20
2.203280804405512
 10
4.47593744304312
 20
2.203280804405512
  0
LWPOLYLINE
  5
45
100
AcDbEntity
  8
USP-GEO
100
AcDbPolyline
 90
        2
 70
   128
 43
0.0
 10
4.380246637205749
 20
2.203280804405512
 10
4.40416933866509
 20
2.203280804405512
  0
ARC
  5
46
100
AcDbEntity
  8
USP-GEO
100
AcDbCircle
 10
4.382470456876083
 20
2.150108451439319
 30
0.0
 40
0.038
100
AcDbArc
 50
92.39487746210283
 51
173.9270491096959
  0
LWPOLYLINE
  5
47
100
AcDbEntity
  8
USP-GEO
100
AcDbPolyline
 90
        2
 70
   128
 43
0.0
 10
1.986780356198455
 20
1.029872297824724
 10
1.986780356198455
 20
1.916208386893391
  0
LWPOLYLINE
  5
48
100
AcDbEntity
  8
USP-GEO
100
AcDbPolyline
 90
        2
 70
   128
 43
0.0
 10
1.986780356198455
 20
0.8863360890686671
 10
1.986780356198455
 20
1.029872297824724
  0
LWPOLYLINE
  5
49
100
AcDbEntity
  8
USP-GEO
100
AcDbPolyline
 90
        2
 70
   128
 43
0.0
 10
1.986780356198455
 20
0.8863360890686671
 10
1.987976491271423
 20
0.8863360890686671
  0
LWPOLYLINE
  5
4A
100
AcDbEntity
  8
USP-GEO
100
AcDbPolyline
 90
        2
 70
   128
 43
0.0
 10
1.986780356198455
 20
0.2631497160527729
 10
1.986780356198455
 20
0.8863360890686671
  0
LWPOLYLINE
  5
4B
100
AcDbEntity
  8
USP-GEO
100
AcDbPolyline
 90
        2
 70
   128
 43
0.0
 10
1.986780356198455
 20
0.2631497160527729
 10
1.986780356198455
 20
0.143536208756057
  0
LWPOLYLINE
  5
4C
100
AcDbEntity
  8
USP-GEO
100
AcDbPolyline
 90
        2
 70
   128
 43
0.0
 10
1.986780356198455
 20
0.143536208756057
 10
1.986780356198455
 20
0.1196135072967159
  0
LWPOLYLINE
  5
4D
100
AcDbEntity
  8
USP-GEO
100
AcDbPolyline
 90
        2
 70
   128
 43
0.0
 10
1.986780356198455
 20
0.0
 10
1.986780356198455
 20
0.1196135072967159
  0
LWPOLYLINE
  5
4E
100
AcDbEntity
  8
USP-GEO
100
AcDbPolyline
 90
        2
 70
   128
 43
0.0
 10
1.915012251820426
 20
2.155435401486823
 10
1.986780356198455
 20
2.155435401486823
  0
LWPOLYLINE
  5
4F
100
AcDbEntity
  8
USP-GEO
100
AcDbPolyline
 90
        2
 70
   128
 43
0.0
 10
1.915012251820426
 20
2.203280804405512
 10
1.938934953279769
 20
2.203280804405512
  0
LWPOLYLINE
  5
50
100
AcDbEntity
  8
USP-GEO
100
AcDbPolyline
 90
        2
 70
   128
 43
0.0
 10
1.986780356198455
 20
2.179358102946167
 10
1.986780356198455
 20
2.155435401486823
  0
LWPOLYLINE
  5
51
100
AcDbEntity
  8
USP-GEO
100
AcDbPolyline
 90
        2
 70
   128
 43
0.0
 10
1.938934953279769
 20
2.155435401486823
 10
1.986780356198455
 20
2.107589998568137
  0
LWPOLYLINE
  5
52
100
AcDbEntity
  8
USP-GEO
100
AcDbPolyline
 90
        2
 70
   128
 43
0.0
 10
2.010703057657799
 20
2.155435401486823
 10
1.986780356198455
 20
2.155435401486823
  0
LWPOLYLINE
  5
53
100
AcDbEntity
  8
USP-GEO
100
AcDbPolyline
 90
        2
 70
   128
 43
0.0
 10
2.034625759117142
 20
2.107589998568137
 10
2.034625759117142
 20
1.916208386893391
  0
LWPOLYLINE
  5
54
100
AcDbEntity
  8
USP-GEO
100
AcDbPolyline
 90
        2
 70
   128
 43
0.0
 10
1.986780356198455
 20
1.916208386893391
 10
1.986780356198455
 20
2.107589998568137
  0
LWPOLYLINE
  5
55
100
AcDbEntity
  8
USP-GEO
100
AcDbPolyline
 90
        2
 70
   128
 43
0.0
 10
1.986780356198455
 20
2.107589998568137
 10
1.987976491271423
 20
2.107589998568137
  0
LWPOLYLINE
  5
56
100
AcDbEntity
  8
USP-GEO
100
AcDbPolyline
 90
        2
 70
   128
 43
0.0
 10
2.034625759117142
 20
2.107589998568137
 10
2.010703057657799
 20
2.155435401486823
  0
ARC
  5
57
100
AcDbEntity
  8
USP-GEO
100
AcDbCircle
 10
1.941970456876054
 20
2.098108451439326
 30
0.0
 40
0.09
100
AcDbArc
 50
39.83005363519469
 51
61.12287699665151
  0
LWPOLYLINE
  5
58
100
AcDbEntity
  8
USP-GEO
100
AcDbPolyline
 90
        2
 70
   128
 43
0.0
 10
1.986780356198455
 20
2.179358102946167
 10
1.938934953279769
 20
2.203280804405512
  0
LWPOLYLINE
  5
59
100
AcDbEntity
  8
USP-GEO
100
AcDbPolyline
 90
        2
 70
   128
 43
0.0
 10
2.034625759117142
 20
2.107589998568137
 10
2.035821894190108
 20
2.107589998568137
  0
ELLIPSE
  5
5A
100
AcDbEntity
  8
USP-GEO
  6
CONTINUOUS
100
AcDbEllipse
 10
4.512422831077804
 20
0.4906439154672278
 30
0.0
 11
0.0000000000000015
 21
-0.078000000000003
 31
0.0
210
0.0
220
0.0
230
1.0
 40
0.7071067811865475
 41
0.2614742380919181
 42
0.7098738656417954
1001
ACAD
1000
RTLwPs
1070
   128
  0
ELLIPSE
  5
5C
100
AcDbEntity
  8
USP-GEO
  6
CONTINUOUS
100
AcDbEllipse
 10
4.512422831077804
 20
0.4906439154672278
 30
0.0
 11
0.0000000000000015
 21
-0.078000000000003
 31
0.0
210
0.0
220
0.0
230
1.0
 40
0.7071067811865475
 41
2.951516388609822
 42
8.711124215716637
1001
ACAD
1000
RTLwPs
1070
   128
  0
ELLIPSE
  5
5D
100
AcDbEntity
  8
USP-GEO
  6
CONTINUOUS
100
AcDbEllipse
 10
4.512422831077804
 20
0.4906439154672278
 30
0.0
 11
0.0000000000000015
 21
-0.078000000000003
 31
0.0
210
0.0
220
0.0
230
1.0
 40
0.7071067811865475
 41
2.44439508406145
 42
8.242483958202443
1001
ACAD
1000
RTLwPs
1070
   128
  0
ELLIPSE
  5
5E
100
AcDbEntity
  8
USP-GEO
  6
CONTINUOUS
100
AcDbEllipse
 10
4.512422831077804
 20
0.4906439154672278
 30
0.0
 11
0.0000000000000015
 21
-0.078000000000003
 31
0.0
210
0.0
220
0.0
230
1.0
 40
0.7071067811865475
 41
0.6934381744277334
 42
1.966221292417222
1001
ACAD
1000
RTLwPs
1070
   128
  0
ELLIPSE
  5
5F
100
AcDbEntity
  8
USP-GEO
  6
CONTINUOUS
100
AcDbEllipse
 10
4.512422831077804
 20
0.4906439154672278
 30
0.0
 11
0.0000000000000015
 21
-0.078000000000003
 31
0.0
210
0.0
220
0.0
230
1.0
 40
0.7071067811865475
 41
1.707295517665327
 42
7.987862080559205
1001
ACAD
1000
RTLwPs
1070
   128
  0
ELLIPSE
  5
60
100
AcDbEntity
  8
USP-GEO
  6
CONTINUOUS
100
AcDbEllipse
 10
4.550771208207711
 20
0.4906439154672278
 30
0.0
 11
0.0000000000000011
 21
-0.078000000000003
 31
0.0
210
0.0
220
0.0
230
1.0
 40
0.7071067811865475
 41
4.243048440820019
 42
5.737217280363434
1001
ACAD
1000
RTLwPs
1070
   128
  0
ELLIPSE
  5
61
100
AcDbEntity
  8
USP-GEO
  6
CONTINUOUS
100
AcDbEllipse
 10
4.550771208207711
 20
0.4906439154672278
 30
0.0
 11
0.0000000000000011
 21
-0.078000000000003
 31
0.0
210
0.0
220
0.0
230
1.0
 40
0.7071067811865475
 41
4.252571406242359
 42
9.836626011807091
1001
ACAD
1000
RTLwPs
1070
   128
  0
ELLIPSE
  5
62
100
AcDbEntity
  8
USP-GEO
  6
CONTINUOUS
100
AcDbEllipse
 10
4.550771208207711
 20
0.4906439154672278
 30
0.0
 11
0.0000000000000011
 21
-0.078000000000003
 31
0.0
210
0.0
220
0.0
230
1.0
 40
0.7071067811865475
 41
6.211094610397731
 42
12.00007979176402
1001
ACAD
1000
RTLwPs
1070
   128
  0
ELLIPSE
  5
63
100
AcDbEntity
  8
USP-GEO
  6
CONTINUOUS
100
AcDbEllipse
 10
4.550771208207711
 20
0.4906439154672278
 30
0.0
 11
0.0000000000000011
 21
-0.078000000000003
 31
0.0
210
0.0
220
0.0
230
1.0
 40
0.7071067811865475
 41
3.570325697593516
 42
9.456430613285199
1001
ACAD
1000
RTLwPs
1070
   128
  0
ELLIPSE
  5
64
100
AcDbEntity
  8
USP-GEO
  6
CONTINUOUS
100
AcDbEllipse
 10
4.550771208207711
 20
0.4906439154672278
 30
0.0
 11
0.0000000000000011
 21
-0.078000000000003
 31
0.0
210
0.0
220
0.0
230
1.0
 40
0.7071067811865475
 41
0.0
 42
6.283185307179586
1001
ACAD
1000
RTLwPs
1070
   128
  0
ELLIPSE
  5
65
100
AcDbEntity
  8
USP-GEO
  6
CONTINUOUS
100
AcDbEllipse
 10
4.550771208207711
 20
0.4906439154672278
 30
0.0
 11
0.0000000000000011
 21
-0.078000000000003
 31
0.0
210
0.0
220
0.0
230
1.0
 40
0.7071067811865475
 41
3.193467643988771
 42
9.049660693524762
1001
ACAD
1000
RTLwPs
1070
   128
  0
ELLIPSE
  5
66
100
AcDbEntity
  8
USP-GEO
  6
CONTINUOUS
100
AcDbEllipse
 10
4.550771208207711
 20
0.4906439154672278
 30
0.0
 11
0.0000000000000011
 21
-0.078000000000003
 31
0.0
210
0.0
220
0.0
230
1.0
 40
0.7071067811865475
 41
6.211094610397731
 42
6.784237427361835
1001
ACAD
1000
RTLwPs
1070
   128
  0
ELLIPSE
  5
67
100
AcDbEntity
  8
USP-GEO
  6
CONTINUOUS
100
AcDbEllipse
 10
4.550771208207711
 20
0.4906439154672278
 30
0.0
 11
0.0000000000000011
 21
-0.078000000000003
 31
0.0
210
0.0
220
0.0
230
1.0
 40
0.7071067811865475
 41
2.061642012131744
 42
2.784134475729957
1001
ACAD
1000
RTLwPs
1070
   128
  0
ELLIPSE
  5
68
100
AcDbEntity
  8
USP-GEO
  6
CONTINUOUS
100
AcDbEllipse
 10
4.550771208207711
 20
0.4906439154672278
 30
0.0
 11
0.0000000000000011
 21
-0.078000000000003
 31
0.0
210
0.0
220
0.0
230
1.0
 40
0.7071067811865475
 41
0.4791199614754811
 42
2.072395026301447
1001
ACAD
1000
RTLwPs
1070
   128
  0
ELLIPSE
  5
69
100
AcDbEntity
  8
USP-GEO
  6
CONTINUOUS
100
AcDbEllipse
 10
4.550771208207711
 20
0.4906439154672278
 30
0.0
 11
0.0000000000000011
 21
-0.078000000000003
 31
0.0
210
0.0
220
0.0
230
1.0
 40
0.7071067811865475
 41
1.749325237576284
 42
8.028075670033038
1001
ACAD
1000
RTLwPs
1070
   128
  0
ELLIPSE
  5
6A
100
AcDbEntity
  8
USP-GEO
  6
CONTINUOUS
100
AcDbEllipse
 10
1.864018082674325
 20
0.3031439154672277
 30
0.0
 11
-0.0000000000000015
 21
-0.078000000000003
 31
0.0
210
0.0
220
0.0
230
1.0
 40
0.7071067811865475
 41
4.235637117842404
 42
4.967922349394205
1001
ACAD
1000
RTLwPs
1070
   128
  0
ELLIPSE
  5
6B
100
AcDbEntity
  8
USP-GEO
  6
CONTINUOUS
100
AcDbEllipse
 10
1.864018082674325
 20
0.3031439154672277
 30
0.0
 11
-0.0000000000000015
 21
-0.078000000000003
 31
0.0
210
0.0
220
0.0
230
1.0
 40
0.7071067811865475
 41
4.246609702021113
 42
10.27328421036542
1001
ACAD
1000
RTLwPs
1070
   128
  0
ELLIPSE
  5
6C
100
AcDbEntity
  8
USP-GEO
  6
CONTINUOUS
100
AcDbEllipse
 10
1.864018082674325
 20
0.3031439154672277
 30
0.0
 11
-0.0000000000000015
 21
-0.078000000000003
 31
0.0
210
0.0
220
0.0
230
1.0
 40
0.7071067811865475
 41
4.961366679849141
 42
5.288842471139886
1001
ACAD
1000
RTLwPs
1070
   128
  0
ELLIPSE
  5
6D
100
AcDbEntity
  8
USP-GEO
  6
CONTINUOUS
100
AcDbEllipse
 10
1.864018082674325
 20
0.3031439154672277
 30
0.0
 11
-0.0000000000000015
 21
-0.078000000000003
 31
0.0
210
0.0
220
0.0
230
1.0
 40
0.7071067811865475
 41
5.276515929808081
 42
5.874410959726928
1001
ACAD
1000
RTLwPs
1070
   128
  0
ELLIPSE
  5
6E
100
AcDbEntity
  8
USP-GEO
  6
CONTINUOUS
100
AcDbEllipse
 10
1.864018082674325
 20
0.3031439154672277
 30
0.0
 11
-0.0000000000000015
 21
-0.078000000000003
 31
0.0
210
0.0
220
0.0
230
1.0
 40
0.7071067811865475
 41
3.476256865392532
 42
3.976622530539723
1001
ACAD
1000
RTLwPs
1070
   128
  0
ELLIPSE
  5
6F
100
AcDbEntity
  8
USP-GEO
  6
CONTINUOUS
100
AcDbEllipse
 10
1.825669705544418
 20
0.3031439154672277
 30
0.0
 11
-0.0000000000000011
 21
-0.078000000000003
 31
0.0
210
0.0
220
0.0
230
1.0
 40
0.7071067811865475
 41
4.610304335777493
 42
10.89120214335557
1001
ACAD
1000
RTLwPs
1070
   128
  0
ELLIPSE
  5
70
100
AcDbEntity
  8
USP-GEO
  6
CONTINUOUS
100
AcDbEllipse
 10
1.825669705544418
 20
0.3031439154672277
 30
0.0
 11
-0.0000000000000011
 21
-0.078000000000003
 31
0.0
210
0.0
220
0.0
230
1.0
 40
0.7071067811865475
 41
4.073306537486514
 42
4.92362035790787
1001
ACAD
1000
RTLwPs
1070
   128
  0
ELLIPSE
  5
71
100
AcDbEntity
  8
USP-GEO
  6
CONTINUOUS
100
AcDbEllipse
 10
1.825669705544418
 20
0.3031439154672277
 30
0.0
 11
-0.0000000000000011
 21
-0.078000000000003
 31
0.0
210
0.0
220
0.0
230
1.0
 40
0.7071067811865475
 41
3.61829982406056
 42
4.083956359028221
1001
ACAD
1000
RTLwPs
1070
   128
  0
ELLIPSE
  5
72
100
AcDbEntity
  8
USP-GEO
  6
CONTINUOUS
100
AcDbEllipse
 10
1.825669705544418
 20
0.3031439154672277
 30
0.0
 11
-0.0000000000000011
 21
-0.078000000000003
 31
0.0
210
0.0
220
0.0
230
1.0
 40
0.7071067811865475
 41
5.711531535916622
 42
11.20227655801934
1001
ACAD
1000
RTLwPs
1070
   128
  0
ELLIPSE
  5
73
100
AcDbEntity
  8
USP-GEO
  6
CONTINUOUS
100
AcDbEllipse
 10
1.825669705544418
 20
0.3031439154672277
 30
0.0
 11
-0.0000000000000011
 21
-0.078000000000003
 31
0.0
210
0.0
220
0.0
230
1.0
 40
0.7071067811865475
 41
3.634926922089842
 42
9.537062694105447
1001
ACAD
1000
RTLwPs
1070
   128
  0
ELLIPSE
  5
74
100
AcDbEntity
  8
USP-GEO
  6
CONTINUOUS
100
AcDbEllipse
 10
1.825669705544418
 20
0.3031439154672277
 30
0.0
 11
-0.0000000000000011
 21
-0.078000000000003
 31
0.0
210
0.0
220
0.0
230
1.0
 40
0.7071067811865475
 41
5.693037524276951
 42
6.169680318664575
1001
ACAD
1000
RTLwPs
1070
   128
  0
ELLIPSE
  5
75
100
AcDbEntity
  8
USP-GEO
  6
CONTINUOUS
100
AcDbEllipse
 10
1.825669705544418
 20
0.3031439154672277
 30
0.0
 11
-0.0000000000000011
 21
-0.078000000000003
 31
0.0
210
0.0
220
0.0
230
1.0
 40
0.7071067811865475
 41
0.0
 42
6.283185307179586
1001
ACAD
1000
RTLwPs
1070
   128
  0
ELLIPSE
  5
76
100
AcDbEntity
  8
USP-GEO
  6
CONTINUOUS
100
AcDbEllipse
 10
1.825669705544418
 20
0.3031439154672277
 30
0.0
 11
-0.0000000000000011
 21
-0.078000000000003
 31
0.0
210
0.0
220
0.0
230
1.0
 40
0.7071067811865475
 41
0.3708565185349549
 42
6.143637824612552
1001
ACAD
1000
RTLwPs
1070
   128
  0
ELLIPSE
  5
77
100
AcDbEntity
  8
USP-GEO
  6
CONTINUOUS
100
AcDbEllipse
 10
1.825669705544418
 20
0.3031439154672277
 30
0.0
 11
-0.0000000000000011
 21
-0.078000000000003
 31
0.0
210
0.0
220
0.0
230
1.0
 40
0.7071067811865475
 41
3.25387738692586
 42
9.102961447583645
1001
ACAD
1000
RTLwPs
1070
   128
  0
ELLIPSE
  5
78
100
AcDbEntity
  8
USP-GEO
  6
CONTINUOUS
100
AcDbEllipse
 10
1.825669705544418
 20
0.3031439154672277
 30
0.0
 11
-0.0000000000000011
 21
-0.078000000000003
 31
0.0
210
0.0
220
0.0
230
1.0
 40
0.7071067811865475
 41
0.0
 42
6.283185307179586
1001
ACAD
1000
RTLwPs
1070
   128
  0
ELLIPSE
  5
79
100
AcDbEntity
  8
USP-GEO
  6
CONTINUOUS
100
AcDbEllipse
 10
1.825669705544418
 20
0.3031439154672277
 30
0.0
 11
-0.0000000000000011
 21
-0.078000000000003
 31
0.0
210
0.0
220
0.0
230
1.0
 40
0.7071067811865475
 41
0.985751077614193
 42
6.654041825714541
1001
ACAD
1000
RTLwPs
1070
   128
  0
ELLIPSE
  5
7A
100
AcDbEntity
  8
USP-GEO
  6
CONTINUOUS
100
AcDbEllipse
 10
1.825669705544418
 20
0.3031439154672277
 30
0.0
 11
-0.0000000000000011
 21
-0.078000000000003
 31
0.0
210
0.0
220
0.0
230
1.0
 40
0.7071067811865475
 41
2.839016983154787
 42
8.599075583374458
1001
ACAD
1000
RTLwPs
1070
   128
  0
ELLIPSE
  5
7B
100
AcDbEntity
  8
USP-GEO
  6
CONTINUOUS
100
AcDbEllipse
 10
1.825669705544418
 20
0.3031439154672277
 30
0.0
 11
-0.0000000000000011
 21
-0.078000000000003
 31
0.0
210
0.0
220
0.0
230
1.0
 40
0.7071067811865475
 41
1.310644664901998
 42
7.255782178184916
1001
ACAD
1000
RTLwPs
1070
   128
  0
ELLIPSE
  5
7C
100
AcDbEntity
  8
USP-GEO
  6
CONTINUOUS
100
AcDbEllipse
 10
1.825669705544418
 20
0.3031439154672277
 30
0.0
 11
-0.0000000000000011
 21
-0.078000000000003
 31
0.0
210
0.0
220
0.0
230
1.0
 40
0.7071067811865475
 41
1.303493467625227
 42
2.330066908344386
1001
ACAD
1000
RTLwPs
1070
   128
  0
ELLIPSE
  5
7D
100
AcDbEntity
  8
USP-GEO
  6
CONTINUOUS
100
AcDbEllipse
 10
1.825669705544418
 20
0.3031439154672277
 30
0.0
 11
-0.0000000000000011
 21
-0.078000000000003
 31
0.0
210
0.0
220
0.0
230
1.0
 40
0.7071067811865475
 41
1.70379028230665
 42
7.983291488711954
1001
ACAD
1000
RTLwPs
1070
   128
  0
LWPOLYLINE
  5
7E
100
AcDbEntity
  8
USP-GEO
100
AcDbPolyline
 90
        2
 70
   128
 43
0.0
 10
4.332401234287059
 20
2.155435401486823
 10
4.333597369360029
 20
2.155435401486823
  0
LWPOLYLINE
  5
7F
100
AcDbEntity
  8
USP-GEO
100
AcDbPolyline
 90
        2
 70
   128
 43
0.0
 10
4.332401234287059
 20
2.107589998568137
 10
4.332401234287059
 20
2.155435401486823
  0
LWPOLYLINE
  5
80
100
AcDbEntity
  8
USP-GEO
100
AcDbPolyline
 90
        2
 70
   128
 43
0.0
 10
4.332401234287059
 20
1.916208386893391
 10
4.332401234287059
 20
2.107589998568137
  0
LWPOLYLINE
  5
81
100
AcDbEntity
  8
USP-GEO
100
AcDbPolyline
 90
        2
 70
   128
 43
0.0
 10
4.332401234287059
 20
1.029872297824724
 10
4.332401234287059
 20
1.916208386893391
  0
LWPOLYLINE
  5
82
100
AcDbEntity
  8
USP-GEO
100
AcDbPolyline
 90
        2
 70
   128
 43
0.0
 10
4.332401234287059
 20
0.8863360890686671
 10
4.332401234287059
 20
1.029872297824724
  0
LWPOLYLINE
  5
83
100
AcDbEntity
  8
USP-GEO
100
AcDbPolyline
 90
        2
 70
   128
 43
0.0
 10
4.332401234287059
 20
0.8863360890686671
 10
4.333597369360029
 20
0.8863360890686671
  0
LWPOLYLINE
  5
84
100
AcDbEntity
  8
USP-GEO
100
AcDbPolyline
 90
        2
 70
   128
 43
0.0
 10
4.332401234287059
 20
0.2631497160527729
 10
4.332401234287059
 20
0.8863360890686671
  0
LWPOLYLINE
  5
85
100
AcDbEntity
  8
USP-GEO
100
AcDbPolyline
 90
        2
 70
   128
 43
0.0
 10
4.332401234287059
 20
0.143536208756057
 10
4.332401234287059
 20
0.2631497160527729
  0
LWPOLYLINE
  5
86
100
AcDbEntity
  8
USP-GEO
100
AcDbPolyline
 90
        2
 70
   128
 43
0.0
 10
4.332401234287059
 20
0.1196135072967159
 10
4.332401234287059
 20
0.143536208756057
  0
LWPOLYLINE
  5
87
100
AcDbEntity
  8
USP-GEO
100
AcDbPolyline
 90
        2
 70
   128
 43
0.0
 10
4.332401234287059
 20
0.0
 10
4.332401234287059
 20
0.1196135072967159
  0
LWPOLYLINE
  5
88
100
AcDbEntity
  8
USP-GEO
100
AcDbPolyline
 90
        2
 70
   128
 43
0.0
 10
4.188865025531002
 20
1.125563103662098
 10
4.308478532827718
 20
1.245176610958814
  0
LWPOLYLINE
  5
89
100
AcDbEntity
  8
USP-GEO
100
AcDbPolyline
 90
        2
 70
   128
 43
0.0
 10
4.308478532827718
 20
0.9820268949060384
 10
4.188865025531002
 20
1.125563103662098
  0
LWPOLYLINE
  5
8A
100
AcDbEntity
  8
USP-GEO
100
AcDbPolyline
 90
        2
 70
   128
 43
0.0
 10
4.332401234287059
 20
0.9820268949060384
 10
4.308478532827718
 20
0.9820268949060384
  0
LWPOLYLINE
  5
8B
100
AcDbEntity
  8
USP-GEO
100
AcDbPolyline
 90
        2
 70
   128
 43
0.0
 10
4.308478532827718
 20
1.245176610958814
 10
4.332401234287059
 20
1.245176610958814
  0
LWPOLYLINE
  5
8C
100
AcDbEntity
  8
USP-GEO
100
AcDbPolyline
 90
        2
 70
   128
 43
0.0
 10
2.178161967873201
 20
1.125563103662098
 10
2.082471162035828
 20
1.245176610958814
  0
LWPOLYLINE
  5
8D
100
AcDbEntity
  8
USP-GEO
100
AcDbPolyline
 90
        2
 70
   128
 43
0.0
 10
2.082471162035828
 20
0.9820268949060384
 10
2.178161967873201
 20
1.125563103662098
  0
LWPOLYLINE
  5
8E
100
AcDbEntity
  8
USP-GEO
100
AcDbPolyline
 90
        2
 70
   128
 43
0.0
 10
2.034625759117142
 20
0.9820268949060384
 10
2.082471162035828
 20
0.9820268949060384
  0
LWPOLYLINE
  5
8F
100
AcDbEntity
  8
USP-GEO
100
AcDbPolyline
 90
        2
 70
   128
 43
0.0
 10
2.082471162035828
 20
1.245176610958814
 10
2.034625759117142
 20
1.245176610958814
  0
ARC
  5
90
100
AcDbEntity
  8
USP-GEO
100
AcDbCircle
 10
2.031970456876058
 20
0.3031439154672277
 30
0.0
 40
0.302
100
AcDbArc
 50
98.67682161232282
 51
260.8067721036821
  0
ARC
  5
91
100
AcDbEntity
  8
USP-GEO
100
AcDbCircle
 10
4.344470456876072
 20
0.4906439154672278
 30
0.0
 40
0.302
100
AcDbArc
 50
281.2816568723452
 51
78.74542563117834
  0
TEXT
  5
92
100
AcDbEntity
  8
USP-TXT
100
AcDbText
 10
0.9751801633687687
 20
-1.090148837614325
 30
0.0
 40
0.25
  1
TFL2314 - TOP VIEW
 72
     1
 11
3.183513496702102
 21
-1.090148837614325
 31
0.0
100
AcDbText
  0
ENDBLK
  5
99
100
AcDbEntity
  8
0
100
AcDbBlockEnd
  0
BLOCK
  5
112
100
AcDbEntity
  8
0
100
AcDbBlockBegin
  2
TFL2314PR_F
 70
     0
 10
0.0
 20
0.0
 30
0.0
  3
TFL2314PR_F
  1

  0
LWPOLYLINE
  5
9C
100
AcDbEntity
  8
USP-GEO
100
AcDbPolyline
 90
        2
 70
   128
 43
0.0
 10
1.915012251820426
 20
14.08090207896943
 10
0.0
 20
14.08090207896943
  0
LWPOLYLINE
  5
9D
100
AcDbEntity
  8
USP-GEO
100
AcDbPolyline
 90
        2
 70
   128
 43
0.0
 10
6.367026993404204
 20
14.08090207896943
 10
4.47593744304312
 20
14.08090207896943
  0
LWPOLYLINE
  5
9E
100
AcDbEntity
  8
USP-GEO
100
AcDbPolyline
 90
        2
 70
   128
 43
0.0
 10
4.716360592709518
 20
4.956783742375918
 10
4.812051398546893
 20
4.837170235079202
  0
LWPOLYLINE
  5
9F
100
AcDbEntity
  8
USP-GEO
100
AcDbPolyline
 90
        2
 70
   128
 43
0.0
 10
4.596747085412802
 20
4.837170235079202
 10
4.716360592709518
 20
4.956783742375918
  0
LWPOLYLINE
  5
A0
100
AcDbEntity
  8
USP-GEO
100
AcDbPolyline
 90
        2
 70
   128
 43
0.0
 10
4.716360592709518
 20
4.717556727782486
 10
4.596747085412802
 20
4.837170235079202
  0
LWPOLYLINE
  5
A1
100
AcDbEntity
  8
USP-GEO
100
AcDbPolyline
 90
        2
 70
   128
 43
0.0
 10
4.812051398546893
 20
4.837170235079202
 10
4.716360592709518
 20
4.717556727782486
  0
CIRCLE
  5
A2
100
AcDbEntity
  8
USP-GEO
100
AcDbCircle
 10
4.842537056458516
 20
13.07179315230044
 30
0.0
 40
0.09
  0
ARC
  5
A3
100
AcDbEntity
  8
USP-GEO
100
AcDbCircle
 10
4.361653117955077
 20
13.80267709080388
 30
0.0
 40
0.1058839385034389
100
AcDbArc
 50
291.9052602141805
 51
6.924315842889638
  0
LWPOLYLINE
  5
A4
100
AcDbEntity
  8
USP-GEO
100
AcDbPolyline
 90
        2
 70
   128
 43
0.0
 10
4.47593744304312
 20
14.03305667605074
 10
4.47593744304312
 20
13.81655622784369
  0
ARC
  5
A5
100
AcDbEntity
  8
USP-GEO
100
AcDbCircle
 10
6.361653117955063
 20
13.80267709080388
 30
0.0
 40
0.1058839385034389
100
AcDbArc
 50
272.9095144632406
 51
273.5556132054641
  0
ARC
  5
A6
100
AcDbEntity
  8
USP-GEO
100
AcDbCircle
 10
6.361653117955063
 20
13.44679315230044
 30
0.0
 40
0.25
100
AcDbArc
 50
88.76932415930749
 51
136.1989637401185
  0
LWPOLYLINE
  5
A7
100
AcDbEntity
  8
USP-GEO
100
AcDbPolyline
 90
        2
 70
   128
 43
0.0
 10
5.266582726274416
 20
12.59530231834421
 10
6.175645381729458
 20
13.62517461616894
  0
ARC
  5
A8
100
AcDbEntity
  8
USP-GEO
100
AcDbCircle
 10
5.646470456876278
 20
12.26401600737429
 30
0.0
 40
0.5
100
AcDbArc
 50
138.9094976682106
 51
180.416548516245
  0
LWPOLYLINE
  5
A9
100
AcDbEntity
  8
USP-GEO
100
AcDbPolyline
 90
        2
 70
   128
 43
0.0
 10
5.146969218977696
 20
12.26038449791341
 10
5.146969218977696
 20
5.556047413932468
  0
ARC
  5
AA
100
AcDbEntity
  8
USP-GEO
100
AcDbCircle
 10
4.396470456876278
 20
5.568755000999031
 30
0.0
 40
0.75
100
AcDbArc
 50
347.8638629675856
 51
359.0299497155303
  0
LWPOLYLINE
  5
AB
100
AcDbEntity
  8
USP-GEO
100
AcDbPolyline
 90
        2
 70
   128
 43
0.0
 10
4.523782845961806
 20
2.275048908783542
 10
5.123046517518355
 20
5.412511205176407
  0
ARC
  5
AC
100
AcDbEntity
  8
USP-GEO
100
AcDbCircle
 10
4.396470456876292
 20
2.306218152300429
 30
0.0
 40
0.125
100
AcDbArc
 50
283.9965219228318
 51
346.2431638377956
  0
CIRCLE
  5
AD
100
AcDbEntity
  8
USP-GEO
100
AcDbCircle
 10
1.533903857293841
 20
13.07179315230035
 30
0.0
 40
0.09
  0
LWPOLYLINE
  5
AE
100
AcDbEntity
  8
USP-GEO
100
AcDbPolyline
 90
        2
 70
   128
 43
0.0
 10
1.556171729930277
 20
4.837170235079202
 10
1.675785237226993
 20
4.956783742375918
  0
LWPOLYLINE
  5
AF
100
AcDbEntity
  8
USP-GEO
100
AcDbPolyline
 90
        2
 70
   128
 43
0.0
 10
1.675785237226993
 20
4.717556727782486
 10
1.556171729930277
 20
4.837170235079202
  0
LWPOLYLINE
  5
B0
100
AcDbEntity
  8
USP-GEO
100
AcDbPolyline
 90
        2
 70
   128
 43
0.0
 10
1.771476043064366
 20
4.837170235079202
 10
1.675785237226993
 20
4.717556727782486
  0
LWPOLYLINE
  5
B1
100
AcDbEntity
  8
USP-GEO
100
AcDbPolyline
 90
        2
 70
   128
 43
0.0
 10
1.675785237226993
 20
4.956783742375918
 10
1.771476043064366
 20
4.837170235079202
  0
ARC
  5
B2
100
AcDbEntity
  8
USP-GEO
100
AcDbCircle
 10
1.979970456876065
 20
2.306218152300372
 30
0.0
 40
0.125
100
AcDbArc
 50
195.4462340331614
 51
252.0751276782601
  0
LWPOLYLINE
  5
B3
100
AcDbEntity
  8
USP-GEO
100
AcDbPolyline
 90
        2
 70
   128
 43
0.0
 10
1.867166848901739
 20
2.275048908783542
 10
1.245176610958814
 20
5.412511205176407
  0
ARC
  5
B4
100
AcDbEntity
  8
USP-GEO
100
AcDbCircle
 10
1.979970456876079
 20
5.568755000999003
 30
0.0
 40
0.75
100
AcDbArc
 50
180.9595454834882
 51
192.0043674644781
  0
LWPOLYLINE
  5
B5
100
AcDbEntity
  8
USP-GEO
100
AcDbPolyline
 90
        2
 70
   128
 43
0.0
 10
1.221253909499472
 20
12.26038449791341
 10
1.221253909499472
 20
5.556047413932468
  0
ARC
  5
B6
100
AcDbEntity
  8
USP-GEO
100
AcDbCircle
 10
0.7299704568760799
 20
12.2640160073742
 30
0.0
 40
0.5
100
AcDbArc
 50
359.5764840547089
 51
41.71206936570423
  0
LWPOLYLINE
  5
B7
100
AcDbEntity
  8
USP-GEO
100
AcDbPolyline
 90
        2
 70
   128
 43
0.0
 10
1.101640402202756
 20
12.59530231834421
 10
0.1913816116747444
 20
13.62517461616894
  0
ARC
  5
B8
100
AcDbEntity
  8
USP-GEO
100
AcDbCircle
 10
0.0147877957972948
 20
13.44679315230035
 30
0.0
 40
0.25
100
AcDbArc
 50
45.28853789302385
 51
87.9086149361187
  0
ARC
  5
B9
100
AcDbEntity
  8
USP-GEO
100
AcDbCircle
 10
0.0147877957972948
 20
13.80267709080379
 30
0.0
 40
0.1058839385034389
100
AcDbArc
 50
262.0383702961362
 51
274.9377995993461
  0
LWPOLYLINE
  5
BA
100
AcDbEntity
  8
USP-GEO
100
AcDbPolyline
 90
        2
 70
   128
 43
0.0
 10
0.0
 20
14.03305667605074
 10
0.0
 20
13.69694272054697
  0
LWPOLYLINE
  5
BB
100
AcDbEntity
  8
USP-GEO
100
AcDbPolyline
 90
        2
 70
   128
 43
0.0
 10
4.428092040124434
 20
13.69694272054697
 10
4.40416933866509
 20
13.69694272054697
  0
LWPOLYLINE
  5
BC
100
AcDbEntity
  8
USP-GEO
100
AcDbPolyline
 90
        2
 70
   128
 43
0.0
 10
4.332401234287059
 20
2.179358102946167
 10
4.40416933866509
 20
2.179358102946167
  0
LWPOLYLINE
  5
BD
100
AcDbEntity
  8
USP-GEO
100
AcDbPolyline
 90
        2
 70
   128
 43
0.0
 10
4.332401234287059
 20
2.275048908783542
 10
4.40416933866509
 20
2.275048908783542
  0
LWPOLYLINE
  5
BE
100
AcDbEntity
  8
USP-GEO
100
AcDbPolyline
 90
        2
 70
   128
 43
0.0
 10
2.034625759117142
 20
13.62517461616894
 10
2.034625759117142
 20
12.59530231834421
  0
LWPOLYLINE
  5
BF
100
AcDbEntity
  8
USP-GEO
100
AcDbPolyline
 90
        2
 70
   128
 43
0.0
 10
2.034625759117142
 20
12.59530231834421
 10
2.034625759117142
 20
12.26038449791341
  0
LWPOLYLINE
  5
C0
100
AcDbEntity
  8
USP-GEO
100
AcDbPolyline
 90
        2
 70
   128
 43
0.0
 10
2.034625759117142
 20
12.26038449791341
 10
2.034625759117142
 20
5.556047413932468
  0
LWPOLYLINE
  5
C1
100
AcDbEntity
  8
USP-GEO
100
AcDbPolyline
 90
        2
 70
   128
 43
0.0
 10
2.034625759117142
 20
5.556047413932468
 10
2.034625759117142
 20
5.412511205176407
  0
LWPOLYLINE
  5
C2
100
AcDbEntity
  8
USP-GEO
100
AcDbPolyline
 90
        2
 70
   128
 43
0.0
 10
2.034625759117142
 20
5.412511205176407
 10
2.034625759117142
 20
2.275048908783542
  0
LWPOLYLINE
  5
C3
100
AcDbEntity
  8
USP-GEO
100
AcDbPolyline
 90
        2
 70
   128
 43
0.0
 10
2.034625759117142
 20
2.275048908783542
 10
1.986780356198455
 20
2.275048908783542
  0
LWPOLYLINE
  5
C4
100
AcDbEntity
  8
USP-GEO
100
AcDbPolyline
 90
        2
 70
   128
 43
0.0
 10
2.034625759117142
 20
2.275048908783542
 10
2.034625759117142
 20
2.179358102946167
  0
LWPOLYLINE
  5
C5
100
AcDbEntity
  8
USP-GEO
100
AcDbPolyline
 90
        2
 70
   128
 43
0.0
 10
2.034625759117142
 20
2.179358102946167
 10
1.986780356198455
 20
2.179358102946167
  0
LWPOLYLINE
  5
C6
100
AcDbEntity
  8
USP-GEO
100
AcDbPolyline
 90
        2
 70
   128
 43
0.0
 10
2.034625759117142
 20
2.179358102946167
 10
2.034625759117142
 20
2.059744595649451
  0
ARC
  5
C7
100
AcDbEntity
  8
USP-GEO
100
AcDbCircle
 10
2.069970456876054
 20
0.1098431523003693
 30
0.0
 40
0.09
100
AcDbArc
 50
188.8522569565997
 51
264.063456792315
  0
LWPOLYLINE
  5
C8
100
AcDbEntity
  8
USP-GEO
100
AcDbPolyline
 90
        2
 70
   128
 43
0.0
 10
2.034625759117142
 20
2.059744595649451
 10
2.034625759117142
 20
0.0968869409103412
  0
LWPOLYLINE
  5
C9
100
AcDbEntity
  8
USP-GEO
100
AcDbPolyline
 90
        2
 70
   128
 43
0.0
 10
2.058548460576485
 20
0.0
 10
4.308478532827718
 20
0.0
  0
ARC
  5
CA
100
AcDbEntity
  8
USP-GEO
100
AcDbCircle
 10
4.306470456876061
 20
0.1098431523003693
 30
0.0
 40
0.09
100
AcDbArc
 50
271.0473248432323
 51
352.4458715023909
  0
LWPOLYLINE
  5
CB
100
AcDbEntity
  8
USP-GEO
100
AcDbPolyline
 90
        2
 70
   128
 43
0.0
 10
2.058548460576485
 20
0.0729642394509966
 10
4.308478532827718
 20
0.0729642394509966
  0
ARC
  5
CC
100
AcDbEntity
  8
USP-GEO
100
AcDbCircle
 10
4.306470456876075
 20
0.1098431523003693
 30
0.0
 40
0.038
100
AcDbArc
 50
273.1167071739962
 51
333.4511734310818
  0
ARC
  5
CD
100
AcDbEntity
  8
USP-GEO
100
AcDbCircle
 10
2.069970456876054
 20
0.1098431523003693
 30
0.0
 40
0.038
100
AcDbArc
 50
200.1312860720039
 51
252.7914005424369
  0
LWPOLYLINE
  5
CE
100
AcDbEntity
  8
USP-GEO
100
AcDbPolyline
 90
        2
 70
   128
 43
0.0
 10
6.367026993404204
 20
14.03305667605074
 10
6.367026993404204
 20
13.69694272054697
  0
LWPOLYLINE
  5
CF
100
AcDbEntity
  8
USP-GEO
100
AcDbPolyline
 90
        2
 70
   128
 43
0.0
 10
4.47593744304312
 20
14.03305667605074
 10
4.47593744304312
 20
14.12874748188811
  0
LWPOLYLINE
  5
D0
100
AcDbEntity
  8
USP-GEO
100
AcDbPolyline
 90
        2
 70
   128
 43
0.0
 10
4.47593744304312
 20
14.12874748188811
 10
6.367026993404204
 20
14.12874748188811
  0
LWPOLYLINE
  5
D1
100
AcDbEntity
  8
USP-GEO
100
AcDbPolyline
 90
        2
 70
   128
 43
0.0
 10
6.367026993404204
 20
14.12874748188811
 10
6.367026993404204
 20
14.03305667605074
  0
LWPOLYLINE
  5
D2
100
AcDbEntity
  8
USP-GEO
100
AcDbPolyline
 90
        2
 70
   128
 43
0.0
 10
1.915012251820426
 20
14.03305667605074
 10
1.915012251820426
 20
13.81655622784369
  0
LWPOLYLINE
  5
D3
100
AcDbEntity
  8
USP-GEO
100
AcDbPolyline
 90
        2
 70
   128
 43
0.0
 10
0.0
 20
14.12874748188811
 10
1.915012251820426
 20
14.12874748188811
  0
LWPOLYLINE
  5
D4
100
AcDbEntity
  8
USP-GEO
100
AcDbPolyline
 90
        2
 70
   128
 43
0.0
 10
1.915012251820426
 20
14.12874748188811
 10
1.915012251820426
 20
14.03305667605074
  0
LWPOLYLINE
  5
D5
100
AcDbEntity
  8
USP-GEO
100
AcDbPolyline
 90
        2
 70
   128
 43
0.0
 10
0.0
 20
14.03305667605074
 10
0.0
 20
14.12874748188811
  0
LWPOLYLINE
  5
D6
100
AcDbEntity
  8
USP-GEO
100
AcDbPolyline
 90
        2
 70
   128
 43
0.0
 10
4.40416933866509
 20
0.0968869409103412
 10
4.40416933866509
 20
2.059744595649451
  0
LWPOLYLINE
  5
D7
100
AcDbEntity
  8
USP-GEO
100
AcDbPolyline
 90
        2
 70
   128
 43
0.0
 10
4.40416933866509
 20
2.179358102946167
 10
4.40416933866509
 20
2.059744595649451
  0
LWPOLYLINE
  5
D8
100
AcDbEntity
  8
USP-GEO
100
AcDbPolyline
 90
        2
 70
   128
 43
0.0
 10
4.40416933866509
 20
2.179358102946167
 10
4.40416933866509
 20
2.275048908783542
  0
LWPOLYLINE
  5
D9
100
AcDbEntity
  8
USP-GEO
100
AcDbPolyline
 90
        2
 70
   128
 43
0.0
 10
4.40416933866509
 20
2.275048908783542
 10
4.40416933866509
 20
5.412511205176407
  0
LWPOLYLINE
  5
DA
100
AcDbEntity
  8
USP-GEO
100
AcDbPolyline
 90
        2
 70
   128
 43
0.0
 10
4.40416933866509
 20
5.412511205176407
 10
4.40416933866509
 20
5.556047413932468
  0
LWPOLYLINE
  5
DB
100
AcDbEntity
  8
USP-GEO
100
AcDbPolyline
 90
        2
 70
   128
 43
0.0
 10
4.40416933866509
 20
12.26038449791341
 10
4.40416933866509
 20
5.556047413932468
  0
LWPOLYLINE
  5
DC
100
AcDbEntity
  8
USP-GEO
100
AcDbPolyline
 90
        2
 70
   128
 43
0.0
 10
4.40416933866509
 20
12.59530231834421
 10
4.40416933866509
 20
12.26038449791341
  0
LWPOLYLINE
  5
DD
100
AcDbEntity
  8
USP-GEO
100
AcDbPolyline
 90
        2
 70
   128
 43
0.0
 10
4.40416933866509
 20
12.59530231834421
 10
4.40416933866509
 20
13.62517461616894
  0
LWPOLYLINE
  5
DE
100
AcDbEntity
  8
USP-GEO
100
AcDbPolyline
 90
        2
 70
   128
 43
0.0
 10
4.40416933866509
 20
13.69694272054697
 10
4.40416933866509
 20
13.62517461616894
  0
LWPOLYLINE
  5
DF
100
AcDbEntity
  8
USP-GEO
100
AcDbPolyline
 90
        2
 70
   128
 43
0.0
 10
4.40416933866509
 20
13.69694272054697
 10
4.405365473738056
 20
13.69694272054697
  0
LWPOLYLINE
  5
E0
100
AcDbEntity
  8
USP-GEO
100
AcDbPolyline
 90
        2
 70
   128
 43
0.0
 10
4.40416933866509
 20
13.69694272054697
 10
4.428092040124434
 20
13.69694272054697
  0
LWPOLYLINE
  5
E1
100
AcDbEntity
  8
USP-GEO
100
AcDbPolyline
 90
        2
 70
   128
 43
0.0
 10
4.428092040124434
 20
2.179358102946167
 10
4.40416933866509
 20
2.179358102946167
  0
LWPOLYLINE
  5
E2
100
AcDbEntity
  8
USP-GEO
100
AcDbPolyline
 90
        2
 70
   128
 43
0.0
 10
4.332401234287059
 20
13.69694272054697
 10
4.40416933866509
 20
13.69694272054697
  0
LWPOLYLINE
  5
E3
100
AcDbEntity
  8
USP-GEO
100
AcDbPolyline
 90
        2
 70
   128
 43
0.0
 10
1.986780356198455
 20
12.59530231834421
 10
1.986780356198455
 20
13.62517461616894
  0
LWPOLYLINE
  5
E4
100
AcDbEntity
  8
USP-GEO
100
AcDbPolyline
 90
        2
 70
   128
 43
0.0
 10
1.986780356198455
 20
12.26038449791341
 10
1.986780356198455
 20
12.59530231834421
  0
LWPOLYLINE
  5
E5
100
AcDbEntity
  8
USP-GEO
100
AcDbPolyline
 90
        2
 70
   128
 43
0.0
 10
1.986780356198455
 20
12.26038449791341
 10
1.986780356198455
 20
5.556047413932468
  0
LWPOLYLINE
  5
E6
100
AcDbEntity
  8
USP-GEO
100
AcDbPolyline
 90
        2
 70
   128
 43
0.0
 10
1.986780356198455
 20
5.556047413932468
 10
1.986780356198455
 20
5.412511205176407
  0
LWPOLYLINE
  5
E7
100
AcDbEntity
  8
USP-GEO
100
AcDbPolyline
 90
        2
 70
   128
 43
0.0
 10
1.986780356198455
 20
2.275048908783542
 10
1.986780356198455
 20
5.412511205176407
  0
LWPOLYLINE
  5
E8
100
AcDbEntity
  8
USP-GEO
100
AcDbPolyline
 90
        2
 70
   128
 43
0.0
 10
1.986780356198455
 20
2.275048908783542
 10
1.986780356198455
 20
2.179358102946167
  0
LWPOLYLINE
  5
E9
100
AcDbEntity
  8
USP-GEO
100
AcDbPolyline
 90
        2
 70
   128
 43
0.0
 10
1.986780356198455
 20
2.059744595649451
 10
1.986780356198455
 20
2.179358102946167
  0
LWPOLYLINE
  5
EA
100
AcDbEntity
  8
USP-GEO
100
AcDbPolyline
 90
        2
 70
   128
 43
0.0
 10
1.986780356198455
 20
2.059744595649451
 10
1.986780356198455
 20
0.0968869409103412
  0
LWPOLYLINE
  5
EB
100
AcDbEntity
  8
USP-GEO
100
AcDbPolyline
 90
        2
 70
   128
 43
0.0
 10
1.986780356198455
 20
2.179358102946167
 10
1.938934953279769
 20
2.179358102946167
  0
ARC
  5
EC
100
AcDbEntity
  8
USP-GEO
100
AcDbCircle
 10
2.01478779579728
 20
13.80267709080379
 30
0.0
 40
0.1058839385034389
100
AcDbArc
 50
172.0807686064923
 51
255.1639343713242
  0
LWPOLYLINE
  5
ED
100
AcDbEntity
  8
USP-GEO
100
AcDbPolyline
 90
        2
 70
   128
 43
0.0
 10
1.938934953279769
 20
13.69694272054697
 10
1.986780356198455
 20
13.69694272054697
  0
LWPOLYLINE
  5
EE
100
AcDbEntity
  8
USP-GEO
100
AcDbPolyline
 90
        2
 70
   128
 43
0.0
 10
1.986780356198455
 20
13.69694272054697
 10
1.938934953279769
 20
13.69694272054697
  0
LWPOLYLINE
  5
EF
100
AcDbEntity
  8
USP-GEO
100
AcDbPolyline
 90
        2
 70
   128
 43
0.0
 10
2.010703057657799
 20
13.69694272054697
 10
1.986780356198455
 20
13.69694272054697
  0
LWPOLYLINE
  5
F0
100
AcDbEntity
  8
USP-GEO
100
AcDbPolyline
 90
        2
 70
   128
 43
0.0
 10
2.034625759117142
 20
13.69694272054697
 10
2.034625759117142
 20
13.62517461616894
  0
LWPOLYLINE
  5
F1
100
AcDbEntity
  8
USP-GEO
100
AcDbPolyline
 90
        2
 70
   128
 43
0.0
 10
1.986780356198455
 20
13.62517461616894
 10
1.986780356198455
 20
13.69694272054697
  0
LWPOLYLINE
  5
F2
100
AcDbEntity
  8
USP-GEO
100
AcDbPolyline
 90
        2
 70
   128
 43
0.0
 10
1.986780356198455
 20
13.69694272054697
 10
1.987976491271423
 20
13.69694272054697
  0
LWPOLYLINE
  5
F3
100
AcDbEntity
  8
USP-GEO
100
AcDbPolyline
 90
        2
 70
   128
 43
0.0
 10
2.034625759117142
 20
13.69694272054697
 10
2.010703057657799
 20
13.69694272054697
  0
LWPOLYLINE
  5
F4
100
AcDbEntity
  8
USP-GEO
100
AcDbPolyline
 90
        2
 70
   128
 43
0.0
 10
2.034625759117142
 20
13.69694272054697
 10
2.035821894190108
 20
13.69694272054697
  0
LWPOLYLINE
  5
F5
100
AcDbEntity
  8
USP-GEO
100
AcDbPolyline
 90
        2
 70
   128
 43
0.0
 10
4.499860144502465
 20
1.581290566462588
 10
4.596747085412802
 20
1.485599760625213
  0
LWPOLYLINE
  5
F6
100
AcDbEntity
  8
USP-GEO
100
AcDbPolyline
 90
        2
 70
   128
 43
0.0
 10
1.867166848901739
 20
1.581290566462588
 10
1.771476043064366
 20
1.485599760625213
  0
LWPOLYLINE
  5
F7
100
AcDbEntity
  8
USP-GEO
100
AcDbPolyline
 90
        2
 70
   128
 43
0.0
 10
4.332401234287059
 20
13.69694272054697
 10
4.333597369360029
 20
13.69694272054697
  0
LWPOLYLINE
  5
F8
100
AcDbEntity
  8
USP-GEO
100
AcDbPolyline
 90
        2
 70
   128
 43
0.0
 10
4.332401234287059
 20
13.62517461616894
 10
4.332401234287059
 20
13.69694272054697
  0
LWPOLYLINE
  5
F9
100
AcDbEntity
  8
USP-GEO
100
AcDbPolyline
 90
        2
 70
   128
 43
0.0
 10
4.332401234287059
 20
12.59530231834421
 10
4.332401234287059
 20
13.62517461616894
  0
LWPOLYLINE
  5
FA
100
AcDbEntity
  8
USP-GEO
100
AcDbPolyline
 90
        2
 70
   128
 43
0.0
 10
4.332401234287059
 20
12.26038449791341
 10
4.332401234287059
 20
12.59530231834421
  0
LWPOLYLINE
  5
FB
100
AcDbEntity
  8
USP-GEO
100
AcDbPolyline
 90
        2
 70
   128
 43
0.0
 10
4.332401234287059
 20
5.556047413932468
 10
4.332401234287059
 20
12.26038449791341
  0
LWPOLYLINE
  5
FC
100
AcDbEntity
  8
USP-GEO
100
AcDbPolyline
 90
        2
 70
   128
 43
0.0
 10
4.332401234287059
 20
5.412511205176407
 10
4.332401234287059
 20
5.556047413932468
  0
LWPOLYLINE
  5
FD
100
AcDbEntity
  8
USP-GEO
100
AcDbPolyline
 90
        2
 70
   128
 43
0.0
 10
4.332401234287059
 20
2.275048908783542
 10
4.332401234287059
 20
5.412511205176407
  0
LWPOLYLINE
  5
FE
100
AcDbEntity
  8
USP-GEO
100
AcDbPolyline
 90
        2
 70
   128
 43
0.0
 10
4.332401234287059
 20
2.179358102946167
 10
4.332401234287059
 20
2.275048908783542
  0
LWPOLYLINE
  5
FF
100
AcDbEntity
  8
USP-GEO
100
AcDbPolyline
 90
        2
 70
   128
 43
0.0
 10
4.332401234287059
 20
2.059744595649451
 10
4.332401234287059
 20
2.179358102946167
  0
LWPOLYLINE
  5
100
100
AcDbEntity
  8
USP-GEO
100
AcDbPolyline
 90
        2
 70
   128
 43
0.0
 10
4.332401234287059
 20
0.0968869409103412
 10
4.332401234287059
 20
2.059744595649451
  0
LWPOLYLINE
  5
101
100
AcDbEntity
  8
USP-GEO
100
AcDbPolyline
 90
        2
 70
   128
 43
0.0
 10
4.212787726990343
 20
0.8624133876093225
 10
4.188865025531002
 20
0.9102587905280081
  0
LWPOLYLINE
  5
102
100
AcDbEntity
  8
USP-GEO
100
AcDbPolyline
 90
        2
 70
   128
 43
0.0
 10
4.308478532827718
 20
0.9820268949060384
 10
4.188865025531002
 20
0.9102587905280081
  0
LWPOLYLINE
  5
103
100
AcDbEntity
  8
USP-GEO
100
AcDbPolyline
 90
        2
 70
   128
 43
0.0
 10
4.212787726990343
 20
0.8624133876093225
 10
4.332401234287059
 20
0.9341814919873527
  0
LWPOLYLINE
  5
104
100
AcDbEntity
  8
USP-GEO
100
AcDbPolyline
 90
        2
 70
   128
 43
0.0
 10
4.332401234287059
 20
0.9341814919873527
 10
4.333597369360029
 20
0.9341814919873527
  0
LWPOLYLINE
  5
105
100
AcDbEntity
  8
USP-GEO
100
AcDbPolyline
 90
        2
 70
   128
 43
0.0
 10
4.332401234287059
 20
0.9341814919873527
 10
4.308478532827718
 20
0.9820268949060384
  0
LWPOLYLINE
  5
106
100
AcDbEntity
  8
USP-GEO
100
AcDbPolyline
 90
        2
 70
   128
 43
0.0
 10
4.332401234287059
 20
1.005949596365383
 10
4.308478532827718
 20
0.9820268949060384
  0
LWPOLYLINE
  5
107
100
AcDbEntity
  8
USP-GEO
100
AcDbPolyline
 90
        2
 70
   128
 43
0.0
 10
2.082471162035828
 20
0.9820268949060384
 10
2.178161967873201
 20
0.9102587905280081
  0
LWPOLYLINE
  5
108
100
AcDbEntity
  8
USP-GEO
100
AcDbPolyline
 90
        2
 70
   128
 43
0.0
 10
2.154239266413858
 20
0.8624133876093225
 10
2.178161967873201
 20
0.9102587905280081
  0
LWPOLYLINE
  5
109
100
AcDbEntity
  8
USP-GEO
100
AcDbPolyline
 90
        2
 70
   128
 43
0.0
 10
2.034625759117142
 20
1.005949596365383
 10
2.082471162035828
 20
0.9820268949060384
  0
LWPOLYLINE
  5
10A
100
AcDbEntity
  8
USP-GEO
100
AcDbPolyline
 90
        2
 70
   128
 43
0.0
 10
2.034625759117142
 20
0.9341814919873527
 10
2.082471162035828
 20
0.9820268949060384
  0
LWPOLYLINE
  5
10B
100
AcDbEntity
  8
USP-GEO
100
AcDbPolyline
 90
        2
 70
   128
 43
0.0
 10
2.034625759117142
 20
0.9341814919873527
 10
2.035821894190108
 20
0.9341814919873527
  0
LWPOLYLINE
  5
10C
100
AcDbEntity
  8
USP-GEO
100
AcDbPolyline
 90
        2
 70
   128
 43
0.0
 10
2.154239266413858
 20
0.8624133876093225
 10
2.034625759117142
 20
0.9341814919873527
  0
ARC
  5
10D
100
AcDbEntity
  8
USP-GEO
100
AcDbCircle
 10
2.031970456876058
 20
1.336843152300486
 30
0.0
 40
0.302
100
AcDbArc
 50
98.78866329284408
 51
123.9873915692201
  0
ARC
  5
10E
100
AcDbEntity
  8
USP-GEO
100
AcDbCircle
 10
2.031970456876058
 20
1.336843152300486
 30
0.0
 40
0.302
100
AcDbArc
 50
150.2712615082104
 51
261.625467351499
  0
ARC
  5
10F
100
AcDbEntity
  8
USP-GEO
100
AcDbCircle
 10
4.344470456876072
 20
1.336843152300358
 30
0.0
 40
0.302
100
AcDbArc
 50
57.55680340125637
 51
78.45648106670239
  0
ARC
  5
110
100
AcDbEntity
  8
USP-GEO
100
AcDbCircle
 10
4.344470456876072
 20
1.336843152300358
 30
0.0
 40
0.302
100
AcDbArc
 50
281.0053581308827
 51
30.52601270129285
  0
TEXT
  5
111
100
AcDbEntity
  8
USP-TXT
100
AcDbText
 10
0.72518016336877
 20
-0.7964505077824118
 30
0.0
 40
0.25
  1
TFL2314 - FRONT VIEW
 72
     1
 11
3.183513496702102
 21
-0.7964505077824118
 31
0.0
100
AcDbText
  0
ENDBLK
  5
113
100
AcDbEntity
  8
0
100
AcDbBlockEnd
  0
BLOCK
  5
160
100
AcDbEntity
  8
0
100
AcDbBlockBegin
  2
TFL2314PR_S
 70
     0
 10
0.0
 20
0.0
 30
0.0
  3
TFL2314PR_S
  1

  0
LWPOLYLINE
  5
116
100
AcDbEntity
  8
USP-GEO
100
AcDbPolyline
 90
        2
 70
   128
 43
0.0
 10
2.010703057657799
 20
0.0729642394509966
 10
0.0
 20
0.0729642394509966
  0
LWPOLYLINE
  5
117
100
AcDbEntity
  8
USP-GEO
100
AcDbPolyline
 90
        2
 70
   128
 43
0.0
 10
2.202084669332545
 20
2.275048908783542
 10
2.154239266413856
 20
2.275048908783542
  0
LWPOLYLINE
  5
118
100
AcDbEntity
  8
USP-GEO
100
AcDbPolyline
 90
        2
 70
   128
 43
0.0
 10
2.202084669332545
 20
2.179358102946167
 10
2.130316564954515
 20
2.179358102946167
  0
LWPOLYLINE
  5
119
100
AcDbEntity
  8
USP-GEO
100
AcDbPolyline
 90
        2
 70
   128
 43
0.0
 10
2.154239266413856
 20
13.69694272054697
 10
2.155435401486826
 20
13.69694272054697
  0
LWPOLYLINE
  5
11A
100
AcDbEntity
  8
USP-GEO
100
AcDbPolyline
 90
        2
 70
   128
 43
0.0
 10
2.154239266413856
 20
13.69694272054697
 10
2.154239266413856
 20
13.62517461616894
  0
LWPOLYLINE
  5
11B
100
AcDbEntity
  8
USP-GEO
100
AcDbPolyline
 90
        2
 70
   128
 43
0.0
 10
2.154239266413856
 20
12.59530231834421
 10
2.154239266413856
 20
13.62517461616894
  0
LWPOLYLINE
  5
11C
100
AcDbEntity
  8
USP-GEO
100
AcDbPolyline
 90
        2
 70
   128
 43
0.0
 10
2.154239266413856
 20
12.59530231834421
 10
2.154239266413856
 20
12.26038449791341
  0
LWPOLYLINE
  5
11D
100
AcDbEntity
  8
USP-GEO
100
AcDbPolyline
 90
        2
 70
   128
 43
0.0
 10
2.154239266413856
 20
12.26038449791341
 10
2.154239266413856
 20
5.556047413932468
  0
LWPOLYLINE
  5
11E
100
AcDbEntity
  8
USP-GEO
100
AcDbPolyline
 90
        2
 70
   128
 43
0.0
 10
2.154239266413856
 20
5.412511205176407
 10
2.154239266413856
 20
5.556047413932468
  0
LWPOLYLINE
  5
11F
100
AcDbEntity
  8
USP-GEO
100
AcDbPolyline
 90
        2
 70
   128
 43
0.0
 10
2.154239266413856
 20
2.275048908783542
 10
2.154239266413856
 20
5.412511205176407
  0
LWPOLYLINE
  5
120
100
AcDbEntity
  8
USP-GEO
100
AcDbPolyline
 90
        2
 70
   128
 43
0.0
 10
2.154239266413856
 20
2.179358102946167
 10
2.154239266413856
 20
2.275048908783542
  0
LWPOLYLINE
  5
121
100
AcDbEntity
  8
USP-GEO
100
AcDbPolyline
 90
        2
 70
   128
 43
0.0
 10
2.010703057657799
 20
0.0
 10
0.0
 20
0.0
  0
LWPOLYLINE
  5
122
100
AcDbEntity
  8
USP-GEO
100
AcDbPolyline
 90
        2
 70
   128
 43
0.0
 10
0.0
 20
0.0
 10
0.0
 20
0.0968869409103412
  0
LWPOLYLINE
  5
123
100
AcDbEntity
  8
USP-GEO
100
AcDbPolyline
 90
        2
 70
   128
 43
0.0
 10
2.010703057657799
 20
0.0968869409103412
 10
2.010703057657799
 20
0.0
  0
LWPOLYLINE
  5
124
100
AcDbEntity
  8
USP-GEO
100
AcDbPolyline
 90
        2
 70
   128
 43
0.0
 10
3.710410996344137
 20
14.08090207896943
 10
3.710410996344137
 20
14.12874748188811
  0
LWPOLYLINE
  5
125
100
AcDbEntity
  8
USP-GEO
100
AcDbPolyline
 90
        2
 70
   128
 43
0.0
 10
3.710410996344137
 20
14.08090207896943
 10
2.249930072251231
 20
14.08090207896943
  0
ARC
  5
126
100
AcDbEntity
  8
USP-GEO
100
AcDbCircle
 10
2.246695177991263
 20
14.03379315230045
 30
0.0
 40
0.038
100
AcDbArc
 50
86.07175753096342
 51
180.9458118534565
  0
LWPOLYLINE
  5
127
100
AcDbEntity
  8
USP-GEO
100
AcDbPolyline
 90
        2
 70
   128
 43
0.0
 10
2.202084669332545
 20
13.69694272054697
 10
2.154239266413856
 20
13.69694272054697
  0
LWPOLYLINE
  5
128
100
AcDbEntity
  8
USP-GEO
100
AcDbPolyline
 90
        2
 70
   128
 43
0.0
 10
2.154239266413856
 20
14.03305667605074
 10
2.154239266413856
 20
13.69694272054697
  0
LWPOLYLINE
  5
129
100
AcDbEntity
  8
USP-GEO
100
AcDbPolyline
 90
        2
 70
   128
 43
0.0
 10
3.710410996344137
 20
14.12874748188811
 10
2.249930072251231
 20
14.12874748188811
  0
ARC
  5
12A
100
AcDbEntity
  8
USP-GEO
100
AcDbCircle
 10
2.246695177991263
 20
14.03379315230045
 30
0.0
 40
0.09
100
AcDbArc
 50
88.04880795299471
 51
180.4563914587419
  0
CIRCLE
  5
12B
100
AcDbEntity
  8
USP-GEO
100
AcDbCircle
 10
1.406695177991259
 20
12.07179315230038
 30
0.0
 40
0.15625
  0
LWPOLYLINE
  5
12C
100
AcDbEntity
  8
USP-GEO
100
AcDbPolyline
 90
        2
 70
   128
 43
0.0
 10
1.604017132848962
 20
3.615916325579732
 10
1.508326327011591
 20
3.711607131417103
  0
LWPOLYLINE
  5
12D
100
AcDbEntity
  8
USP-GEO
100
AcDbPolyline
 90
        2
 70
   128
 43
0.0
 10
1.723630640145678
 20
3.711607131417103
 10
1.604017132848962
 20
3.615916325579732
  0
LWPOLYLINE
  5
12E
100
AcDbEntity
  8
USP-GEO
100
AcDbPolyline
 90
        2
 70
   128
 43
0.0
 10
1.604017132848962
 20
3.831220638713819
 10
1.723630640145678
 20
3.711607131417103
  0
LWPOLYLINE
  5
12F
100
AcDbEntity
  8
USP-GEO
100
AcDbPolyline
 90
        2
 70
   128
 43
0.0
 10
1.508326327011591
 20
3.711607131417103
 10
1.604017132848962
 20
3.831220638713819
  0
LWPOLYLINE
  5
130
100
AcDbEntity
  8
USP-GEO
100
AcDbPolyline
 90
        2
 70
   128
 43
0.0
 10
1.269099312418159
 20
1.005949596365383
 10
1.269099312418159
 20
0.9341814919873527
  0
LWPOLYLINE
  5
131
100
AcDbEntity
  8
USP-GEO
100
AcDbPolyline
 90
        2
 70
   128
 43
0.0
 10
1.004753461292416
 20
1.005949596365383
 10
1.269099312418159
 20
1.005949596365383
  0
LWPOLYLINE
  5
132
100
AcDbEntity
  8
USP-GEO
100
AcDbPolyline
 90
        2
 70
   128
 43
0.0
 10
1.004753461292416
 20
0.9341814919873527
 10
1.004753461292416
 20
1.005949596365383
  0
LWPOLYLINE
  5
133
100
AcDbEntity
  8
USP-GEO
100
AcDbPolyline
 90
        2
 70
   128
 43
0.0
 10
1.269099312418159
 20
0.9341814919873527
 10
1.124366968589132
 20
0.8145679846906368
  0
ARC
  5
134
100
AcDbEntity
  8
USP-GEO
100
AcDbCircle
 10
2.134011777573483
 20
2.056218152300372
 30
0.0
 40
0.125
100
AcDbArc
 50
91.71882942758902
 51
178.3618736463545
  0
LWPOLYLINE
  5
135
100
AcDbEntity
  8
USP-GEO
100
AcDbPolyline
 90
        2
 70
   128
 43
0.0
 10
2.010703057657799
 20
0.0968869409103412
 10
2.010703057657799
 20
2.059744595649451
  0
LWPOLYLINE
  5
136
100
AcDbEntity
  8
USP-GEO
100
AcDbPolyline
 90
        2
 70
   128
 43
0.0
 10
0.0
 20
0.0968869409103412
 10
0.0
 20
2.059744595649451
  0
ARC
  5
137
100
AcDbEntity
  8
USP-GEO
100
AcDbCircle
 10
0.1340117775734839
 20
2.056218152300372
 30
0.0
 40
0.125
100
AcDbArc
 50
85.57718379748161
 51
178.4926421610549
  0
LWPOLYLINE
  5
138
100
AcDbEntity
  8
USP-GEO
100
AcDbPolyline
 90
        2
 70
   128
 43
0.0
 10
0.1674589102154016
 20
2.179358102946167
 10
0.143536208756057
 20
2.179358102946167
  0
ARC
  5
139
100
AcDbEntity
  8
USP-GEO
100
AcDbCircle
 10
0.15669517799126
 20
2.306218152300372
 30
0.0
 40
0.125
100
AcDbArc
 50
274.8497763022557
 51
346.5546782863512
  0
LWPOLYLINE
  5
13A
100
AcDbEntity
  8
USP-GEO
100
AcDbPolyline
 90
        2
 70
   128
 43
0.0
 10
0.2870724175121175
 20
2.275048908783542
 10
0.8851399539957007
 20
5.412511205176407
  0
ARC
  5
13B
100
AcDbEntity
  8
USP-GEO
100
AcDbCircle
 10
0.1566951779912316
 20
5.568755000998974
 30
0.0
 40
0.75
100
AcDbArc
 50
347.8940769246054
 51
359.0323586484338
  0
LWPOLYLINE
  5
13C
100
AcDbEntity
  8
USP-GEO
100
AcDbPolyline
 90
        2
 70
   128
 43
0.0
 10
0.9090626554550418
 20
12.26038449791341
 10
0.9090626554550418
 20
5.556047413932468
  0
ARC
  5
13D
100
AcDbEntity
  8
USP-GEO
100
AcDbCircle
 10
1.406695177991259
 20
12.26401600737423
 30
0.0
 40
0.5
100
AcDbArc
 50
138.7694943787473
 51
180.418112688581
  0
LWPOLYLINE
  5
13E
100
AcDbEntity
  8
USP-GEO
100
AcDbPolyline
 90
        2
 70
   128
 43
0.0
 10
1.028676162751757
 20
12.59530231834421
 10
1.938934953279769
 20
13.62517461616894
  0
ARC
  5
13F
100
AcDbEntity
  8
USP-GEO
100
AcDbCircle
 10
2.121877839070045
 20
13.44679315230038
 30
0.0
 40
0.25
100
AcDbArc
 50
88.06787558273938
 51
135.7232735421489
  0
LWPOLYLINE
  5
140
100
AcDbEntity
  8
USP-GEO
100
AcDbPolyline
 90
        2
 70
   128
 43
0.0
 10
2.130316564954515
 20
2.179358102946167
 10
2.131512700027482
 20
2.179358102946167
  0
LWPOLYLINE
  5
141
100
AcDbEntity
  8
USP-GEO
100
AcDbPolyline
 90
        2
 70
   128
 43
0.0
 10
2.130316564954515
 20
13.69694272054697
 10
2.131512700027482
 20
13.69694272054697
  0
LWPOLYLINE
  5
142
100
AcDbEntity
  8
USP-GEO
100
AcDbPolyline
 90
        2
 70
   128
 43
0.0
 10
2.130316564954515
 20
13.69694272054697
 10
2.154239266413856
 20
13.69694272054697
  0
LWPOLYLINE
  5
143
100
AcDbEntity
  8
USP-GEO
100
AcDbPolyline
 90
        2
 70
   128
 43
0.0
 10
2.154239266413856
 20
2.179358102946167
 10
2.130316564954515
 20
2.179358102946167
  0
LWPOLYLINE
  5
144
100
AcDbEntity
  8
USP-GEO
100
AcDbPolyline
 90
        2
 70
   128
 43
0.0
 10
2.202084669332545
 20
2.275048908783542
 10
2.202084669332545
 20
2.179358102946167
  0
LWPOLYLINE
  5
145
100
AcDbEntity
  8
USP-GEO
100
AcDbPolyline
 90
        2
 70
   128
 43
0.0
 10
2.202084669332545
 20
5.412511205176407
 10
2.202084669332545
 20
2.275048908783542
  0
LWPOLYLINE
  5
146
100
AcDbEntity
  8
USP-GEO
100
AcDbPolyline
 90
        2
 70
   128
 43
0.0
 10
2.202084669332545
 20
5.556047413932468
 10
2.202084669332545
 20
5.412511205176407
  0
LWPOLYLINE
  5
147
100
AcDbEntity
  8
USP-GEO
100
AcDbPolyline
 90
        2
 70
   128
 43
0.0
 10
2.202084669332545
 20
12.26038449791341
 10
2.202084669332545
 20
5.556047413932468
  0
LWPOLYLINE
  5
148
100
AcDbEntity
  8
USP-GEO
100
AcDbPolyline
 90
        2
 70
   128
 43
0.0
 10
2.202084669332545
 20
12.59530231834421
 10
2.202084669332545
 20
12.26038449791341
  0
LWPOLYLINE
  5
149
100
AcDbEntity
  8
USP-GEO
100
AcDbPolyline
 90
        2
 70
   128
 43
0.0
 10
2.202084669332545
 20
13.62517461616894
 10
2.202084669332545
 20
12.59530231834421
  0
LWPOLYLINE
  5
14A
100
AcDbEntity
  8
USP-GEO
100
AcDbPolyline
 90
        2
 70
   128
 43
0.0
 10
2.202084669332545
 20
13.69694272054697
 10
2.202084669332545
 20
13.62517461616894
  0
LWPOLYLINE
  5
14B
100
AcDbEntity
  8
USP-GEO
100
AcDbPolyline
 90
        2
 70
   128
 43
0.0
 10
2.202084669332545
 20
13.69694272054697
 10
2.203280804405512
 20
13.69694272054697
  0
LWPOLYLINE
  5
14C
100
AcDbEntity
  8
USP-GEO
100
AcDbPolyline
 90
        2
 70
   128
 43
0.0
 10
2.202084669332545
 20
14.03305667605074
 10
2.202084669332545
 20
13.69694272054697
  0
ELLIPSE
  5
14D
100
AcDbEntity
  8
USP-GEO
  6
CONTINUOUS
100
AcDbEllipse
 10
0.5112306420191786
 20
1.504795526502105
 30
0.0
 11
-0.078000000000003
 21
0.0
 31
0.0
210
0.0
220
0.0
230
1.0
 40
0.7071067811865476
 41
3.247449659095423
 42
6.200458035355355
1001
ACAD
1000
RTLwPs
1070
   128
  0
CIRCLE
  5
14E
100
AcDbEntity
  8
USP-GEO
100
AcDbCircle
 10
0.5112306420191786
 20
1.336843152300358
 30
0.0
 40
0.2974894956128717
  0
ELLIPSE
  5
14F
100
AcDbEntity
  8
USP-GEO
  6
CONTINUOUS
100
AcDbEllipse
 10
0.5112306420191786
 20
1.543143903631998
 30
0.0
 11
-0.078000000000003
 21
0.0
 31
0.0
210
0.0
220
0.0
230
1.0
 40
0.7071067811865476
 41
5.511999446120667
 42
6.99153882431165
1001
ACAD
1000
RTLwPs
1070
   128
  0
ELLIPSE
  5
150
100
AcDbEntity
  8
USP-GEO
  6
CONTINUOUS
100
AcDbEllipse
 10
0.5112306420191786
 20
1.543143903631998
 30
0.0
 11
-0.078000000000003
 21
0.0
 31
0.0
210
0.0
220
0.0
230
1.0
 40
0.7071067811865476
 41
0.6978369176939544
 42
1.476973266150143
1001
ACAD
1000
RTLwPs
1070
   128
  0
ELLIPSE
  5
151
100
AcDbEntity
  8
USP-GEO
  6
CONTINUOUS
100
AcDbEllipse
 10
0.5112306420191786
 20
1.543143903631998
 30
0.0
 11
-0.078000000000003
 21
0.0
 31
0.0
210
0.0
220
0.0
230
1.0
 40
0.7071067811865476
 41
5.522652012680333
 42
11.13658086143077
1001
ACAD
1000
RTLwPs
1070
   128
  0
ELLIPSE
  5
152
100
AcDbEntity
  8
USP-GEO
  6
CONTINUOUS
100
AcDbEllipse
 10
0.5112306420191786
 20
1.543143903631998
 30
0.0
 11
-0.078000000000003
 21
0.0
 31
0.0
210
0.0
220
0.0
230
1.0
 40
0.7071067811865476
 41
1.46242504629595
 42
1.768061720212194
1001
ACAD
1000
RTLwPs
1070
   128
  0
ELLIPSE
  5
153
100
AcDbEntity
  8
USP-GEO
  6
CONTINUOUS
100
AcDbEllipse
 10
0.5112306420191786
 20
1.543143903631998
 30
0.0
 11
-0.078000000000003
 21
0.0
 31
0.0
210
0.0
220
0.0
230
1.0
 40
0.7071067811865476
 41
4.875059579095944
 42
10.70274623973378
1001
ACAD
1000
RTLwPs
1070
   128
  0
ELLIPSE
  5
154
100
AcDbEntity
  8
USP-GEO
  6
CONTINUOUS
100
AcDbEllipse
 10
0.5112306420191786
 20
1.543143903631998
 30
0.0
 11
-0.078000000000003
 21
0.0
 31
0.0
210
0.0
220
0.0
230
1.0
 40
0.7071067811865476
 41
1.753889012790891
 42
2.494416659596927
1001
ACAD
1000
RTLwPs
1070
   128
  0
ELLIPSE
  5
155
100
AcDbEntity
  8
USP-GEO
  6
CONTINUOUS
100
AcDbEllipse
 10
0.5112306420191786
 20
1.543143903631998
 30
0.0
 11
-0.078000000000003
 21
0.0
 31
0.0
210
0.0
220
0.0
230
1.0
 40
0.7071067811865476
 41
4.440008087960419
 42
10.12430460057093
1001
ACAD
1000
RTLwPs
1070
   128
  0
ELLIPSE
  5
156
100
AcDbEntity
  8
USP-GEO
  6
CONTINUOUS
100
AcDbEllipse
 10
0.5112306420191786
 20
1.543143903631998
 30
0.0
 11
-0.078000000000003
 21
0.0
 31
0.0
210
0.0
220
0.0
230
1.0
 40
0.7071067811865476
 41
0.0
 42
6.283185307179586
1001
ACAD
1000
RTLwPs
1070
   128
  0
ELLIPSE
  5
157
100
AcDbEntity
  8
USP-GEO
  6
CONTINUOUS
100
AcDbEllipse
 10
0.5112306420191786
 20
1.543143903631998
 30
0.0
 11
-0.078000000000003
 21
0.0
 31
0.0
210
0.0
220
0.0
230
1.0
 40
0.7071067811865476
 41
3.850412016277816
 42
9.728816885562498
1001
ACAD
1000
RTLwPs
1070
   128
  0
ELLIPSE
  5
158
100
AcDbEntity
  8
USP-GEO
  6
CONTINUOUS
100
AcDbEllipse
 10
0.5112306420191786
 20
1.543143903631998
 30
0.0
 11
-0.078000000000003
 21
0.0
 31
0.0
210
0.0
220
0.0
230
1.0
 40
0.7071067811865476
 41
2.494416659596927
 42
3.451053025923012
1001
ACAD
1000
RTLwPs
1070
   128
  0
ELLIPSE
  5
159
100
AcDbEntity
  8
USP-GEO
  6
CONTINUOUS
100
AcDbEllipse
 10
0.5112306420191786
 20
1.543143903631998
 30
0.0
 11
-0.078000000000003
 21
0.0
 31
0.0
210
0.0
220
0.0
230
1.0
 40
0.7071067811865476
 41
2.984934585313689
 42
2.987029186807988
1001
ACAD
1000
RTLwPs
1070
   128
  0
ARC
  5
15A
100
AcDbEntity
  8
USP-GEO
100
AcDbCircle
 10
0.3237306420191786
 20
1.336843152300472
 30
0.0
 40
0.25
100
AcDbArc
 50
36.29173910627429
 51
56.36390101679072
  0
LWPOLYLINE
  5
15B
100
AcDbEntity
  8
USP-GEO
100
AcDbPolyline
 90
        2
 70
   128
 43
0.0
 10
1.124366968589132
 20
0.8145679846906368
 10
1.004753461292416
 20
0.9341814919873527
  0
LWPOLYLINE
  5
15C
100
AcDbEntity
  8
USP-GEO
100
AcDbPolyline
 90
        2
 70
   128
 43
0.0
 10
1.22125390949947
 20
0.9102587905280081
 10
1.124366968589132
 20
0.8624133876093225
  0
LWPOLYLINE
  5
15D
100
AcDbEntity
  8
USP-GEO
100
AcDbPolyline
 90
        2
 70
   128
 43
0.0
 10
1.124366968589132
 20
0.8624133876093225
 10
1.052598864211102
 20
0.9102587905280081
  0
LWPOLYLINE
  5
15E
100
AcDbEntity
  8
USP-GEO
100
AcDbPolyline
 90
        2
 70
   128
 43
0.0
 10
1.004753461292416
 20
0.9581041934466973
 10
1.269099312418159
 20
0.9581041934466973
  0
TEXT
  5
15F
100
AcDbEntity
  8
USP-TXT
100
AcDbText
 10
-0.4364611684945983
 20
-0.7964505077824118
 30
0.0
 40
0.25
  1
TFL2314 - SIDE VIEW
 72
     1
 11
1.855205498172068
 21
-0.7964505077824118
 31
0.0
100
AcDbText
  0
ENDBLK
  5
161
100
AcDbEntity
  8
0
100
AcDbBlockEnd
  0
ENDSEC
  0
SECTION
  2
ENTITIES
  0
INSERT
  5
3
100
AcDbEntity
  8
USP
100
AcDbBlockReference
  2
TFL2314PR_T
 10
-0.0024237848308477
 20
20.30574495480732
 30
0.0
  0
INSERT
  5
9A
100
AcDbEntity
  8
USP
100
AcDbBlockReference
  2
TFL2314PR_F
 10
-0.0024237848308477
 20
1.795554700640483
 30
0.0
  0
INSERT
  5
114
100
AcDbEntity
  8
USP
100
AcDbBlockReference
  2
TFL2314PR_S
 10
9.333410459677853
 20
1.795554700640483
 30
0.0
  0
ENDSEC
  0
SECTION
  2
OBJECTS
  0
DICTIONARY
  5
179
100
AcDbDictionary
  3
ACAD_GROUP
350
177
  3
ACAD_MLINESTYLE
350
178
  0
DICTIONARY
  5
9
100
AcDbDictionary
280
     1
  3
ACAD_XREC_ROUNDTRIP
360
A
  0
DICTIONARY
  5
94
100
AcDbDictionary
280
     1
  3
ACAD_XREC_ROUNDTRIP
360
95
  0
DICTIONARY
  5
17C
100
AcDbDictionary
280
     1
  3
ACAD_XREC_ROUNDTRIP
360
17D
  0
DICTIONARY
  5
162
100
AcDbDictionary
280
     1
  3
ACAD_LAYOUTSELFREF
360
163
  0
DICTIONARY
  5
167
100
AcDbDictionary
280
     1
  3
ACAD_LAYOUTSELFREF
360
168
  0
DICTIONARY
  5
177
102
{ACAD_REACTORS
330
179
102
}
100
AcDbDictionary
  0
DICTIONARY
  5
178
102
{ACAD_REACTORS
330
179
102
}
100
AcDbDictionary
  3
STANDARD
350
17A
  0
XRECORD
  5
A
102
{ACAD_REACTORS
330
9
102
}
100
AcDbXrecord
102
EXTNAMES
  1
USP-GEO
  2
USP-Geo
  0
XRECORD
  5
95
102
{ACAD_REACTORS
330
94
102
}
100
AcDbXrecord
102
EXTNAMES
  1
USP-TXT
  2
USP-Txt
  0
XRECORD
  5
17D
102
{ACAD_REACTORS
330
17C
102
}
100
AcDbXrecord
102
ACADR14ROUNDTRIP
1000
DSTYLE
1002
{
1070
   276
 70
     2
1070
   277
 70
     5
1002
}
  0
XRECORD
  5
163
102
{ACAD_REACTORS
330
162
102
}
100
AcDbXrecord
340
2
  0
XRECORD
  5
168
102
{ACAD_REACTORS
330
167
102
}
100
AcDbXrecord
340
0
  0
MLINESTYLE
  5
17A
102
{ACAD_REACTORS
330
178
102
}
100
AcDbMlineStyle
  2
STANDARD
 70
     0
  3

 62
     0
 51
90.0
 52
90.0
 71
     2
 49
0.5
 62
   256
  6
BYLAYER
 49
-0.5
 62
   256
  6
BYLAYER
  0
ENDSEC
  0
EOF
