  0
SECTION
  2
HEADER
  9
$ACADVER
  1
AC1014
  9
$ACADMAINTVER
 70
     8
  9
$DWGCODEPAGE
  3
ANSI_1252
  9
$INSBASE
 10
0.0
 20
0.0
 30
0.0
  9
$EXTMIN
 10
0.0055672163271984
 20
0.00031171579454
 30
0.0
  9
$EXTMAX
 10
13.07758961542866
 20
20.46266391722218
 30
0.0
  9
$LIMMIN
 10
0.0
 20
0.0
  9
$LIMMAX
 10
12.0
 20
9.0
  9
$ORTHOMODE
 70
     0
  9
$REGENMODE
 70
     1
  9
$FILLMODE
 70
     1
  9
$QTEXTMODE
 70
     0
  9
$MIRRTEXT
 70
     0
  9
$DRAGMODE
 70
     2
  9
$LTSCALE
 40
1.5
  9
$OSMODE
 70
     0
  9
$ATTMODE
 70
     1
  9
$TEXTSIZE
 40
0.25
  9
$TRACEWID
 40
0.05
  9
$TEXTSTYLE
  7
STANDARD
  9
$CLAYER
  8
USP
  9
$CELTYPE
  6
BYLAYER
  9
$CECOLOR
 62
   256
  9
$CELTSCALE
 40
1.0
  9
$DELOBJ
 70
     1
  9
$DISPSILH
 70
     1
  9
$DIMSCALE
 40
5.0
  9
$DIMASZ
 40
0.125
  9
$DIMEXO
 40
0.0625
  9
$DIMDLI
 40
0.38
  9
$DIMRND
 40
0.0
  9
$DIMDLE
 40
0.0
  9
$DIMEXE
 40
0.09375
  9
$DIMTP
 40
0.0
  9
$DIMTM
 40
0.0
  9
$DIMTXT
 40
0.109375
  9
$DIMCEN
 40
0.0
  9
$DIMTSZ
 40
0.0
  9
$DIMTOL
 70
     0
  9
$DIMLIM
 70
     0
  9
$DIMTIH
 70
     1
  9
$DIMTOH
 70
     1
  9
$DIMSE1
 70
     0
  9
$DIMSE2
 70
     0
  9
$DIMTAD
 70
     0
  9
$DIMZIN
 70
     8
  9
$DIMBLK
  1

  9
$DIMASO
 70
     1
  9
$DIMSHO
 70
     1
  9
$DIMPOST
  1

  9
$DIMAPOST
  1

  9
$DIMALT
 70
     0
  9
$DIMALTD
 70
     2
  9
$DIMALTF
 40
25.4
  9
$DIMLFAC
 40
1.0
  9
$DIMTOFL
 70
     0
  9
$DIMTVP
 40
0.0
  9
$DIMTIX
 70
     0
  9
$DIMSOXD
 70
     0
  9
$DIMSAH
 70
     0
  9
$DIMBLK1
  1

  9
$DIMBLK2
  1

  9
$DIMSTYLE
  2
STANDARD
  9
$DIMCLRD
 70
   256
  9
$DIMCLRE
 70
   256
  9
$DIMCLRT
 70
   256
  9
$DIMTFAC
 40
1.0
  9
$DIMGAP
 40
0.09
  9
$DIMJUST
 70
     0
  9
$DIMSD1
 70
     0
  9
$DIMSD2
 70
     0
  9
$DIMTOLJ
 70
     1
  9
$DIMTZIN
 70
     0
  9
$DIMALTZ
 70
     0
  9
$DIMALTTZ
 70
     0
  9
$DIMFIT
 70
     3
  9
$DIMUPT
 70
     1
  9
$DIMUNIT
 70
     7
  9
$DIMDEC
 70
     4
  9
$DIMTDEC
 70
     4
  9
$DIMALTU
 70
     2
  9
$DIMALTTD
 70
     2
  9
$DIMTXSTY
  7
STANDARD
  9
$DIMAUNIT
 70
     0
  9
$LUNITS
 70
     5
  9
$LUPREC
 70
     6
  9
$SKETCHINC
 40
0.1
  9
$FILLETRAD
 40
0.0
  9
$AUNITS
 70
     0
  9
$AUPREC
 70
     1
  9
$MENU
  1
CUSTOM
  9
$ELEVATION
 40
0.0
  9
$PELEVATION
 40
0.0
  9
$THICKNESS
 40
0.0
  9
$LIMCHECK
 70
     0
  9
$BLIPMODE
 70
     0
  9
$CHAMFERA
 40
0.0
  9
$CHAMFERB
 40
0.0
  9
$CHAMFERC
 40
0.0
  9
$CHAMFERD
 40
0.0
  9
$SKPOLY
 70
     0
  9
$TDCREATE
 40
2451263.621564698
  9
$TDUPDATE
 40
2453026.004119826
  9
$TDINDWG
 40
1.0212646759
  9
$TDUSRTIMER
 40
1.0212646759
  9
$USRTIMER
 70
     1
  9
$ANGBASE
 50
0.0
  9
$ANGDIR
 70
     0
  9
$PDMODE
 70
     0
  9
$PDSIZE
 40
0.0
  9
$PLINEWID
 40
0.0
  9
$COORDS
 70
     2
  9
$SPLFRAME
 70
     0
  9
$SPLINETYPE
 70
     6
  9
$SPLINESEGS
 70
     8
  9
$ATTDIA
 70
     0
  9
$ATTREQ
 70
     0
  9
$HANDLING
 70
     1
  9
$HANDSEED
  5
17C
  9
$SURFTAB1
 70
     6
  9
$SURFTAB2
 70
     6
  9
$SURFTYPE
 70
     6
  9
$SURFU
 70
     6
  9
$SURFV
 70
     6
  9
$UCSNAME
  2

  9
$UCSORG
 10
0.0
 20
0.0
 30
0.0
  9
$UCSXDIR
 10
1.0
 20
0.0
 30
0.0
  9
$UCSYDIR
 10
0.0
 20
1.0
 30
0.0
  9
$PUCSNAME
  2

  9
$PUCSORG
 10
0.0
 20
0.0
 30
0.0
  9
$PUCSXDIR
 10
1.0
 20
0.0
 30
0.0
  9
$PUCSYDIR
 10
0.0
 20
1.0
 30
0.0
  9
$USERI1
 70
     0
  9
$USERI2
 70
     0
  9
$USERI3
 70
     0
  9
$USERI4
 70
     0
  9
$USERI5
 70
     0
  9
$USERR1
 40
0.0
  9
$USERR2
 40
0.0
  9
$USERR3
 40
0.0
  9
$USERR4
 40
0.0
  9
$USERR5
 40
0.0
  9
$WORLDVIEW
 70
     1
  9
$SHADEDGE
 70
     3
  9
$SHADEDIF
 70
    70
  9
$TILEMODE
 70
     1
  9
$MAXACTVP
 70
    16
  9
$PINSBASE
 10
0.0
 20
0.0
 30
0.0
  9
$PLIMCHECK
 70
     0
  9
$PEXTMIN
 10
1.000000000000000E+20
 20
1.000000000000000E+20
 30
1.000000000000000E+20
  9
$PEXTMAX
 10
-1.000000000000000E+20
 20
-1.000000000000000E+20
 30
-1.000000000000000E+20
  9
$PLIMMIN
 10
0.0
 20
0.0
  9
$PLIMMAX
 10
12.0
 20
9.0
  9
$UNITMODE
 70
     0
  9
$VISRETAIN
 70
     0
  9
$PLINEGEN
 70
     0
  9
$PSLTSCALE
 70
     0
  9
$TREEDEPTH
 70
  3020
  9
$PICKSTYLE
 70
     1
  9
$CMLSTYLE
  2
STANDARD
  9
$CMLJUST
 70
     0
  9
$CMLSCALE
 40
1.0
  9
$PROXYGRAPHICS
 70
     1
  9
$MEASUREMENT
 70
     0
  0
ENDSEC
  0
SECTION
  2
CLASSES
  0
CLASS
  1
ACDBDICTIONARYWDFLT
  2
AcDbDictionaryWithDefault
  3
AutoCAD 2000
 90
        0
280
     0
281
     0
  0
CLASS
  1
ACDBPLACEHOLDER
  2
AcDbPlaceHolder
  3
AutoCAD 2000
 90
        0
280
     0
281
     0
  0
CLASS
  1
LAYOUT
  2
AcDbLayout
  3
AutoCAD 2000
 90
        0
280
     0
281
     0
  0
CLASS
  1
DICTIONARYVAR
  2
AcDbDictionaryVar
  3
"AutoCAD"
 90
        0
280
     0
281
     0
  0
CLASS
  1
SORTENTSTABLE
  2
AcDbSortentsTable
  3
"AutoCAD"
 90
        0
280
     0
281
     0
  0
CLASS
  1
LONG_TRANSACTION
  2
AcDbLongTransaction
  3
AutoCAD 2000
 90
        0
280
     0
281
     0
  0
CLASS
  1
LWPOLYLINE
  2
AcDbPolyline
  3
"AutoCAD"
 90
        0
280
     0
281
     1
  0
CLASS
  1
HATCH
  2
AcDbHatch
  3
"ACAD_SEDONA"
 90
        0
280
     0
281
     1
  0
CLASS
  1
XRECORD
  2
AcDbXrecord
  3
"<Built In>"
 90
        0
280
     0
281
     0
  0
CLASS
  1
LONG_TRANSACTION
  2
AcDbLongTransaction
  3
AutoCAD 2000
 90
        0
280
     0
281
     0
  0
CLASS
  1
LWPOLYLINE
  2
AcDbPolyline
  3
"AutoCAD"
 90
        0
280
     0
281
     1
  0
CLASS
  1
HATCH
  2
AcDbHatch
  3
"ACAD_SEDONA"
 90
        0
280
     0
281
     1
  0
CLASS
  1
XRECORD
  2
AcDbXrecord
  3
"<Built In>"
 90
        0
280
     0
281
     0
  0
CLASS
  1
LONG_TRANSACTION
  2
AcDbLongTransaction
  3
AutoCAD 2000
 90
        0
280
     0
281
     0
  0
CLASS
  1
LWPOLYLINE
  2
AcDbPolyline
  3
"AutoCAD"
 90
        0
280
     0
281
     1
  0
CLASS
  1
HATCH
  2
AcDbHatch
  3
"ACAD_SEDONA"
 90
        0
280
     0
281
     1
  0
CLASS
  1
XRECORD
  2
AcDbXrecord
  3
"<Built In>"
 90
        0
280
     0
281
     0
  0
CLASS
  1
LONG_TRANSACTION
  2
AcDbLongTransaction
  3
AutoCAD 2000
 90
        0
280
     0
281
     0
  0
CLASS
  1
LWPOLYLINE
  2
AcDbPolyline
  3
"AutoCAD"
 90
        0
280
     0
281
     1
  0
CLASS
  1
HATCH
  2
AcDbHatch
  3
"ACAD_SEDONA"
 90
        0
280
     0
281
     1
  0
CLASS
  1
XRECORD
  2
AcDbXrecord
  3
"<Built In>"
 90
        0
280
     0
281
     0
  0
CLASS
  1
LONG_TRANSACTION
  2
AcDbLongTransaction
  3
AutoCAD 2000
 90
        0
280
     0
281
     0
  0
CLASS
  1
LWPOLYLINE
  2
AcDbPolyline
  3
"AutoCAD"
 90
        0
280
     0
281
     1
  0
CLASS
  1
HATCH
  2
AcDbHatch
  3
"ACAD_SEDONA"
 90
        0
280
     0
281
     1
  0
CLASS
  1
XRECORD
  2
AcDbXrecord
  3
"<Built In>"
 90
        0
280
     0
281
     0
  0
ENDSEC
  0
SECTION
  2
TABLES
  0
TABLE
  2
VPORT
  5
16D
100
AcDbSymbolTable
 70
     1
  0
VPORT
  5
16E
100
AcDbSymbolTableRecord
100
AcDbViewportTableRecord
  2
*ACTIVE
 70
     0
 10
0.0
 20
0.0
 11
1.0
 21
1.0
 12
2.587312732674764
 22
13.17460228692906
 13
0.0
 23
0.0
 14
1.0
 24
1.0
 15
0.0
 25
0.0
 16
0.0
 26
0.0
 36
1.0
 17
6.27669467478304
 27
-0.1673499596125048
 37
-0.9718116431106214
 40
26.14647071881149
 41
1.379227053140096
 42
50.0
 43
0.0
 44
0.0
 50
0.0
 51
0.0
 71
     0
 72
   100
 73
     1
 74
     1
 75
     0
 76
     0
 77
     0
 78
     0
  0
ENDTAB
  0
TABLE
  2
LTYPE
  5
168
100
AcDbSymbolTable
 70
     1
  0
LTYPE
  5
169
100
AcDbSymbolTableRecord
100
AcDbLinetypeTableRecord
  2
BYBLOCK
 70
     0
  3

 72
    65
 73
     0
 40
0.0
  0
LTYPE
  5
16A
100
AcDbSymbolTableRecord
100
AcDbLinetypeTableRecord
  2
BYLAYER
 70
     0
  3

 72
    65
 73
     0
 40
0.0
  0
LTYPE
  5
5
100
AcDbSymbolTableRecord
100
AcDbLinetypeTableRecord
  2
CONTINUOUS
 70
     0
  3
Solid line
 72
    65
 73
     0
 40
0.0
  0
ENDTAB
  0
TABLE
  2
LAYER
  5
166
100
AcDbSymbolTable
 70
     4
  0
LAYER
  5
92
100
AcDbSymbolTableRecord
100
AcDbLayerTableRecord
  2
0
 70
     0
 62
     7
  6
CONTINUOUS
  0
LAYER
  5
8
102
{ACAD_XDICTIONARY
360
9
102
}
100
AcDbSymbolTableRecord
100
AcDbLayerTableRecord
  2
USP-GEO
 70
     0
 62
     7
  6
CONTINUOUS
  0
LAYER
  5
8D
102
{ACAD_XDICTIONARY
360
8E
102
}
100
AcDbSymbolTableRecord
100
AcDbLayerTableRecord
  2
USP-TXT
 70
     0
 62
     7
  6
CONTINUOUS
  0
LAYER
  5
4
100
AcDbSymbolTableRecord
100
AcDbLayerTableRecord
  2
USP
 70
     0
 62
     7
  6
CONTINUOUS
  0
ENDTAB
  0
TABLE
  2
STYLE
  5
167
100
AcDbSymbolTable
 70
     1
  0
STYLE
  5
90
100
AcDbSymbolTableRecord
100
AcDbTextStyleTableRecord
  2
STANDARD
 70
     0
 40
0.0
 41
1.0
 50
0.0
 71
     0
 42
0.25
  3
txt
  4

  0
ENDTAB
  0
TABLE
  2
VIEW
  5
16B
100
AcDbSymbolTable
 70
     0
  0
ENDTAB
  0
TABLE
  2
UCS
  5
16C
100
AcDbSymbolTable
 70
     0
  0
ENDTAB
  0
TABLE
  2
APPID
  5
16F
100
AcDbSymbolTable
 70
     1
  0
APPID
  5
32
100
AcDbSymbolTableRecord
100
AcDbRegAppTableRecord
  2
ACAD
 70
     0
  0
ENDTAB
  0
TABLE
  2
DIMSTYLE
  5
170
100
AcDbSymbolTable
 70
     1
  0
DIMSTYLE
105
176
102
{ACAD_XDICTIONARY
360
177
102
}
100
AcDbSymbolTableRecord
100
AcDbDimStyleTableRecord
  2
STANDARD
 70
     0
  3

  4

  5

  6

  7

 40
1.0
 41
0.125
 42
0.0625
 43
0.38
 44
0.09375
 45
0.0
 46
0.0
 47
0.0
 48
0.0
140
0.109375
141
0.0
142
0.0
143
25.4
144
1.0
145
0.0
146
1.0
147
0.09
 71
     0
 72
     0
 73
     1
 74
     1
 75
     0
 76
     0
 77
     0
 78
     8
170
     0
171
     2
172
     0
173
     0
174
     0
175
     0
176
     0
177
     0
178
     0
270
     7
271
     4
272
     4
273
     2
274
     2
340
90
275
     0
280
     0
281
     0
282
     0
283
     1
284
     0
285
     0
286
     0
287
     3
288
     0
  0
ENDTAB
  0
TABLE
  2
BLOCK_RECORD
  5
1
100
AcDbSymbolTable
 70
     3
  0
BLOCK_RECORD
  5
2
102
{ACAD_XDICTIONARY
360
15D
102
}
100
AcDbSymbolTableRecord
100
AcDbBlockTableRecord
  2
*MODEL_SPACE
  0
BLOCK_RECORD
  5
161
102
{ACAD_XDICTIONARY
360
162
102
}
100
AcDbSymbolTableRecord
100
AcDbBlockTableRecord
  2
*PAPER_SPACE
  0
BLOCK_RECORD
  5
6
100
AcDbSymbolTableRecord
100
AcDbBlockTableRecord
  2
TFL23118PR_T
  0
BLOCK_RECORD
  5
95
100
AcDbSymbolTableRecord
100
AcDbBlockTableRecord
  2
TFL23118PR_F
  0
BLOCK_RECORD
  5
110
100
AcDbSymbolTableRecord
100
AcDbBlockTableRecord
  2
TFL23118PR_S
  0
ENDTAB
  0
ENDSEC
  0
SECTION
  2
BLOCKS
  0
BLOCK
  5
15F
100
AcDbEntity
  8
0
100
AcDbBlockBegin
  2
*MODEL_SPACE
 70
     0
 10
0.0
 20
0.0
 30
0.0
  3
*MODEL_SPACE
  1

  0
ENDBLK
  5
160
100
AcDbEntity
  8
0
100
AcDbBlockEnd
  0
BLOCK
  5
164
100
AcDbEntity
 67
     1
  8
0
100
AcDbBlockBegin
  2
*PAPER_SPACE
 70
     0
 10
0.0
 20
0.0
 30
0.0
  3
*PAPER_SPACE
  1

  0
ENDBLK
  5
165
100
AcDbEntity
 67
     1
  8
0
100
AcDbBlockEnd
  0
BLOCK
  5
91
100
AcDbEntity
  8
0
100
AcDbBlockBegin
  2
TFL23118PR_T
 70
     0
 10
0.0
 20
0.0
 30
0.0
  3
TFL23118PR_T
  1

  0
LWPOLYLINE
  5
7
100
AcDbEntity
  8
USP-GEO
100
AcDbPolyline
 90
        2
 70
   128
 43
0.0
 10
6.363267285966882
 20
2.203296584282576
 10
4.465701032528327
 20
2.203296584282576
  0
LWPOLYLINE
  5
B
100
AcDbEntity
  8
USP-GEO
100
AcDbPolyline
 90
        2
 70
   128
 43
0.0
 10
1.89654715233574
 20
2.203296584282576
 10
0.0
 20
2.203296584282576
  0
LWPOLYLINE
  5
C
100
AcDbEntity
  8
USP-GEO
100
AcDbPolyline
 90
        2
 70
   128
 43
0.0
 10
4.384172944303255
 20
2.142150518113773
 10
4.465701032528327
 20
2.142150518113773
  0
LWPOLYLINE
  5
D
100
AcDbEntity
  8
USP-GEO
100
AcDbPolyline
 90
        2
 70
   128
 43
0.0
 10
4.384172944303255
 20
2.203296584282576
 10
4.384172944303255
 20
2.142150518113773
  0
LWPOLYLINE
  5
E
100
AcDbEntity
  8
USP-GEO
100
AcDbPolyline
 90
        2
 70
   128
 43
0.0
 10
4.34340890019072
 20
0.2649662867314859
 10
4.384172944303255
 20
0.2649662867314859
  0
LWPOLYLINE
  5
F
100
AcDbEntity
  8
USP-GEO
100
AcDbPolyline
 90
        2
 70
   128
 43
0.0
 10
4.34340890019072
 20
0.8968089704757957
 10
4.384172944303255
 20
0.8968089704757957
  0
LWPOLYLINE
  5
10
100
AcDbEntity
  8
USP-GEO
100
AcDbPolyline
 90
        2
 70
   128
 43
0.0
 10
4.34340890019072
 20
2.142150518113773
 10
4.384172944303255
 20
2.142150518113773
  0
LWPOLYLINE
  5
11
100
AcDbEntity
  8
USP-GEO
100
AcDbPolyline
 90
        2
 70
   128
 43
0.0
 10
2.018839284673349
 20
0.8968089704757957
 10
1.978075240560812
 20
0.8968089704757957
  0
LWPOLYLINE
  5
12
100
AcDbEntity
  8
USP-GEO
100
AcDbPolyline
 90
        2
 70
   128
 43
0.0
 10
2.018839284673349
 20
0.2649662867314859
 10
1.978075240560812
 20
0.2649662867314859
  0
LWPOLYLINE
  5
13
100
AcDbEntity
  8
USP-GEO
100
AcDbPolyline
 90
        2
 70
   128
 43
0.0
 10
2.018839284673349
 20
0.0
 10
1.978075240560812
 20
0.0
  0
LWPOLYLINE
  5
14
100
AcDbEntity
  8
USP-GEO
100
AcDbPolyline
 90
        2
 70
   128
 43
0.0
 10
4.34340890019072
 20
0.0
 10
4.384172944303255
 20
0.0
  0
LWPOLYLINE
  5
15
100
AcDbEntity
  8
USP-GEO
100
AcDbPolyline
 90
        2
 70
   128
 43
0.0
 10
2.059603328785884
 20
0.0
 10
2.018839284673349
 20
0.0
  0
LWPOLYLINE
  5
16
100
AcDbEntity
  8
USP-GEO
100
AcDbPolyline
 90
        2
 70
   128
 43
0.0
 10
2.018839284673349
 20
1.998457262617083
 10
2.059603328785884
 20
1.998457262617083
  0
LWPOLYLINE
  5
17
100
AcDbEntity
  8
USP-GEO
100
AcDbPolyline
 90
        2
 70
   128
 43
0.0
 10
2.059603328785884
 20
0.0
 10
4.302644856078183
 20
0.0
  0
LWPOLYLINE
  5
18
100
AcDbEntity
  8
USP-GEO
100
AcDbPolyline
 90
        2
 70
   128
 43
0.0
 10
4.302644856078183
 20
1.998457262617083
 10
2.059603328785884
 20
1.998457262617083
  0
LWPOLYLINE
  5
19
100
AcDbEntity
  8
USP-GEO
100
AcDbPolyline
 90
        2
 70
   128
 43
0.0
 10
2.671063990473927
 20
0.3668763970128275
 10
2.793356122811534
 20
0.5095505514067043
  0
LWPOLYLINE
  5
1A
100
AcDbEntity
  8
USP-GEO
100
AcDbPolyline
 90
        2
 70
   128
 43
0.0
 10
2.793356122811534
 20
0.2445842646752183
 10
2.671063990473927
 20
0.3668763970128275
  0
LWPOLYLINE
  5
1B
100
AcDbEntity
  8
USP-GEO
100
AcDbPolyline
 90
        2
 70
   128
 43
0.0
 10
2.937049378308225
 20
0.3668763970128275
 10
2.793356122811534
 20
0.2445842646752183
  0
LWPOLYLINE
  5
1C
100
AcDbEntity
  8
USP-GEO
100
AcDbPolyline
 90
        2
 70
   128
 43
0.0
 10
2.793356122811534
 20
0.5095505514067043
 10
2.937049378308225
 20
0.3668763970128275
  0
LWPOLYLINE
  5
1D
100
AcDbEntity
  8
USP-GEO
100
AcDbPolyline
 90
        2
 70
   128
 43
0.0
 10
3.548510039996266
 20
0.5095505514067043
 10
3.670802172333875
 20
0.3668763970128275
  0
LWPOLYLINE
  5
1E
100
AcDbEntity
  8
USP-GEO
100
AcDbPolyline
 90
        2
 70
   128
 43
0.0
 10
3.426217907658658
 20
0.3668763970128275
 10
3.548510039996266
 20
0.5095505514067043
  0
LWPOLYLINE
  5
1F
100
AcDbEntity
  8
USP-GEO
100
AcDbPolyline
 90
        2
 70
   128
 43
0.0
 10
3.548510039996266
 20
0.2445842646752183
 10
3.426217907658658
 20
0.3668763970128275
  0
LWPOLYLINE
  5
20
100
AcDbEntity
  8
USP-GEO
100
AcDbPolyline
 90
        2
 70
   128
 43
0.0
 10
3.670802172333875
 20
0.3668763970128275
 10
3.548510039996266
 20
0.2445842646752183
  0
LWPOLYLINE
  5
21
100
AcDbEntity
  8
USP-GEO
100
AcDbPolyline
 90
        2
 70
   128
 43
0.0
 10
4.34340890019072
 20
0.0
 10
4.302644856078183
 20
0.0
  0
LWPOLYLINE
  5
22
100
AcDbEntity
  8
USP-GEO
100
AcDbPolyline
 90
        2
 70
   128
 43
0.0
 10
4.302644856078183
 20
1.998457262617083
 10
4.34340890019072
 20
1.998457262617083
  0
LWPOLYLINE
  5
23
100
AcDbEntity
  8
USP-GEO
100
AcDbPolyline
 90
        2
 70
   128
 43
0.0
 10
0.0
 20
3.712585317549226
 10
0.0
 20
2.244060628395114
  0
CIRCLE
  5
24
100
AcDbEntity
  8
USP-GEO
100
AcDbCircle
 10
1.600404031560147
 20
3.392564559675605
 30
0.0
 40
0.09
  0
CIRCLE
  5
25
100
AcDbEntity
  8
USP-GEO
100
AcDbCircle
 10
0.2004040315601419
 20
3.192564559675616
 30
0.0
 40
0.09
  0
LWPOLYLINE
  5
26
100
AcDbEntity
  8
USP-GEO
100
AcDbPolyline
 90
        2
 70
   128
 43
0.0
 10
0.0
 20
3.712585317549226
 10
1.89654715233574
 20
3.712585317549226
  0
LWPOLYLINE
  5
27
100
AcDbEntity
  8
USP-GEO
100
AcDbPolyline
 90
        2
 70
   128
 43
0.0
 10
4.384172944303255
 20
0.1222921323376092
 10
4.384172944303255
 20
0.0
  0
LWPOLYLINE
  5
28
100
AcDbEntity
  8
USP-GEO
100
AcDbPolyline
 90
        2
 70
   128
 43
0.0
 10
4.384172944303255
 20
0.1426741543938768
 10
4.384172944303255
 20
0.1222921323376092
  0
LWPOLYLINE
  5
29
100
AcDbEntity
  8
USP-GEO
100
AcDbPolyline
 90
        2
 70
   128
 43
0.0
 10
4.384172944303255
 20
0.1426741543938768
 10
4.384172944303255
 20
0.2649662867314859
  0
LWPOLYLINE
  5
2A
100
AcDbEntity
  8
USP-GEO
100
AcDbPolyline
 90
        2
 70
   128
 43
0.0
 10
4.384172944303255
 20
0.2649662867314859
 10
4.384172944303255
 20
0.8764269484195281
  0
LWPOLYLINE
  5
2B
100
AcDbEntity
  8
USP-GEO
100
AcDbPolyline
 90
        2
 70
   128
 43
0.0
 10
4.384172944303255
 20
0.8764269484195281
 10
4.384172944303255
 20
0.8968089704757957
  0
LWPOLYLINE
  5
2C
100
AcDbEntity
  8
USP-GEO
100
AcDbPolyline
 90
        2
 70
   128
 43
0.0
 10
4.384172944303255
 20
1.019101102813404
 10
4.384172944303255
 20
0.8968089704757957
  0
LWPOLYLINE
  5
2D
100
AcDbEntity
  8
USP-GEO
100
AcDbPolyline
 90
        2
 70
   128
 43
0.0
 10
4.384172944303255
 20
1.019101102813404
 10
4.384172944303255
 20
1.916929174392009
  0
LWPOLYLINE
  5
2E
100
AcDbEntity
  8
USP-GEO
100
AcDbPolyline
 90
        2
 70
   128
 43
0.0
 10
4.384172944303255
 20
2.120749394954692
 10
4.384172944303255
 20
1.916929174392009
  0
LWPOLYLINE
  5
2F
100
AcDbEntity
  8
USP-GEO
100
AcDbPolyline
 90
        2
 70
   128
 43
0.0
 10
4.384172944303255
 20
2.120749394954692
 10
4.385192045406069
 20
2.120749394954692
  0
LWPOLYLINE
  5
30
100
AcDbEntity
  8
USP-GEO
100
AcDbPolyline
 90
        2
 70
   128
 43
0.0
 10
4.384172944303255
 20
2.120749394954692
 10
4.424936988415792
 20
2.142150518113773
  0
ELLIPSE
  5
31
100
AcDbEntity
  8
USP-GEO
  6
CONTINUOUS
100
AcDbEllipse
 10
4.503923005344065
 20
0.4951000237035146
 30
0.0
 11
0.0000000000000015
 21
-0.078000000000003
 31
0.0
210
0.0
220
0.0
230
1.0
 40
0.7071067811865475
 41
0.9193749481628559
 42
6.750665987529804
1001
ACAD
1000
RTLwPs
1070
   128
  0
ELLIPSE
  5
33
100
AcDbEntity
  8
USP-GEO
  6
CONTINUOUS
100
AcDbEllipse
 10
4.503923005344065
 20
0.4951000237035146
 30
0.0
 11
0.0000000000000015
 21
-0.078000000000003
 31
0.0
210
0.0
220
0.0
230
1.0
 40
0.7071067811865475
 41
2.720474606594701
 42
8.576099199217175
1001
ACAD
1000
RTLwPs
1070
   128
  0
ELLIPSE
  5
34
100
AcDbEntity
  8
USP-GEO
  6
CONTINUOUS
100
AcDbEllipse
 10
4.503923005344065
 20
0.4951000237035146
 30
0.0
 11
0.0000000000000015
 21
-0.078000000000003
 31
0.0
210
0.0
220
0.0
230
1.0
 40
0.7071067811865475
 41
2.304466737825629
 42
8.371105821266478
1001
ACAD
1000
RTLwPs
1070
   128
  0
ELLIPSE
  5
35
100
AcDbEntity
  8
USP-GEO
  6
CONTINUOUS
100
AcDbEllipse
 10
4.503923005344065
 20
0.4951000237035146
 30
0.0
 11
0.0000000000000015
 21
-0.078000000000003
 31
0.0
210
0.0
220
0.0
230
1.0
 40
0.7071067811865475
 41
2.077984677249976
 42
7.213739782392056
1001
ACAD
1000
RTLwPs
1070
   128
  0
ELLIPSE
  5
36
100
AcDbEntity
  8
USP-GEO
  6
CONTINUOUS
100
AcDbEllipse
 10
4.542271382473971
 20
0.4951000237035146
 30
0.0
 11
0.0000000000000011
 21
-0.078000000000003
 31
0.0
210
0.0
220
0.0
230
1.0
 40
0.7071067811865475
 41
3.718514014668524
 42
5.988329982300522
1001
ACAD
1000
RTLwPs
1070
   128
  0
ELLIPSE
  5
37
100
AcDbEntity
  8
USP-GEO
  6
CONTINUOUS
100
AcDbEllipse
 10
4.542271382473971
 20
0.4951000237035146
 30
0.0
 11
0.0000000000000011
 21
-0.078000000000003
 31
0.0
210
0.0
220
0.0
230
1.0
 40
0.7071067811865475
 41
3.731790250220592
 42
9.688007957193104
1001
ACAD
1000
RTLwPs
1070
   128
  0
ELLIPSE
  5
38
100
AcDbEntity
  8
USP-GEO
  6
CONTINUOUS
100
AcDbEllipse
 10
4.542271382473971
 20
0.4951000237035146
 30
0.0
 11
0.0000000000000011
 21
-0.078000000000003
 31
0.0
210
0.0
220
0.0
230
1.0
 40
0.7071067811865475
 41
5.968777802208322
 42
6.408535870766314
1001
ACAD
1000
RTLwPs
1070
   128
  0
ELLIPSE
  5
39
100
AcDbEntity
  8
USP-GEO
  6
CONTINUOUS
100
AcDbEllipse
 10
4.542271382473971
 20
0.4951000237035146
 30
0.0
 11
0.0000000000000011
 21
-0.078000000000003
 31
0.0
210
0.0
220
0.0
230
1.0
 40
0.7071067811865475
 41
3.422510017069679
 42
9.31342948413183
1001
ACAD
1000
RTLwPs
1070
   128
  0
ELLIPSE
  5
3A
100
AcDbEntity
  8
USP-GEO
  6
CONTINUOUS
100
AcDbEllipse
 10
4.542271382473971
 20
0.4951000237035146
 30
0.0
 11
0.0000000000000011
 21
-0.078000000000003
 31
0.0
210
0.0
220
0.0
230
1.0
 40
0.7071067811865475
 41
0.1041470900247879
 42
0.5072323274966636
1001
ACAD
1000
RTLwPs
1070
   128
  0
ELLIPSE
  5
3B
100
AcDbEntity
  8
USP-GEO
  6
CONTINUOUS
100
AcDbEllipse
 10
4.542271382473971
 20
0.4951000237035146
 30
0.0
 11
0.0000000000000011
 21
-0.078000000000003
 31
0.0
210
0.0
220
0.0
230
1.0
 40
0.7071067811865475
 41
3.049110968205861
 42
8.966661540838654
1001
ACAD
1000
RTLwPs
1070
   128
  0
ELLIPSE
  5
3C
100
AcDbEntity
  8
USP-GEO
  6
CONTINUOUS
100
AcDbEllipse
 10
4.542271382473971
 20
0.4951000237035146
 30
0.0
 11
0.0000000000000011
 21
-0.078000000000003
 31
0.0
210
0.0
220
0.0
230
1.0
 40
0.7071067811865475
 41
0.9557740926817618
 42
6.773851924249796
1001
ACAD
1000
RTLwPs
1070
   128
  0
ELLIPSE
  5
3D
100
AcDbEntity
  8
USP-GEO
  6
CONTINUOUS
100
AcDbEllipse
 10
4.542271382473971
 20
0.4951000237035146
 30
0.0
 11
0.0000000000000011
 21
-0.078000000000003
 31
0.0
210
0.0
220
0.0
230
1.0
 40
0.7071067811865475
 41
2.698927629906737
 42
8.549878664672622
1001
ACAD
1000
RTLwPs
1070
   128
  0
ELLIPSE
  5
3E
100
AcDbEntity
  8
USP-GEO
  6
CONTINUOUS
100
AcDbEllipse
 10
4.542271382473971
 20
0.4951000237035146
 30
0.0
 11
0.0000000000000011
 21
-0.078000000000003
 31
0.0
210
0.0
220
0.0
230
1.0
 40
0.7071067811865475
 41
2.256102359438759
 42
7.249086551154615
1001
ACAD
1000
RTLwPs
1070
   128
  0
ELLIPSE
  5
3F
100
AcDbEntity
  8
USP-GEO
  6
CONTINUOUS
100
AcDbEllipse
 10
1.8555182569406
 20
0.3076000237035146
 30
0.0
 11
-0.0000000000000015
 21
-0.078000000000003
 31
0.0
210
0.0
220
0.0
230
1.0
 40
0.7071067811865475
 41
4.281720675334424
 42
4.96941818717677
1001
ACAD
1000
RTLwPs
1070
   128
  0
ELLIPSE
  5
40
100
AcDbEntity
  8
USP-GEO
  6
CONTINUOUS
100
AcDbEllipse
 10
1.8555182569406
 20
0.3076000237035146
 30
0.0
 11
-0.0000000000000015
 21
-0.078000000000003
 31
0.0
210
0.0
220
0.0
230
1.0
 40
0.7071067811865475
 41
4.288089290935852
 42
10.19300191919495
1001
ACAD
1000
RTLwPs
1070
   128
  0
ELLIPSE
  5
41
100
AcDbEntity
  8
USP-GEO
  6
CONTINUOUS
100
AcDbEllipse
 10
1.8555182569406
 20
0.3076000237035146
 30
0.0
 11
-0.0000000000000015
 21
-0.078000000000003
 31
0.0
210
0.0
220
0.0
230
1.0
 40
0.7071067811865475
 41
4.965298301562338
 42
5.364531126076844
1001
ACAD
1000
RTLwPs
1070
   128
  0
ELLIPSE
  5
42
100
AcDbEntity
  8
USP-GEO
  6
CONTINUOUS
100
AcDbEllipse
 10
1.8555182569406
 20
0.3076000237035146
 30
0.0
 11
-0.0000000000000015
 21
-0.078000000000003
 31
0.0
210
0.0
220
0.0
230
1.0
 40
0.7071067811865475
 41
5.352280642265432
 42
5.878266771339339
1001
ACAD
1000
RTLwPs
1070
   128
  0
ELLIPSE
  5
43
100
AcDbEntity
  8
USP-GEO
  6
CONTINUOUS
100
AcDbEllipse
 10
1.8555182569406
 20
0.3076000237035146
 30
0.0
 11
-0.0000000000000015
 21
-0.078000000000003
 31
0.0
210
0.0
220
0.0
230
1.0
 40
0.7071067811865475
 41
3.468485774232362
 42
3.897088322053397
1001
ACAD
1000
RTLwPs
1070
   128
  0
ELLIPSE
  5
44
100
AcDbEntity
  8
USP-GEO
  6
CONTINUOUS
100
AcDbEllipse
 10
1.817169879810693
 20
0.3076000237035146
 30
0.0
 11
-0.0000000000000011
 21
-0.078000000000003
 31
0.0
210
0.0
220
0.0
230
1.0
 40
0.7071067811865475
 41
3.926764510919934
 42
5.336123647019707
1001
ACAD
1000
RTLwPs
1070
   128
  0
ELLIPSE
  5
45
100
AcDbEntity
  8
USP-GEO
  6
CONTINUOUS
100
AcDbEllipse
 10
1.817169879810693
 20
0.3076000237035146
 30
0.0
 11
-0.0000000000000011
 21
-0.078000000000003
 31
0.0
210
0.0
220
0.0
230
1.0
 40
0.7071067811865475
 41
5.324773906499456
 42
5.833379142368828
1001
ACAD
1000
RTLwPs
1070
   128
  0
ELLIPSE
  5
46
100
AcDbEntity
  8
USP-GEO
  6
CONTINUOUS
100
AcDbEllipse
 10
1.817169879810693
 20
0.3076000237035146
 30
0.0
 11
-0.0000000000000011
 21
-0.078000000000003
 31
0.0
210
0.0
220
0.0
230
1.0
 40
0.7071067811865475
 41
3.506436966002135
 42
3.938780193781866
1001
ACAD
1000
RTLwPs
1070
   128
  0
ELLIPSE
  5
47
100
AcDbEntity
  8
USP-GEO
  6
CONTINUOUS
100
AcDbEllipse
 10
1.817169879810693
 20
0.3076000237035146
 30
0.0
 11
-0.0000000000000011
 21
-0.078000000000003
 31
0.0
210
0.0
220
0.0
230
1.0
 40
0.7071067811865475
 41
5.814998523311382
 42
6.257792577660309
1001
ACAD
1000
RTLwPs
1070
   128
  0
ELLIPSE
  5
48
100
AcDbEntity
  8
USP-GEO
  6
CONTINUOUS
100
AcDbEllipse
 10
1.817169879810693
 20
0.3076000237035146
 30
0.0
 11
-0.0000000000000011
 21
-0.078000000000003
 31
0.0
210
0.0
220
0.0
230
1.0
 40
0.7071067811865475
 41
3.522130269388425
 42
9.444867127940922
1001
ACAD
1000
RTLwPs
1070
   128
  0
ELLIPSE
  5
49
100
AcDbEntity
  8
USP-GEO
  6
CONTINUOUS
100
AcDbEllipse
 10
1.817169879810693
 20
0.3076000237035146
 30
0.0
 11
-0.0000000000000011
 21
-0.078000000000003
 31
0.0
210
0.0
220
0.0
230
1.0
 40
0.7071067811865475
 41
0.3883682692484904
 42
6.234953661997343
1001
ACAD
1000
RTLwPs
1070
   128
  0
ELLIPSE
  5
4A
100
AcDbEntity
  8
USP-GEO
  6
CONTINUOUS
100
AcDbEllipse
 10
1.817169879810693
 20
0.3076000237035146
 30
0.0
 11
-0.0000000000000011
 21
-0.078000000000003
 31
0.0
210
0.0
220
0.0
230
1.0
 40
0.7071067811865475
 41
3.17975857050409
 42
9.095462756868716
1001
ACAD
1000
RTLwPs
1070
   128
  0
ELLIPSE
  5
4B
100
AcDbEntity
  8
USP-GEO
  6
CONTINUOUS
100
AcDbEllipse
 10
1.817169879810693
 20
0.3076000237035146
 30
0.0
 11
-0.0000000000000011
 21
-0.078000000000003
 31
0.0
210
0.0
220
0.0
230
1.0
 40
0.7071067811865475
 41
0.0
 42
6.283185307179586
1001
ACAD
1000
RTLwPs
1070
   128
  0
ELLIPSE
  5
4C
100
AcDbEntity
  8
USP-GEO
  6
CONTINUOUS
100
AcDbEllipse
 10
1.817169879810693
 20
0.3076000237035146
 30
0.0
 11
-0.0000000000000011
 21
-0.078000000000003
 31
0.0
210
0.0
220
0.0
230
1.0
 40
0.7071067811865475
 41
2.8285665904181
 42
8.680354999750814
1001
ACAD
1000
RTLwPs
1070
   128
  0
ELLIPSE
  5
4D
100
AcDbEntity
  8
USP-GEO
  6
CONTINUOUS
100
AcDbEllipse
 10
1.817169879810693
 20
0.3076000237035146
 30
0.0
 11
-0.0000000000000011
 21
-0.078000000000003
 31
0.0
210
0.0
220
0.0
230
1.0
 40
0.7071067811865475
 41
0.9079147382833017
 42
6.671553576428076
1001
ACAD
1000
RTLwPs
1070
   128
  0
ELLIPSE
  5
4E
100
AcDbEntity
  8
USP-GEO
  6
CONTINUOUS
100
AcDbEllipse
 10
1.817169879810693
 20
0.3076000237035146
 30
0.0
 11
-0.0000000000000011
 21
-0.078000000000003
 31
0.0
210
0.0
220
0.0
230
1.0
 40
0.7071067811865475
 41
0.9205096233602723
 42
2.384175884611863
1001
ACAD
1000
RTLwPs
1070
   128
  0
LWPOLYLINE
  5
4F
100
AcDbEntity
  8
USP-GEO
100
AcDbPolyline
 90
        2
 70
   128
 43
0.0
 10
2.018839284673349
 20
0.1222921323376092
 10
2.018839284673349
 20
0.0
  0
LWPOLYLINE
  5
50
100
AcDbEntity
  8
USP-GEO
100
AcDbPolyline
 90
        2
 70
   128
 43
0.0
 10
2.018839284673349
 20
0.1426741543938768
 10
2.018839284673349
 20
0.1222921323376092
  0
LWPOLYLINE
  5
51
100
AcDbEntity
  8
USP-GEO
100
AcDbPolyline
 90
        2
 70
   128
 43
0.0
 10
2.018839284673349
 20
0.2649662867314859
 10
2.018839284673349
 20
0.1426741543938768
  0
LWPOLYLINE
  5
52
100
AcDbEntity
  8
USP-GEO
100
AcDbPolyline
 90
        2
 70
   128
 43
0.0
 10
2.018839284673349
 20
0.8764269484195281
 10
2.018839284673349
 20
0.2649662867314859
  0
LWPOLYLINE
  5
53
100
AcDbEntity
  8
USP-GEO
100
AcDbPolyline
 90
        2
 70
   128
 43
0.0
 10
2.018839284673349
 20
0.8968089704757957
 10
2.018839284673349
 20
0.8764269484195281
  0
LWPOLYLINE
  5
54
100
AcDbEntity
  8
USP-GEO
100
AcDbPolyline
 90
        2
 70
   128
 43
0.0
 10
2.018839284673349
 20
1.019101102813404
 10
2.018839284673349
 20
0.8968089704757957
  0
LWPOLYLINE
  5
55
100
AcDbEntity
  8
USP-GEO
100
AcDbPolyline
 90
        2
 70
   128
 43
0.0
 10
2.018839284673349
 20
1.916929174392009
 10
2.018839284673349
 20
1.019101102813404
  0
LWPOLYLINE
  5
56
100
AcDbEntity
  8
USP-GEO
100
AcDbPolyline
 90
        2
 70
   128
 43
0.0
 10
2.059603328785884
 20
1.264704468591432
 10
2.018839284673349
 20
1.264704468591432
  0
LWPOLYLINE
  5
57
100
AcDbEntity
  8
USP-GEO
100
AcDbPolyline
 90
        2
 70
   128
 43
0.0
 10
2.181895461123493
 20
1.122030314197559
 10
2.059603328785884
 20
1.264704468591432
  0
LWPOLYLINE
  5
58
100
AcDbEntity
  8
USP-GEO
100
AcDbPolyline
 90
        2
 70
   128
 43
0.0
 10
2.059603328785884
 20
0.9987190807571337
 10
2.181895461123493
 20
1.122030314197559
  0
LWPOLYLINE
  5
59
100
AcDbEntity
  8
USP-GEO
100
AcDbPolyline
 90
        2
 70
   128
 43
0.0
 10
2.018839284673349
 20
0.9987190807571337
 10
2.059603328785884
 20
0.9987190807571337
  0
LWPOLYLINE
  5
5A
100
AcDbEntity
  8
USP-GEO
100
AcDbPolyline
 90
        2
 70
   128
 43
0.0
 10
4.282262834021915
 20
1.264704468591432
 10
4.34340890019072
 20
1.264704468591432
  0
LWPOLYLINE
  5
5B
100
AcDbEntity
  8
USP-GEO
100
AcDbPolyline
 90
        2
 70
   128
 43
0.0
 10
4.180352723740575
 20
1.122030314197559
 10
4.282262834021915
 20
1.264704468591432
  0
LWPOLYLINE
  5
5C
100
AcDbEntity
  8
USP-GEO
100
AcDbPolyline
 90
        2
 70
   128
 43
0.0
 10
4.282262834021915
 20
0.9987190807571337
 10
4.180352723740575
 20
1.122030314197559
  0
LWPOLYLINE
  5
5D
100
AcDbEntity
  8
USP-GEO
100
AcDbPolyline
 90
        2
 70
   128
 43
0.0
 10
4.34340890019072
 20
0.9987190807571337
 10
4.282262834021915
 20
0.9987190807571337
  0
LWPOLYLINE
  5
5E
100
AcDbEntity
  8
USP-GEO
100
AcDbPolyline
 90
        2
 70
   128
 43
0.0
 10
1.89654715233574
 20
3.712585317549226
 10
1.89654715233574
 20
2.244060628395114
  0
LWPOLYLINE
  5
5F
100
AcDbEntity
  8
USP-GEO
100
AcDbPolyline
 90
        2
 70
   128
 43
0.0
 10
1.89654715233574
 20
2.244060628395114
 10
1.89654715233574
 20
2.142150518113773
  0
LWPOLYLINE
  5
60
100
AcDbEntity
  8
USP-GEO
100
AcDbPolyline
 90
        2
 70
   128
 43
0.0
 10
1.89654715233574
 20
2.142150518113773
 10
0.0
 20
2.142150518113773
  0
LWPOLYLINE
  5
61
100
AcDbEntity
  8
USP-GEO
100
AcDbPolyline
 90
        2
 70
   128
 43
0.0
 10
0.0
 20
2.142150518113773
 10
0.0
 20
2.244060628395114
  0
CIRCLE
  5
62
100
AcDbEntity
  8
USP-GEO
100
AcDbCircle
 10
6.15903723072475
 20
3.192564559675631
 30
0.0
 40
0.09
  0
CIRCLE
  5
63
100
AcDbEntity
  8
USP-GEO
100
AcDbCircle
 10
4.759037230724745
 20
3.392564559675619
 30
0.0
 40
0.09
  0
LWPOLYLINE
  5
64
100
AcDbEntity
  8
USP-GEO
100
AcDbPolyline
 90
        2
 70
   128
 43
0.0
 10
4.465701032528327
 20
3.712585317549226
 10
4.465701032528327
 20
2.244060628395114
  0
LWPOLYLINE
  5
65
100
AcDbEntity
  8
USP-GEO
100
AcDbPolyline
 90
        2
 70
   128
 43
0.0
 10
6.363267285966882
 20
3.712585317549226
 10
4.465701032528327
 20
3.712585317549226
  0
LWPOLYLINE
  5
66
100
AcDbEntity
  8
USP-GEO
100
AcDbPolyline
 90
        2
 70
   128
 43
0.0
 10
6.363267285966882
 20
3.712585317549226
 10
6.363267285966882
 20
2.244060628395114
  0
LWPOLYLINE
  5
67
100
AcDbEntity
  8
USP-GEO
100
AcDbPolyline
 90
        2
 70
   128
 43
0.0
 10
6.363267285966882
 20
2.142150518113773
 10
4.465701032528327
 20
2.142150518113773
  0
LWPOLYLINE
  5
68
100
AcDbEntity
  8
USP-GEO
100
AcDbPolyline
 90
        2
 70
   128
 43
0.0
 10
4.465701032528327
 20
2.142150518113773
 10
4.465701032528327
 20
2.244060628395114
  0
LWPOLYLINE
  5
69
100
AcDbEntity
  8
USP-GEO
100
AcDbPolyline
 90
        2
 70
   128
 43
0.0
 10
6.363267285966882
 20
2.244060628395114
 10
6.363267285966882
 20
2.142150518113773
  0
LWPOLYLINE
  5
6A
100
AcDbEntity
  8
USP-GEO
100
AcDbPolyline
 90
        2
 70
   128
 43
0.0
 10
4.424936988415792
 20
2.203296584282576
 10
4.465701032528327
 20
2.203296584282576
  0
LWPOLYLINE
  5
6B
100
AcDbEntity
  8
USP-GEO
100
AcDbPolyline
 90
        2
 70
   128
 43
0.0
 10
4.34340890019072
 20
1.916929174392009
 10
4.34340890019072
 20
2.120749394954692
  0
LWPOLYLINE
  5
6C
100
AcDbEntity
  8
USP-GEO
100
AcDbPolyline
 90
        2
 70
   128
 43
0.0
 10
4.34340890019072
 20
1.019101102813404
 10
4.34340890019072
 20
1.916929174392009
  0
LWPOLYLINE
  5
6D
100
AcDbEntity
  8
USP-GEO
100
AcDbPolyline
 90
        2
 70
   128
 43
0.0
 10
4.34340890019072
 20
0.8968089704757957
 10
4.34340890019072
 20
1.019101102813404
  0
LWPOLYLINE
  5
6E
100
AcDbEntity
  8
USP-GEO
100
AcDbPolyline
 90
        2
 70
   128
 43
0.0
 10
4.34340890019072
 20
0.8764269484195281
 10
4.34340890019072
 20
0.8968089704757957
  0
LWPOLYLINE
  5
6F
100
AcDbEntity
  8
USP-GEO
100
AcDbPolyline
 90
        2
 70
   128
 43
0.0
 10
4.34340890019072
 20
0.2649662867314859
 10
4.34340890019072
 20
0.8764269484195281
  0
LWPOLYLINE
  5
70
100
AcDbEntity
  8
USP-GEO
100
AcDbPolyline
 90
        2
 70
   128
 43
0.0
 10
4.34340890019072
 20
0.1426741543938768
 10
4.34340890019072
 20
0.2649662867314859
  0
LWPOLYLINE
  5
71
100
AcDbEntity
  8
USP-GEO
100
AcDbPolyline
 90
        2
 70
   128
 43
0.0
 10
4.34340890019072
 20
0.1222921323376092
 10
4.34340890019072
 20
0.1426741543938768
  0
LWPOLYLINE
  5
72
100
AcDbEntity
  8
USP-GEO
100
AcDbPolyline
 90
        2
 70
   128
 43
0.0
 10
4.34340890019072
 20
0.0
 10
4.34340890019072
 20
0.1222921323376092
  0
LWPOLYLINE
  5
73
100
AcDbEntity
  8
USP-GEO
100
AcDbPolyline
 90
        2
 70
   128
 43
0.0
 10
4.424936988415792
 20
2.203296584282576
 10
4.384172944303255
 20
2.203296584282576
  0
ARC
  5
74
100
AcDbEntity
  8
USP-GEO
100
AcDbCircle
 10
4.425970631142336
 20
2.102564559675613
 30
0.0
 40
0.09
100
AcDbArc
 50
112.5354884619481
 51
154.383631546935
  0
LWPOLYLINE
  5
75
100
AcDbEntity
  8
USP-GEO
100
AcDbPolyline
 90
        2
 70
   128
 43
0.0
 10
4.34340890019072
 20
2.142150518113773
 10
4.34340890019072
 20
2.120749394954692
  0
LWPOLYLINE
  5
76
100
AcDbEntity
  8
USP-GEO
100
AcDbPolyline
 90
        2
 70
   128
 43
0.0
 10
4.34340890019072
 20
2.120749394954692
 10
4.344428001293533
 20
2.120749394954692
  0
LWPOLYLINE
  5
77
100
AcDbEntity
  8
USP-GEO
100
AcDbPolyline
 90
        2
 70
   128
 43
0.0
 10
1.89654715233574
 20
2.142150518113773
 10
1.978075240560812
 20
2.142150518113773
  0
LWPOLYLINE
  5
78
100
AcDbEntity
  8
USP-GEO
100
AcDbPolyline
 90
        2
 70
   128
 43
0.0
 10
1.89654715233574
 20
2.203296584282576
 10
1.937311196448277
 20
2.203296584282576
  0
LWPOLYLINE
  5
79
100
AcDbEntity
  8
USP-GEO
100
AcDbPolyline
 90
        2
 70
   128
 43
0.0
 10
1.978075240560812
 20
2.203296584282576
 10
1.978075240560812
 20
2.142150518113773
  0
LWPOLYLINE
  5
7A
100
AcDbEntity
  8
USP-GEO
100
AcDbPolyline
 90
        2
 70
   128
 43
0.0
 10
2.018839284673349
 20
2.142150518113773
 10
1.978075240560812
 20
2.142150518113773
  0
LWPOLYLINE
  5
7B
100
AcDbEntity
  8
USP-GEO
100
AcDbPolyline
 90
        2
 70
   128
 43
0.0
 10
2.018839284673349
 20
2.120749394954692
 10
2.018839284673349
 20
1.916929174392009
  0
LWPOLYLINE
  5
7C
100
AcDbEntity
  8
USP-GEO
100
AcDbPolyline
 90
        2
 70
   128
 43
0.0
 10
2.018839284673349
 20
2.120749394954692
 10
2.018839284673349
 20
2.142150518113773
  0
ARC
  5
7D
100
AcDbEntity
  8
USP-GEO
100
AcDbCircle
 10
1.933470631142329
 20
2.102564559675613
 30
0.0
 40
0.09
100
AcDbArc
 50
24.8774386568727
 51
66.11601435492012
  0
LWPOLYLINE
  5
7E
100
AcDbEntity
  8
USP-GEO
100
AcDbPolyline
 90
        2
 70
   128
 43
0.0
 10
1.978075240560812
 20
2.203296584282576
 10
1.937311196448277
 20
2.203296584282576
  0
LWPOLYLINE
  5
7F
100
AcDbEntity
  8
USP-GEO
100
AcDbPolyline
 90
        2
 70
   128
 43
0.0
 10
2.018839284673349
 20
2.120749394954692
 10
2.019858385776162
 20
2.120749394954692
  0
LWPOLYLINE
  5
80
100
AcDbEntity
  8
USP-GEO
100
AcDbPolyline
 90
        2
 70
   128
 43
0.0
 10
1.978075240560812
 20
1.916929174392009
 10
1.978075240560812
 20
2.120749394954692
  0
LWPOLYLINE
  5
81
100
AcDbEntity
  8
USP-GEO
100
AcDbPolyline
 90
        2
 70
   128
 43
0.0
 10
1.978075240560812
 20
1.019101102813404
 10
1.978075240560812
 20
1.916929174392009
  0
LWPOLYLINE
  5
82
100
AcDbEntity
  8
USP-GEO
100
AcDbPolyline
 90
        2
 70
   128
 43
0.0
 10
1.978075240560812
 20
0.8968089704757957
 10
1.978075240560812
 20
1.019101102813404
  0
LWPOLYLINE
  5
83
100
AcDbEntity
  8
USP-GEO
100
AcDbPolyline
 90
        2
 70
   128
 43
0.0
 10
1.978075240560812
 20
0.8968089704757957
 10
1.978075240560812
 20
0.8764269484195281
  0
LWPOLYLINE
  5
84
100
AcDbEntity
  8
USP-GEO
100
AcDbPolyline
 90
        2
 70
   128
 43
0.0
 10
1.978075240560812
 20
0.2649662867314859
 10
1.978075240560812
 20
0.8764269484195281
  0
LWPOLYLINE
  5
85
100
AcDbEntity
  8
USP-GEO
100
AcDbPolyline
 90
        2
 70
   128
 43
0.0
 10
1.978075240560812
 20
0.2649662867314859
 10
1.978075240560812
 20
0.1426741543938768
  0
LWPOLYLINE
  5
86
100
AcDbEntity
  8
USP-GEO
100
AcDbPolyline
 90
        2
 70
   128
 43
0.0
 10
1.978075240560812
 20
0.1426741543938768
 10
1.978075240560812
 20
0.1222921323376092
  0
LWPOLYLINE
  5
87
100
AcDbEntity
  8
USP-GEO
100
AcDbPolyline
 90
        2
 70
   128
 43
0.0
 10
1.978075240560812
 20
0.0
 10
1.978075240560812
 20
0.1222921323376092
  0
LWPOLYLINE
  5
88
100
AcDbEntity
  8
USP-GEO
100
AcDbPolyline
 90
        2
 70
   128
 43
0.0
 10
1.978075240560812
 20
2.120749394954692
 10
1.979094341663627
 20
2.120749394954692
  0
LWPOLYLINE
  5
89
100
AcDbEntity
  8
USP-GEO
100
AcDbPolyline
 90
        2
 70
   128
 43
0.0
 10
1.937311196448277
 20
2.142150518113773
 10
1.978075240560812
 20
2.120749394954692
  0
ARC
  5
8A
100
AcDbEntity
  8
USP-GEO
100
AcDbCircle
 10
2.023470631142332
 20
0.3076000237035146
 30
0.0
 40
0.302
100
AcDbArc
 50
98.49688551719935
 51
261.018580119657
  0
ARC
  5
8B
100
AcDbEntity
  8
USP-GEO
100
AcDbCircle
 10
4.335970631142332
 20
0.4951000237035146
 30
0.0
 40
0.302
100
AcDbArc
 50
279.3964110061567
 51
80.86603095161285
  0
TEXT
  5
8C
100
AcDbEntity
  8
USP-TXT
100
AcDbText
 10
0.8894574257653676
 20
-1.109463935761992
 30
0.0
 40
0.25
  1
TFL23118 - TOP VIEW
 72
     1
 11
3.181124092432034
 21
-1.109463935761992
 31
0.0
100
AcDbText
  0
ENDBLK
  5
93
100
AcDbEntity
  8
0
100
AcDbBlockEnd
  0
BLOCK
  5
10D
100
AcDbEntity
  8
0
100
AcDbBlockBegin
  2
TFL23118PR_F
 70
     0
 10
0.0
 20
0.0
 30
0.0
  3
TFL23118PR_F
  1

  0
LWPOLYLINE
  5
96
100
AcDbEntity
  8
USP-GEO
100
AcDbPolyline
 90
        2
 70
   128
 43
0.0
 10
6.363267285966882
 20
11.93469301504775
 10
4.465701032528327
 20
11.93469301504775
  0
LWPOLYLINE
  5
97
100
AcDbEntity
  8
USP-GEO
100
AcDbPolyline
 90
        2
 70
   128
 43
0.0
 10
1.89654715233574
 20
11.93469301504775
 10
0.0
 20
11.93469301504775
  0
LWPOLYLINE
  5
98
100
AcDbEntity
  8
USP-GEO
100
AcDbPolyline
 90
        2
 70
   128
 43
0.0
 10
4.690922376250089
 20
4.937544843130933
 10
4.813214508587698
 20
4.835634732849593
  0
LWPOLYLINE
  5
99
100
AcDbEntity
  8
USP-GEO
100
AcDbPolyline
 90
        2
 70
   128
 43
0.0
 10
4.589012265968749
 20
4.835634732849593
 10
4.690922376250089
 20
4.937544843130933
  0
LWPOLYLINE
  5
9A
100
AcDbEntity
  8
USP-GEO
100
AcDbPolyline
 90
        2
 70
   128
 43
0.0
 10
4.690922376250089
 20
4.713342600511984
 10
4.589012265968749
 20
4.835634732849593
  0
LWPOLYLINE
  5
9B
100
AcDbEntity
  8
USP-GEO
100
AcDbPolyline
 90
        2
 70
   128
 43
0.0
 10
4.813214508587698
 20
4.835634732849593
 10
4.690922376250089
 20
4.713342600511984
  0
CIRCLE
  5
9C
100
AcDbEntity
  8
USP-GEO
100
AcDbCircle
 10
4.83403723072479
 20
10.93428064494694
 30
0.0
 40
0.09
  0
ARC
  5
9D
100
AcDbEntity
  8
USP-GEO
100
AcDbCircle
 10
4.353153292221351
 20
11.66516458345038
 30
0.0
 40
0.1058839385034389
100
AcDbArc
 50
287.6743316351536
 51
2.321224950463129
  0
LWPOLYLINE
  5
9E
100
AcDbEntity
  8
USP-GEO
100
AcDbPolyline
 90
        2
 70
   128
 43
0.0
 10
4.465701032528327
 20
11.89392897093521
 10
4.465701032528327
 20
11.66972672831626
  0
ARC
  5
9F
100
AcDbEntity
  8
USP-GEO
100
AcDbCircle
 10
6.353153292221337
 20
11.66516458345038
 30
0.0
 40
0.1058839385034389
100
AcDbArc
 50
275.9314800027387
 51
276.5242247522497
  0
ARC
  5
A0
100
AcDbEntity
  8
USP-GEO
100
AcDbCircle
 10
6.353153292221337
 20
11.30928064494694
 30
0.0
 40
0.25
100
AcDbArc
 50
87.75971674581084
 51
137.7287502132261
  0
LWPOLYLINE
  5
A1
100
AcDbEntity
  8
USP-GEO
100
AcDbPolyline
 90
        2
 70
   128
 43
0.0
 10
5.261618993825594
 20
10.46616832589364
 10
6.158427964301388
 20
11.48628852980985
  0
ARC
  5
A2
100
AcDbEntity
  8
USP-GEO
100
AcDbCircle
 10
5.637970631142552
 20
10.12650350002079
 30
0.0
 40
0.5
100
AcDbArc
 50
137.9331209839889
 51
180.7846881825071
  0
LWPOLYLINE
  5
A3
100
AcDbEntity
  8
USP-GEO
100
AcDbPolyline
 90
        2
 70
   128
 43
0.0
 10
5.139326861487987
 20
10.11967395093708
 10
5.139326861487987
 20
5.549005504818975
  0
ARC
  5
A4
100
AcDbEntity
  8
USP-GEO
100
AcDbCircle
 10
4.387970631142552
 20
5.556242493645532
 30
0.0
 40
0.75
100
AcDbArc
 50
348.4102529508088
 51
359.4481497892745
  0
LWPOLYLINE
  5
A5
100
AcDbEntity
  8
USP-GEO
100
AcDbPolyline
 90
        2
 70
   128
 43
0.0
 10
4.506465076640864
 20
2.264442650451378
 10
5.118944839431719
 20
5.406331350425098
  0
LWPOLYLINE
  5
A6
100
AcDbEntity
  8
USP-GEO
100
AcDbPolyline
 90
        2
 70
   128
 43
0.0
 10
4.34340890019072
 20
2.162532540170037
 10
4.384172944303255
 20
2.162532540170037
  0
LWPOLYLINE
  5
A7
100
AcDbEntity
  8
USP-GEO
100
AcDbPolyline
 90
        2
 70
   128
 43
0.0
 10
4.34340890019072
 20
2.264442650451378
 10
4.384172944303255
 20
2.264442650451378
  0
LWPOLYLINE
  5
A8
100
AcDbEntity
  8
USP-GEO
100
AcDbPolyline
 90
        2
 70
   128
 43
0.0
 10
4.34340890019072
 20
11.56781661803492
 10
4.384172944303255
 20
11.56781661803492
  0
LWPOLYLINE
  5
A9
100
AcDbEntity
  8
USP-GEO
100
AcDbPolyline
 90
        2
 70
   128
 43
0.0
 10
4.424936988415792
 20
11.56781661803492
 10
4.384172944303255
 20
11.56781661803492
  0
LWPOLYLINE
  5
AA
100
AcDbEntity
  8
USP-GEO
100
AcDbPolyline
 90
        2
 70
   128
 43
0.0
 10
2.018839284673349
 20
2.264442650451378
 10
1.978075240560812
 20
2.264442650451378
  0
LWPOLYLINE
  5
AB
100
AcDbEntity
  8
USP-GEO
100
AcDbPolyline
 90
        2
 70
   128
 43
0.0
 10
2.018839284673349
 20
2.162532540170037
 10
1.978075240560812
 20
2.162532540170037
  0
ARC
  5
AC
100
AcDbEntity
  8
USP-GEO
100
AcDbCircle
 10
2.061470631142329
 20
0.0973306449468776
 30
0.0
 40
0.09
100
AcDbArc
 50
190.7297379541642
 51
268.9009071023706
  0
LWPOLYLINE
  5
AD
100
AcDbEntity
  8
USP-GEO
100
AcDbPolyline
 90
        2
 70
   128
 43
0.0
 10
2.059603328785884
 20
0.0
 10
4.302644856078183
 20
0.0
  0
ARC
  5
AE
100
AcDbEntity
  8
USP-GEO
100
AcDbCircle
 10
4.297970631142336
 20
0.0973306449468705
 30
0.0
 40
0.09
100
AcDbArc
 50
272.7494707131531
 51
349.6119142940094
  0
ARC
  5
AF
100
AcDbEntity
  8
USP-GEO
100
AcDbCircle
 10
2.061470631142329
 20
0.0973306449468705
 30
0.0
 40
0.038
100
AcDbArc
 50
200.338699363749
 51
267.0458762659592
  0
LWPOLYLINE
  5
B0
100
AcDbEntity
  8
USP-GEO
100
AcDbPolyline
 90
        2
 70
   128
 43
0.0
 10
2.059603328785884
 20
0.0611460661688028
 10
4.302644856078183
 20
0.0611460661688028
  0
ARC
  5
B1
100
AcDbEntity
  8
USP-GEO
100
AcDbCircle
 10
4.297970631142336
 20
0.0973306449468776
 30
0.0
 40
0.038
100
AcDbArc
 50
277.3605514548368
 51
340.8233076607373
  0
LWPOLYLINE
  5
B2
100
AcDbEntity
  8
USP-GEO
100
AcDbPolyline
 90
        2
 70
   128
 43
0.0
 10
4.384172944303255
 20
0.0815280882250704
 10
4.384172944303255
 20
2.040240407832431
  0
LWPOLYLINE
  5
B3
100
AcDbEntity
  8
USP-GEO
100
AcDbPolyline
 90
        2
 70
   128
 43
0.0
 10
4.384172944303255
 20
2.162532540170037
 10
4.384172944303255
 20
2.040240407832431
  0
LWPOLYLINE
  5
B4
100
AcDbEntity
  8
USP-GEO
100
AcDbPolyline
 90
        2
 70
   128
 43
0.0
 10
4.384172944303255
 20
2.162532540170037
 10
4.384172944303255
 20
2.264442650451378
  0
LWPOLYLINE
  5
B5
100
AcDbEntity
  8
USP-GEO
100
AcDbPolyline
 90
        2
 70
   128
 43
0.0
 10
4.384172944303255
 20
2.264442650451378
 10
4.384172944303255
 20
5.406331350425098
  0
LWPOLYLINE
  5
B6
100
AcDbEntity
  8
USP-GEO
100
AcDbPolyline
 90
        2
 70
   128
 43
0.0
 10
4.384172944303255
 20
5.406331350425098
 10
4.384172944303255
 20
5.549005504818975
  0
LWPOLYLINE
  5
B7
100
AcDbEntity
  8
USP-GEO
100
AcDbPolyline
 90
        2
 70
   128
 43
0.0
 10
4.384172944303255
 20
10.11967395093708
 10
4.384172944303255
 20
5.549005504818975
  0
LWPOLYLINE
  5
B8
100
AcDbEntity
  8
USP-GEO
100
AcDbPolyline
 90
        2
 70
   128
 43
0.0
 10
4.384172944303255
 20
10.46616832589364
 10
4.384172944303255
 20
10.11967395093708
  0
LWPOLYLINE
  5
B9
100
AcDbEntity
  8
USP-GEO
100
AcDbPolyline
 90
        2
 70
   128
 43
0.0
 10
4.384172944303255
 20
10.46616832589364
 10
4.384172944303255
 20
11.48628852980985
  0
LWPOLYLINE
  5
BA
100
AcDbEntity
  8
USP-GEO
100
AcDbPolyline
 90
        2
 70
   128
 43
0.0
 10
4.384172944303255
 20
11.56781661803492
 10
4.384172944303255
 20
11.48628852980985
  0
LWPOLYLINE
  5
BB
100
AcDbEntity
  8
USP-GEO
100
AcDbPolyline
 90
        2
 70
   128
 43
0.0
 10
4.384172944303255
 20
11.56781661803492
 10
4.385192045406069
 20
11.56781661803492
  0
LWPOLYLINE
  5
BC
100
AcDbEntity
  8
USP-GEO
100
AcDbPolyline
 90
        2
 70
   128
 43
0.0
 10
4.384172944303255
 20
11.56781661803492
 10
4.424936988415792
 20
11.56781661803492
  0
LWPOLYLINE
  5
BD
100
AcDbEntity
  8
USP-GEO
100
AcDbPolyline
 90
        2
 70
   128
 43
0.0
 10
4.486083054584597
 20
1.571453900538266
 10
4.589012265968749
 20
1.469543790256924
  0
LWPOLYLINE
  5
BE
100
AcDbEntity
  8
USP-GEO
100
AcDbPolyline
 90
        2
 70
   128
 43
0.0
 10
1.876165130279472
 20
1.571453900538266
 10
1.753872997941865
 20
1.469543790256924
  0
LWPOLYLINE
  5
BF
100
AcDbEntity
  8
USP-GEO
100
AcDbPolyline
 90
        2
 70
   128
 43
0.0
 10
2.018839284673349
 20
2.040240407832431
 10
2.018839284673349
 20
0.0815280882250704
  0
LWPOLYLINE
  5
C0
100
AcDbEntity
  8
USP-GEO
100
AcDbPolyline
 90
        2
 70
   128
 43
0.0
 10
2.018839284673349
 20
2.162532540170037
 10
2.018839284673349
 20
2.040240407832431
  0
LWPOLYLINE
  5
C1
100
AcDbEntity
  8
USP-GEO
100
AcDbPolyline
 90
        2
 70
   128
 43
0.0
 10
2.018839284673349
 20
2.264442650451378
 10
2.018839284673349
 20
2.162532540170037
  0
LWPOLYLINE
  5
C2
100
AcDbEntity
  8
USP-GEO
100
AcDbPolyline
 90
        2
 70
   128
 43
0.0
 10
2.018839284673349
 20
5.406331350425098
 10
2.018839284673349
 20
2.264442650451378
  0
LWPOLYLINE
  5
C3
100
AcDbEntity
  8
USP-GEO
100
AcDbPolyline
 90
        2
 70
   128
 43
0.0
 10
2.018839284673349
 20
5.549005504818975
 10
2.018839284673349
 20
5.406331350425098
  0
LWPOLYLINE
  5
C4
100
AcDbEntity
  8
USP-GEO
100
AcDbPolyline
 90
        2
 70
   128
 43
0.0
 10
2.018839284673349
 20
10.11967395093708
 10
2.018839284673349
 20
5.549005504818975
  0
LWPOLYLINE
  5
C5
100
AcDbEntity
  8
USP-GEO
100
AcDbPolyline
 90
        2
 70
   128
 43
0.0
 10
2.018839284673349
 20
10.46616832589364
 10
2.018839284673349
 20
10.11967395093708
  0
LWPOLYLINE
  5
C6
100
AcDbEntity
  8
USP-GEO
100
AcDbPolyline
 90
        2
 70
   128
 43
0.0
 10
2.018839284673349
 20
11.48628852980985
 10
2.018839284673349
 20
10.46616832589364
  0
LWPOLYLINE
  5
C7
100
AcDbEntity
  8
USP-GEO
100
AcDbPolyline
 90
        2
 70
   128
 43
0.0
 10
2.059603328785884
 20
0.9589741377474112
 10
2.181895461123493
 20
0.8978280715786084
  0
LWPOLYLINE
  5
C8
100
AcDbEntity
  8
USP-GEO
100
AcDbPolyline
 90
        2
 70
   128
 43
0.0
 10
2.141131417010956
 20
0.836682005409802
 10
2.181895461123493
 20
0.8978280715786084
  0
LWPOLYLINE
  5
C9
100
AcDbEntity
  8
USP-GEO
100
AcDbPolyline
 90
        2
 70
   128
 43
0.0
 10
2.141131417010956
 20
0.836682005409802
 10
2.039221306729617
 20
0.918210093634876
  0
LWPOLYLINE
  5
CA
100
AcDbEntity
  8
USP-GEO
100
AcDbPolyline
 90
        2
 70
   128
 43
0.0
 10
2.018839284673349
 20
0.9793561598036788
 10
2.059603328785884
 20
0.9589741377474112
  0
LWPOLYLINE
  5
CB
100
AcDbEntity
  8
USP-GEO
100
AcDbPolyline
 90
        2
 70
   128
 43
0.0
 10
2.039221306729617
 20
0.918210093634876
 10
2.059603328785884
 20
0.9589741377474112
  0
LWPOLYLINE
  5
CC
100
AcDbEntity
  8
USP-GEO
100
AcDbPolyline
 90
        2
 70
   128
 43
0.0
 10
2.039221306729617
 20
0.918210093634876
 10
2.018839284673349
 20
0.918210093634876
  0
LWPOLYLINE
  5
CD
100
AcDbEntity
  8
USP-GEO
100
AcDbPolyline
 90
        2
 70
   128
 43
0.0
 10
4.200734745796843
 20
0.836682005409802
 10
4.180352723740575
 20
0.8978280715786084
  0
LWPOLYLINE
  5
CE
100
AcDbEntity
  8
USP-GEO
100
AcDbPolyline
 90
        2
 70
   128
 43
0.0
 10
4.282262834021915
 20
0.9589741377474112
 10
4.180352723740575
 20
0.8978280715786084
  0
LWPOLYLINE
  5
CF
100
AcDbEntity
  8
USP-GEO
100
AcDbPolyline
 90
        2
 70
   128
 43
0.0
 10
4.200734745796843
 20
0.836682005409802
 10
4.323026878134452
 20
0.918210093634876
  0
LWPOLYLINE
  5
D0
100
AcDbEntity
  8
USP-GEO
100
AcDbPolyline
 90
        2
 70
   128
 43
0.0
 10
4.323026878134452
 20
0.918210093634876
 10
4.34340890019072
 20
0.918210093634876
  0
LWPOLYLINE
  5
D1
100
AcDbEntity
  8
USP-GEO
100
AcDbPolyline
 90
        2
 70
   128
 43
0.0
 10
4.323026878134452
 20
0.918210093634876
 10
4.282262834021915
 20
0.9589741377474112
  0
LWPOLYLINE
  5
D2
100
AcDbEntity
  8
USP-GEO
100
AcDbPolyline
 90
        2
 70
   128
 43
0.0
 10
4.34340890019072
 20
0.9793561598036788
 10
4.282262834021915
 20
0.9589741377474112
  0
LWPOLYLINE
  5
D3
100
AcDbEntity
  8
USP-GEO
100
AcDbPolyline
 90
        2
 70
   128
 43
0.0
 10
1.651962887660523
 20
4.713342600511984
 10
1.550052777379184
 20
4.835634732849593
  0
LWPOLYLINE
  5
D4
100
AcDbEntity
  8
USP-GEO
100
AcDbPolyline
 90
        2
 70
   128
 43
0.0
 10
1.774255019998133
 20
4.835634732849593
 10
1.651962887660523
 20
4.713342600511984
  0
LWPOLYLINE
  5
D5
100
AcDbEntity
  8
USP-GEO
100
AcDbPolyline
 90
        2
 70
   128
 43
0.0
 10
1.651962887660523
 20
4.937544843130933
 10
1.774255019998133
 20
4.835634732849593
  0
LWPOLYLINE
  5
D6
100
AcDbEntity
  8
USP-GEO
100
AcDbPolyline
 90
        2
 70
   128
 43
0.0
 10
1.550052777379184
 20
4.835634732849593
 10
1.651962887660523
 20
4.937544843130933
  0
CIRCLE
  5
D7
100
AcDbEntity
  8
USP-GEO
100
AcDbCircle
 10
1.525404031560102
 20
10.93428064494685
 30
0.0
 40
0.09
  0
ARC
  5
D8
100
AcDbEntity
  8
USP-GEO
100
AcDbCircle
 10
1.971470631142326
 20
2.293705644946852
 30
0.0
 40
0.125
100
AcDbArc
 50
194.1951362254919
 51
255.403517742322
  0
LWPOLYLINE
  5
D9
100
AcDbEntity
  8
USP-GEO
100
AcDbPolyline
 90
        2
 70
   128
 43
0.0
 10
1.855783108223205
 20
2.264442650451378
 10
1.223940424478895
 20
5.406331350425098
  0
ARC
  5
DA
100
AcDbEntity
  8
USP-GEO
100
AcDbCircle
 10
1.97147063114234
 20
5.556242493645475
 30
0.0
 40
0.75
100
AcDbArc
 50
180.5546745252106
 51
191.3397848921719
  0
LWPOLYLINE
  5
DB
100
AcDbEntity
  8
USP-GEO
100
AcDbPolyline
 90
        2
 70
   128
 43
0.0
 10
1.223940424478895
 20
10.11967395093708
 10
1.223940424478895
 20
5.549005504818975
  0
ARC
  5
DC
100
AcDbEntity
  8
USP-GEO
100
AcDbCircle
 10
0.7214706311423403
 20
10.1265035000207
 30
0.0
 40
0.5
100
AcDbArc
 50
359.2212860362359
 51
41.8552059532417
  0
LWPOLYLINE
  5
DD
100
AcDbEntity
  8
USP-GEO
100
AcDbPolyline
 90
        2
 70
   128
 43
0.0
 10
1.100629191038473
 20
10.46616832589364
 10
0.183438198506412
 20
11.48628852980985
  0
ARC
  5
DE
100
AcDbEntity
  8
USP-GEO
100
AcDbCircle
 10
0.0062879700635552
 20
11.30928064494685
 30
0.0
 40
0.25
100
AcDbArc
 50
44.97697162475999
 51
91.39324183490456
  0
ARC
  5
DF
100
AcDbEntity
  8
USP-GEO
100
AcDbCircle
 10
0.0062879700635552
 20
11.66516458345029
 30
0.0
 40
0.1058839385034389
100
AcDbArc
 50
266.3042437739718
 51
266.9019415167907
  0
LWPOLYLINE
  5
E0
100
AcDbEntity
  8
USP-GEO
100
AcDbPolyline
 90
        2
 70
   128
 43
0.0
 10
0.0
 20
11.89392897093521
 10
0.0
 20
11.56781661803492
  0
LWPOLYLINE
  5
E1
100
AcDbEntity
  8
USP-GEO
100
AcDbPolyline
 90
        2
 70
   128
 43
0.0
 10
1.89654715233574
 20
11.89392897093521
 10
1.89654715233574
 20
11.66972672831626
  0
LWPOLYLINE
  5
E2
100
AcDbEntity
  8
USP-GEO
100
AcDbPolyline
 90
        2
 70
   128
 43
0.0
 10
0.0
 20
11.99583908121655
 10
1.89654715233574
 20
11.99583908121655
  0
LWPOLYLINE
  5
E3
100
AcDbEntity
  8
USP-GEO
100
AcDbPolyline
 90
        2
 70
   128
 43
0.0
 10
1.89654715233574
 20
11.99583908121655
 10
1.89654715233574
 20
11.89392897093521
  0
LWPOLYLINE
  5
E4
100
AcDbEntity
  8
USP-GEO
100
AcDbPolyline
 90
        2
 70
   128
 43
0.0
 10
0.0
 20
11.89392897093521
 10
0.0
 20
11.99583908121655
  0
LWPOLYLINE
  5
E5
100
AcDbEntity
  8
USP-GEO
100
AcDbPolyline
 90
        2
 70
   128
 43
0.0
 10
6.363267285966882
 20
11.89392897093521
 10
6.363267285966882
 20
11.56781661803492
  0
LWPOLYLINE
  5
E6
100
AcDbEntity
  8
USP-GEO
100
AcDbPolyline
 90
        2
 70
   128
 43
0.0
 10
4.465701032528327
 20
11.89392897093521
 10
4.465701032528327
 20
11.99583908121655
  0
LWPOLYLINE
  5
E7
100
AcDbEntity
  8
USP-GEO
100
AcDbPolyline
 90
        2
 70
   128
 43
0.0
 10
4.465701032528327
 20
11.99583908121655
 10
6.363267285966882
 20
11.99583908121655
  0
LWPOLYLINE
  5
E8
100
AcDbEntity
  8
USP-GEO
100
AcDbPolyline
 90
        2
 70
   128
 43
0.0
 10
6.363267285966882
 20
11.99583908121655
 10
6.363267285966882
 20
11.89392897093521
  0
LWPOLYLINE
  5
E9
100
AcDbEntity
  8
USP-GEO
100
AcDbPolyline
 90
        2
 70
   128
 43
0.0
 10
4.424936988415792
 20
2.162532540170037
 10
4.384172944303255
 20
2.162532540170037
  0
ARC
  5
EA
100
AcDbEntity
  8
USP-GEO
100
AcDbCircle
 10
4.387970631142566
 20
2.293705644946937
 30
0.0
 40
0.125
100
AcDbArc
 50
285.7385551555966
 51
346.1279862174925
  0
LWPOLYLINE
  5
EB
100
AcDbEntity
  8
USP-GEO
100
AcDbPolyline
 90
        2
 70
   128
 43
0.0
 10
4.34340890019072
 20
11.48628852980985
 10
4.34340890019072
 20
11.56781661803492
  0
LWPOLYLINE
  5
EC
100
AcDbEntity
  8
USP-GEO
100
AcDbPolyline
 90
        2
 70
   128
 43
0.0
 10
4.34340890019072
 20
10.46616832589364
 10
4.34340890019072
 20
11.48628852980985
  0
LWPOLYLINE
  5
ED
100
AcDbEntity
  8
USP-GEO
100
AcDbPolyline
 90
        2
 70
   128
 43
0.0
 10
4.34340890019072
 20
10.11967395093708
 10
4.34340890019072
 20
10.46616832589364
  0
LWPOLYLINE
  5
EE
100
AcDbEntity
  8
USP-GEO
100
AcDbPolyline
 90
        2
 70
   128
 43
0.0
 10
4.34340890019072
 20
5.549005504818975
 10
4.34340890019072
 20
10.11967395093708
  0
LWPOLYLINE
  5
EF
100
AcDbEntity
  8
USP-GEO
100
AcDbPolyline
 90
        2
 70
   128
 43
0.0
 10
4.34340890019072
 20
5.406331350425098
 10
4.34340890019072
 20
5.549005504818975
  0
LWPOLYLINE
  5
F0
100
AcDbEntity
  8
USP-GEO
100
AcDbPolyline
 90
        2
 70
   128
 43
0.0
 10
4.34340890019072
 20
2.264442650451378
 10
4.34340890019072
 20
5.406331350425098
  0
LWPOLYLINE
  5
F1
100
AcDbEntity
  8
USP-GEO
100
AcDbPolyline
 90
        2
 70
   128
 43
0.0
 10
4.34340890019072
 20
2.162532540170037
 10
4.34340890019072
 20
2.264442650451378
  0
LWPOLYLINE
  5
F2
100
AcDbEntity
  8
USP-GEO
100
AcDbPolyline
 90
        2
 70
   128
 43
0.0
 10
4.34340890019072
 20
2.040240407832431
 10
4.34340890019072
 20
2.162532540170037
  0
LWPOLYLINE
  5
F3
100
AcDbEntity
  8
USP-GEO
100
AcDbPolyline
 90
        2
 70
   128
 43
0.0
 10
4.34340890019072
 20
0.0815280882250704
 10
4.34340890019072
 20
2.040240407832431
  0
LWPOLYLINE
  5
F4
100
AcDbEntity
  8
USP-GEO
100
AcDbPolyline
 90
        2
 70
   128
 43
0.0
 10
4.34340890019072
 20
11.56781661803492
 10
4.344428001293533
 20
11.56781661803492
  0
LWPOLYLINE
  5
F5
100
AcDbEntity
  8
USP-GEO
100
AcDbPolyline
 90
        2
 70
   128
 43
0.0
 10
4.34340890019072
 20
11.56781661803492
 10
4.344428001293533
 20
11.56781661803492
  0
ARC
  5
F6
100
AcDbEntity
  8
USP-GEO
100
AcDbCircle
 10
2.00628797006354
 20
11.66516458345029
 30
0.0
 40
0.1058839385034389
100
AcDbArc
 50
177.6194708039956
 51
253.837711802431
  0
LWPOLYLINE
  5
F7
100
AcDbEntity
  8
USP-GEO
100
AcDbPolyline
 90
        2
 70
   128
 43
0.0
 10
1.978075240560812
 20
11.56781661803492
 10
1.937311196448277
 20
11.56781661803492
  0
LWPOLYLINE
  5
F8
100
AcDbEntity
  8
USP-GEO
100
AcDbPolyline
 90
        2
 70
   128
 43
0.0
 10
2.018839284673349
 20
11.56781661803492
 10
1.978075240560812
 20
11.56781661803492
  0
LWPOLYLINE
  5
F9
100
AcDbEntity
  8
USP-GEO
100
AcDbPolyline
 90
        2
 70
   128
 43
0.0
 10
2.018839284673349
 20
11.56781661803492
 10
2.018839284673349
 20
11.48628852980985
  0
LWPOLYLINE
  5
FA
100
AcDbEntity
  8
USP-GEO
100
AcDbPolyline
 90
        2
 70
   128
 43
0.0
 10
2.018839284673349
 20
11.56781661803492
 10
2.019858385776162
 20
11.56781661803492
  0
LWPOLYLINE
  5
FB
100
AcDbEntity
  8
USP-GEO
100
AcDbPolyline
 90
        2
 70
   128
 43
0.0
 10
2.018839284673349
 20
11.56781661803492
 10
2.019858385776162
 20
11.56781661803492
  0
LWPOLYLINE
  5
FC
100
AcDbEntity
  8
USP-GEO
100
AcDbPolyline
 90
        2
 70
   128
 43
0.0
 10
1.978075240560812
 20
11.48628852980985
 10
1.978075240560812
 20
11.56781661803492
  0
LWPOLYLINE
  5
FD
100
AcDbEntity
  8
USP-GEO
100
AcDbPolyline
 90
        2
 70
   128
 43
0.0
 10
1.978075240560812
 20
10.46616832589364
 10
1.978075240560812
 20
11.48628852980985
  0
LWPOLYLINE
  5
FE
100
AcDbEntity
  8
USP-GEO
100
AcDbPolyline
 90
        2
 70
   128
 43
0.0
 10
1.978075240560812
 20
10.11967395093708
 10
1.978075240560812
 20
10.46616832589364
  0
LWPOLYLINE
  5
FF
100
AcDbEntity
  8
USP-GEO
100
AcDbPolyline
 90
        2
 70
   128
 43
0.0
 10
1.978075240560812
 20
10.11967395093708
 10
1.978075240560812
 20
5.549005504818975
  0
LWPOLYLINE
  5
100
100
AcDbEntity
  8
USP-GEO
100
AcDbPolyline
 90
        2
 70
   128
 43
0.0
 10
1.978075240560812
 20
5.549005504818975
 10
1.978075240560812
 20
5.406331350425098
  0
LWPOLYLINE
  5
101
100
AcDbEntity
  8
USP-GEO
100
AcDbPolyline
 90
        2
 70
   128
 43
0.0
 10
1.978075240560812
 20
2.264442650451378
 10
1.978075240560812
 20
5.406331350425098
  0
LWPOLYLINE
  5
102
100
AcDbEntity
  8
USP-GEO
100
AcDbPolyline
 90
        2
 70
   128
 43
0.0
 10
1.978075240560812
 20
2.264442650451378
 10
1.978075240560812
 20
2.162532540170037
  0
LWPOLYLINE
  5
103
100
AcDbEntity
  8
USP-GEO
100
AcDbPolyline
 90
        2
 70
   128
 43
0.0
 10
1.978075240560812
 20
2.040240407832431
 10
1.978075240560812
 20
2.162532540170037
  0
LWPOLYLINE
  5
104
100
AcDbEntity
  8
USP-GEO
100
AcDbPolyline
 90
        2
 70
   128
 43
0.0
 10
1.978075240560812
 20
2.040240407832431
 10
1.978075240560812
 20
0.0815280882250704
  0
LWPOLYLINE
  5
105
100
AcDbEntity
  8
USP-GEO
100
AcDbPolyline
 90
        2
 70
   128
 43
0.0
 10
1.978075240560812
 20
11.56781661803492
 10
1.979094341663627
 20
11.56781661803492
  0
LWPOLYLINE
  5
106
100
AcDbEntity
  8
USP-GEO
100
AcDbPolyline
 90
        2
 70
   128
 43
0.0
 10
1.978075240560812
 20
2.162532540170037
 10
1.937311196448277
 20
2.162532540170037
  0
LWPOLYLINE
  5
107
100
AcDbEntity
  8
USP-GEO
100
AcDbPolyline
 90
        2
 70
   128
 43
0.0
 10
1.937311196448277
 20
11.56781661803492
 10
1.978075240560812
 20
11.56781661803492
  0
ARC
  5
108
100
AcDbEntity
  8
USP-GEO
100
AcDbCircle
 10
2.023470631142332
 20
1.324330644946973
 30
0.0
 40
0.302
100
AcDbArc
 50
98.9608785389748
 51
120.7983705349152
  0
ARC
  5
109
100
AcDbEntity
  8
USP-GEO
100
AcDbCircle
 10
2.023470631142332
 20
1.324330644946973
 30
0.0
 40
0.302
100
AcDbArc
 50
151.691799677424
 51
261.5127424340845
  0
ARC
  5
10A
100
AcDbEntity
  8
USP-GEO
100
AcDbCircle
 10
4.335970631142332
 20
1.32433064494686
 30
0.0
 40
0.302
100
AcDbArc
 50
58.72385190444042
 51
80.49486942196592
  0
ARC
  5
10B
100
AcDbEntity
  8
USP-GEO
100
AcDbCircle
 10
4.335970631142332
 20
1.32433064494686
 30
0.0
 40
0.302
100
AcDbArc
 50
279.0036953424022
 51
29.85024531548264
  0
TEXT
  5
10C
100
AcDbEntity
  8
USP-TXT
100
AcDbText
 10
0.6394574257653689
 20
-1.305289670741311
 30
0.0
 40
0.25
  1
TFL23118 - FRONT VIEW
 72
     1
 11
3.181124092432034
 21
-1.305289670741311
 31
0.0
100
AcDbText
  0
ENDBLK
  5
10E
100
AcDbEntity
  8
0
100
AcDbBlockEnd
  0
BLOCK
  5
15B
100
AcDbEntity
  8
0
100
AcDbBlockBegin
  2
TFL23118PR_S
 70
     0
 10
0.0
 20
0.0
 30
0.0
  3
TFL23118PR_S
  1

  0
LWPOLYLINE
  5
111
100
AcDbEntity
  8
USP-GEO
100
AcDbPolyline
 90
        2
 70
   128
 43
0.0
 10
1.99845726261708
 20
0.0611460661688028
 10
0.0
 20
0.0611460661688028
  0
LWPOLYLINE
  5
112
100
AcDbEntity
  8
USP-GEO
100
AcDbPolyline
 90
        2
 70
   128
 43
0.0
 10
2.141131417010956
 20
11.56781661803492
 10
2.142150518113769
 20
11.56781661803492
  0
LWPOLYLINE
  5
113
100
AcDbEntity
  8
USP-GEO
100
AcDbPolyline
 90
        2
 70
   128
 43
0.0
 10
2.141131417010956
 20
11.56781661803492
 10
2.141131417010956
 20
11.48628852980985
  0
LWPOLYLINE
  5
114
100
AcDbEntity
  8
USP-GEO
100
AcDbPolyline
 90
        2
 70
   128
 43
0.0
 10
2.141131417010956
 20
10.46616832589364
 10
2.141131417010956
 20
11.48628852980985
  0
LWPOLYLINE
  5
115
100
AcDbEntity
  8
USP-GEO
100
AcDbPolyline
 90
        2
 70
   128
 43
0.0
 10
2.141131417010956
 20
10.46616832589364
 10
2.141131417010956
 20
10.11967395093708
  0
LWPOLYLINE
  5
116
100
AcDbEntity
  8
USP-GEO
100
AcDbPolyline
 90
        2
 70
   128
 43
0.0
 10
2.141131417010956
 20
10.11967395093708
 10
2.141131417010956
 20
5.549005504818975
  0
LWPOLYLINE
  5
117
100
AcDbEntity
  8
USP-GEO
100
AcDbPolyline
 90
        2
 70
   128
 43
0.0
 10
2.141131417010956
 20
5.406331350425098
 10
2.141131417010956
 20
5.549005504818975
  0
LWPOLYLINE
  5
118
100
AcDbEntity
  8
USP-GEO
100
AcDbPolyline
 90
        2
 70
   128
 43
0.0
 10
2.141131417010956
 20
2.264442650451378
 10
2.141131417010956
 20
5.406331350425098
  0
LWPOLYLINE
  5
119
100
AcDbEntity
  8
USP-GEO
100
AcDbPolyline
 90
        2
 70
   128
 43
0.0
 10
1.99845726261708
 20
0.0815280882250704
 10
1.99845726261708
 20
0.0
  0
LWPOLYLINE
  5
11A
100
AcDbEntity
  8
USP-GEO
100
AcDbPolyline
 90
        2
 70
   128
 43
0.0
 10
1.99845726261708
 20
0.0
 10
0.0
 20
0.0
  0
LWPOLYLINE
  5
11B
100
AcDbEntity
  8
USP-GEO
100
AcDbPolyline
 90
        2
 70
   128
 43
0.0
 10
0.0
 20
0.0
 10
0.0
 20
0.0815280882250704
  0
CIRCLE
  5
11C
100
AcDbEntity
  8
USP-GEO
100
AcDbCircle
 10
1.396115946559124
 20
9.934280644946886
 30
0.0
 40
0.15625
  0
LWPOLYLINE
  5
11D
100
AcDbEntity
  8
USP-GEO
100
AcDbPolyline
 90
        2
 70
   128
 43
0.0
 10
1.590816821491721
 20
3.815514528933377
 10
1.713108953829326
 20
3.713604418652037
  0
LWPOLYLINE
  5
11E
100
AcDbEntity
  8
USP-GEO
100
AcDbPolyline
 90
        2
 70
   128
 43
0.0
 10
1.488906711210379
 20
3.713604418652037
 10
1.590816821491721
 20
3.815514528933377
  0
LWPOLYLINE
  5
11F
100
AcDbEntity
  8
USP-GEO
100
AcDbPolyline
 90
        2
 70
   128
 43
0.0
 10
1.590816821491721
 20
3.591312286314428
 10
1.488906711210379
 20
3.713604418652037
  0
LWPOLYLINE
  5
120
100
AcDbEntity
  8
USP-GEO
100
AcDbPolyline
 90
        2
 70
   128
 43
0.0
 10
1.713108953829326
 20
3.713604418652037
 10
1.590816821491721
 20
3.591312286314428
  0
LWPOLYLINE
  5
121
100
AcDbEntity
  8
USP-GEO
100
AcDbPolyline
 90
        2
 70
   128
 43
0.0
 10
1.264704468591432
 20
0.9385921156911436
 10
1.122030314197555
 20
0.7959179612972669
  0
LWPOLYLINE
  5
122
100
AcDbEntity
  8
USP-GEO
100
AcDbPolyline
 90
        2
 70
   128
 43
0.0
 10
0.9997381818599464
 20
0.9793561598036788
 10
1.264704468591432
 20
0.9793561598036788
  0
LWPOLYLINE
  5
123
100
AcDbEntity
  8
USP-GEO
100
AcDbPolyline
 90
        2
 70
   128
 43
0.0
 10
1.99845726261708
 20
0.0815280882250704
 10
1.99845726261708
 20
2.040240407832431
  0
LWPOLYLINE
  5
124
100
AcDbEntity
  8
USP-GEO
100
AcDbPolyline
 90
        2
 70
   128
 43
0.0
 10
0.0
 20
0.0815280882250704
 10
0.0
 20
2.040240407832431
  0
ARC
  5
125
100
AcDbEntity
  8
USP-GEO
100
AcDbCircle
 10
0.1234325461413341
 20
2.043705644946873
 30
0.0
 40
0.125
100
AcDbArc
 50
90.54986618735863
 51
181.6080955317825
  0
LWPOLYLINE
  5
126
100
AcDbEntity
  8
USP-GEO
100
AcDbPolyline
 90
        2
 70
   128
 43
0.0
 10
0.1426741543938732
 20
2.162532540170037
 10
0.1222921323376056
 20
2.162532540170037
  0
ARC
  5
127
100
AcDbEntity
  8
USP-GEO
100
AcDbCircle
 10
0.1461159465591244
 20
2.293705644946873
 30
0.0
 40
0.125
100
AcDbArc
 50
268.4969866411258
 51
346.1679281291906
  0
LWPOLYLINE
  5
128
100
AcDbEntity
  8
USP-GEO
100
AcDbPolyline
 90
        2
 70
   128
 43
0.0
 10
0.2649662867314824
 20
2.264442650451378
 10
0.8774460495223372
 20
5.406331350425098
  0
ARC
  5
129
100
AcDbEntity
  8
USP-GEO
100
AcDbCircle
 10
0.1461159465591102
 20
5.556242493645475
 30
0.0
 40
0.75
100
AcDbArc
 50
348.4157405017029
 51
359.4484110440953
  0
LWPOLYLINE
  5
12A
100
AcDbEntity
  8
USP-GEO
100
AcDbPolyline
 90
        2
 70
   128
 43
0.0
 10
0.8978280715786048
 20
10.11967395093708
 10
0.8978280715786048
 20
5.549005504818975
  0
ARC
  5
12B
100
AcDbEntity
  8
USP-GEO
100
AcDbCircle
 10
1.396115946559124
 20
10.12650350002073
 30
0.0
 40
0.5
100
AcDbArc
 50
137.9061580971624
 51
180.7852485641649
  0
LWPOLYLINE
  5
12C
100
AcDbEntity
  8
USP-GEO
100
AcDbPolyline
 90
        2
 70
   128
 43
0.0
 10
1.020120203916214
 20
10.46616832589364
 10
1.916929174392009
 20
11.48628852980985
  0
ARC
  5
12D
100
AcDbEntity
  8
USP-GEO
100
AcDbCircle
 10
2.111298607637909
 20
11.30928064494688
 30
0.0
 40
0.25
100
AcDbArc
 50
92.42109748177012
 51
137.6765763163347
  0
LWPOLYLINE
  5
12E
100
AcDbEntity
  8
USP-GEO
100
AcDbPolyline
 90
        2
 70
   128
 43
0.0
 10
2.100367372898421
 20
11.56781661803492
 10
2.120749394954689
 20
11.56781661803492
  0
LWPOLYLINE
  5
12F
100
AcDbEntity
  8
USP-GEO
100
AcDbPolyline
 90
        2
 70
   128
 43
0.0
 10
2.120749394954689
 20
11.56781661803492
 10
2.141131417010956
 20
11.56781661803492
  0
ELLIPSE
  5
130
100
AcDbEntity
  8
USP-GEO
  6
CONTINUOUS
100
AcDbEllipse
 10
0.5006514105870288
 20
1.492283019148592
 30
0.0
 11
-0.078000000000003
 21
0.0
 31
0.0
210
0.0
220
0.0
230
1.0
 40
0.7071067811865476
 41
3.485999037688595
 42
5.945642236886786
1001
ACAD
1000
RTLwPs
1070
   128
  0
CIRCLE
  5
131
100
AcDbEntity
  8
USP-GEO
100
AcDbCircle
 10
0.5006514105870288
 20
1.32433064494686
 30
0.0
 40
0.2974894956128705
  0
ELLIPSE
  5
132
100
AcDbEntity
  8
USP-GEO
  6
CONTINUOUS
100
AcDbEllipse
 10
0.5006514105870288
 20
1.530631396278499
 30
0.0
 11
-0.078000000000003
 21
0.0
 31
0.0
210
0.0
220
0.0
230
1.0
 40
0.7071067811865476
 41
5.899513616676687
 42
6.664869910016914
1001
ACAD
1000
RTLwPs
1070
   128
  0
ELLIPSE
  5
133
100
AcDbEntity
  8
USP-GEO
  6
CONTINUOUS
100
AcDbEllipse
 10
0.5006514105870288
 20
1.530631396278499
 30
0.0
 11
-0.078000000000003
 21
0.0
 31
0.0
210
0.0
220
0.0
230
1.0
 40
0.7071067811865476
 41
5.438166797882425
 42
5.904393724324092
1001
ACAD
1000
RTLwPs
1070
   128
  0
ELLIPSE
  5
134
100
AcDbEntity
  8
USP-GEO
  6
CONTINUOUS
100
AcDbEllipse
 10
0.5006514105870288
 20
1.530631396278499
 30
0.0
 11
-0.078000000000003
 21
0.0
 31
0.0
210
0.0
220
0.0
230
1.0
 40
0.7071067811865476
 41
0.376824735099012
 42
1.450262171240671
1001
ACAD
1000
RTLwPs
1070
   128
  0
ELLIPSE
  5
135
100
AcDbEntity
  8
USP-GEO
  6
CONTINUOUS
100
AcDbEllipse
 10
0.5006514105870288
 20
1.530631396278499
 30
0.0
 11
-0.078000000000003
 21
0.0
 31
0.0
210
0.0
220
0.0
230
1.0
 40
0.7071067811865476
 41
5.447956811815074
 42
11.1748760957419
1001
ACAD
1000
RTLwPs
1070
   128
  0
ELLIPSE
  5
136
100
AcDbEntity
  8
USP-GEO
  6
CONTINUOUS
100
AcDbEllipse
 10
0.5006514105870288
 20
1.530631396278499
 30
0.0
 11
-0.078000000000003
 21
0.0
 31
0.0
210
0.0
220
0.0
230
1.0
 40
0.7071067811865476
 41
1.43865320456726
 42
1.908125210637653
1001
ACAD
1000
RTLwPs
1070
   128
  0
ELLIPSE
  5
137
100
AcDbEntity
  8
USP-GEO
  6
CONTINUOUS
100
AcDbEllipse
 10
0.5006514105870288
 20
1.530631396278499
 30
0.0
 11
-0.078000000000003
 21
0.0
 31
0.0
210
0.0
220
0.0
230
1.0
 40
0.7071067811865476
 41
4.908727262945522
 42
10.51224813285819
1001
ACAD
1000
RTLwPs
1070
   128
  0
ELLIPSE
  5
138
100
AcDbEntity
  8
USP-GEO
  6
CONTINUOUS
100
AcDbEllipse
 10
0.5006514105870288
 20
1.530631396278499
 30
0.0
 11
-0.078000000000003
 21
0.0
 31
0.0
210
0.0
220
0.0
230
1.0
 40
0.7071067811865476
 41
3.532993651346509
 42
4.243003145399621
1001
ACAD
1000
RTLwPs
1070
   128
  0
ELLIPSE
  5
139
100
AcDbEntity
  8
USP-GEO
  6
CONTINUOUS
100
AcDbEllipse
 10
0.5006514105870288
 20
1.530631396278499
 30
0.0
 11
-0.078000000000003
 21
0.0
 31
0.0
210
0.0
220
0.0
230
1.0
 40
0.7071067811865476
 41
2.46074729445489
 42
8.180767846727478
1001
ACAD
1000
RTLwPs
1070
   128
  0
ELLIPSE
  5
13A
100
AcDbEntity
  8
USP-GEO
  6
CONTINUOUS
100
AcDbEllipse
 10
0.5006514105870288
 20
1.530631396278499
 30
0.0
 11
-0.078000000000003
 21
0.0
 31
0.0
210
0.0
220
0.0
230
1.0
 40
0.7071067811865476
 41
2.752210414571445
 42
8.736857372711156
1001
ACAD
1000
RTLwPs
1070
   128
  0
ELLIPSE
  5
13B
100
AcDbEntity
  8
USP-GEO
  6
CONTINUOUS
100
AcDbEllipse
 10
0.5006514105870288
 20
1.530631396278499
 30
0.0
 11
-0.078000000000003
 21
0.0
 31
0.0
210
0.0
220
0.0
230
1.0
 40
0.7071067811865476
 41
3.52792614961918
 42
9.040442512894184
1001
ACAD
1000
RTLwPs
1070
   128
  0
ARC
  5
13C
100
AcDbEntity
  8
USP-GEO
100
AcDbCircle
 10
0.3131514105870288
 20
1.324330644946973
 30
0.0
 40
0.25
100
AcDbArc
 50
36.47839531406227
 51
56.75814725191675
  0
LWPOLYLINE
  5
13D
100
AcDbEntity
  8
USP-GEO
100
AcDbPolyline
 90
        2
 70
   128
 43
0.0
 10
1.264704468591432
 20
0.9793561598036788
 10
1.264704468591432
 20
0.9385921156911436
  0
LWPOLYLINE
  5
13E
100
AcDbEntity
  8
USP-GEO
100
AcDbPolyline
 90
        2
 70
   128
 43
0.0
 10
0.9997381818599464
 20
0.9385921156911436
 10
0.9997381818599464
 20
0.9793561598036788
  0
LWPOLYLINE
  5
13F
100
AcDbEntity
  8
USP-GEO
100
AcDbPolyline
 90
        2
 70
   128
 43
0.0
 10
1.122030314197555
 20
0.7959179612972669
 10
0.9997381818599464
 20
0.9385921156911436
  0
LWPOLYLINE
  5
140
100
AcDbEntity
  8
USP-GEO
100
AcDbPolyline
 90
        2
 70
   128
 43
0.0
 10
0.9997381818599464
 20
0.9385921156911436
 10
1.264704468591432
 20
0.9385921156911436
  0
LWPOLYLINE
  5
141
100
AcDbEntity
  8
USP-GEO
100
AcDbPolyline
 90
        2
 70
   128
 43
0.0
 10
1.223940424478893
 20
0.8978280715786084
 10
1.122030314197555
 20
0.836682005409802
  0
LWPOLYLINE
  5
142
100
AcDbEntity
  8
USP-GEO
100
AcDbPolyline
 90
        2
 70
   128
 43
0.0
 10
1.122030314197555
 20
0.836682005409802
 10
1.040502225972481
 20
0.8978280715786084
  0
LWPOLYLINE
  5
143
100
AcDbEntity
  8
USP-GEO
100
AcDbPolyline
 90
        2
 70
   128
 43
0.0
 10
3.691184194390142
 20
11.93469301504775
 10
3.691184194390142
 20
11.99583908121655
  0
LWPOLYLINE
  5
144
100
AcDbEntity
  8
USP-GEO
100
AcDbPolyline
 90
        2
 70
   128
 43
0.0
 10
3.691184194390142
 20
11.93469301504775
 10
2.243041527292298
 20
11.93469301504775
  0
ARC
  5
145
100
AcDbEntity
  8
USP-GEO
100
AcDbCircle
 10
2.236115946559129
 20
11.89628064494696
 30
0.0
 40
0.038
100
AcDbArc
 50
79.77962285736879
 51
183.9754966026177
  0
LWPOLYLINE
  5
146
100
AcDbEntity
  8
USP-GEO
100
AcDbPolyline
 90
        2
 70
   128
 43
0.0
 10
2.202277483179759
 20
11.56781661803492
 10
2.141131417010956
 20
11.56781661803492
  0
LWPOLYLINE
  5
147
100
AcDbEntity
  8
USP-GEO
100
AcDbPolyline
 90
        2
 70
   128
 43
0.0
 10
2.141131417010956
 20
11.89392897093521
 10
2.141131417010956
 20
11.56781661803492
  0
LWPOLYLINE
  5
148
100
AcDbEntity
  8
USP-GEO
100
AcDbPolyline
 90
        2
 70
   128
 43
0.0
 10
3.691184194390142
 20
11.99583908121655
 10
2.243041527292298
 20
11.99583908121655
  0
ARC
  5
149
100
AcDbEntity
  8
USP-GEO
100
AcDbCircle
 10
2.236115946559143
 20
11.89628064494693
 30
0.0
 40
0.09
100
AcDbArc
 50
86.02074556856591
 51
181.4182675337455
  0
LWPOLYLINE
  5
14A
100
AcDbEntity
  8
USP-GEO
100
AcDbPolyline
 90
        2
 70
   128
 43
0.0
 10
2.202277483179759
 20
5.406331350425098
 10
2.202277483179759
 20
2.264442650451378
  0
LWPOLYLINE
  5
14B
100
AcDbEntity
  8
USP-GEO
100
AcDbPolyline
 90
        2
 70
   128
 43
0.0
 10
2.202277483179759
 20
5.549005504818975
 10
2.202277483179759
 20
5.406331350425098
  0
LWPOLYLINE
  5
14C
100
AcDbEntity
  8
USP-GEO
100
AcDbPolyline
 90
        2
 70
   128
 43
0.0
 10
2.202277483179759
 20
10.11967395093708
 10
2.202277483179759
 20
5.549005504818975
  0
LWPOLYLINE
  5
14D
100
AcDbEntity
  8
USP-GEO
100
AcDbPolyline
 90
        2
 70
   128
 43
0.0
 10
2.202277483179759
 20
10.46616832589364
 10
2.202277483179759
 20
10.11967395093708
  0
LWPOLYLINE
  5
14E
100
AcDbEntity
  8
USP-GEO
100
AcDbPolyline
 90
        2
 70
   128
 43
0.0
 10
2.202277483179759
 20
11.48628852980985
 10
2.202277483179759
 20
10.46616832589364
  0
LWPOLYLINE
  5
14F
100
AcDbEntity
  8
USP-GEO
100
AcDbPolyline
 90
        2
 70
   128
 43
0.0
 10
2.202277483179759
 20
11.56781661803492
 10
2.202277483179759
 20
11.48628852980985
  0
LWPOLYLINE
  5
150
100
AcDbEntity
  8
USP-GEO
100
AcDbPolyline
 90
        2
 70
   128
 43
0.0
 10
2.202277483179759
 20
11.56781661803492
 10
2.203296584282572
 20
11.56781661803492
  0
LWPOLYLINE
  5
151
100
AcDbEntity
  8
USP-GEO
100
AcDbPolyline
 90
        2
 70
   128
 43
0.0
 10
2.202277483179759
 20
11.89392897093521
 10
2.202277483179759
 20
11.56781661803492
  0
LWPOLYLINE
  5
152
100
AcDbEntity
  8
USP-GEO
100
AcDbPolyline
 90
        2
 70
   128
 43
0.0
 10
2.100367372898421
 20
2.162532540170037
 10
2.120749394954689
 20
2.162532540170037
  0
LWPOLYLINE
  5
153
100
AcDbEntity
  8
USP-GEO
100
AcDbPolyline
 90
        2
 70
   128
 43
0.0
 10
2.141131417010956
 20
2.162532540170037
 10
2.100367372898421
 20
2.162532540170037
  0
LWPOLYLINE
  5
154
100
AcDbEntity
  8
USP-GEO
100
AcDbPolyline
 90
        2
 70
   128
 43
0.0
 10
2.141131417010956
 20
2.162532540170037
 10
2.141131417010956
 20
2.264442650451378
  0
LWPOLYLINE
  5
155
100
AcDbEntity
  8
USP-GEO
100
AcDbPolyline
 90
        2
 70
   128
 43
0.0
 10
2.202277483179759
 20
2.264442650451378
 10
2.141131417010956
 20
2.264442650451378
  0
LWPOLYLINE
  5
156
100
AcDbEntity
  8
USP-GEO
100
AcDbPolyline
 90
        2
 70
   128
 43
0.0
 10
2.202277483179759
 20
2.264442650451378
 10
2.202277483179759
 20
2.162532540170037
  0
LWPOLYLINE
  5
157
100
AcDbEntity
  8
USP-GEO
100
AcDbPolyline
 90
        2
 70
   128
 43
0.0
 10
2.181895461123492
 20
2.162532540170037
 10
2.120749394954689
 20
2.162532540170037
  0
ARC
  5
158
100
AcDbEntity
  8
USP-GEO
100
AcDbCircle
 10
2.123432546141334
 20
2.043705644946873
 30
0.0
 40
0.125
100
AcDbArc
 50
91.29353812049897
 51
181.5882548849451
  0
LWPOLYLINE
  5
159
100
AcDbEntity
  8
USP-GEO
100
AcDbPolyline
 90
        2
 70
   128
 43
0.0
 10
2.181895461123492
 20
2.162532540170037
 10
2.202277483179759
 20
2.162532540170037
  0
TEXT
  5
15A
100
AcDbEntity
  8
USP-TXT
100
AcDbText
 10
-0.5294079028049277
 20
-1.305289670741311
 30
0.0
 40
0.25
  1
TFL23118 - SIDE VIEW
 72
     1
 11
1.845592097195071
 21
-1.305289670741311
 31
0.0
100
AcDbText
  0
ENDBLK
  5
15C
100
AcDbEntity
  8
0
100
AcDbBlockEnd
  0
ENDSEC
  0
SECTION
  2
ENTITIES
  0
INSERT
  5
3
100
AcDbEntity
  8
USP
100
AcDbBlockReference
  2
TFL23118PR_T
 10
0.0061044402991808
 20
16.75007859967296
 30
0.0
  0
INSERT
  5
94
100
AcDbEntity
  8
USP
100
AcDbBlockReference
  2
TFL23118PR_F
 10
0.0061044402991808
 20
1.305601386535851
 30
0.0
  0
INSERT
  5
10F
100
AcDbEntity
  8
USP
100
AcDbBlockReference
  2
TFL23118PR_S
 10
8.85699751823358
 20
1.305601386535851
 30
0.0
  0
ENDSEC
  0
SECTION
  2
OBJECTS
  0
DICTIONARY
  5
174
100
AcDbDictionary
  3
ACAD_GROUP
350
172
  3
ACAD_MLINESTYLE
350
173
  0
DICTIONARY
  5
9
100
AcDbDictionary
280
     1
  3
ACAD_XREC_ROUNDTRIP
360
A
  0
DICTIONARY
  5
8E
100
AcDbDictionary
280
     1
  3
ACAD_XREC_ROUNDTRIP
360
8F
  0
DICTIONARY
  5
177
100
AcDbDictionary
280
     1
  3
ACAD_XREC_ROUNDTRIP
360
178
  0
DICTIONARY
  5
15D
100
AcDbDictionary
280
     1
  3
ACAD_LAYOUTSELFREF
360
15E
  0
DICTIONARY
  5
162
100
AcDbDictionary
280
     1
  3
ACAD_LAYOUTSELFREF
360
163
  0
DICTIONARY
  5
172
102
{ACAD_REACTORS
330
174
102
}
100
AcDbDictionary
  0
DICTIONARY
  5
173
102
{ACAD_REACTORS
330
174
102
}
100
AcDbDictionary
  3
STANDARD
350
175
  0
XRECORD
  5
A
102
{ACAD_REACTORS
330
9
102
}
100
AcDbXrecord
102
EXTNAMES
  1
USP-GEO
  2
USP-Geo
  0
XRECORD
  5
8F
102
{ACAD_REACTORS
330
8E
102
}
100
AcDbXrecord
102
EXTNAMES
  1
USP-TXT
  2
USP-Txt
  0
XRECORD
  5
178
102
{ACAD_REACTORS
330
177
102
}
100
AcDbXrecord
102
ACADR14ROUNDTRIP
1000
DSTYLE
1002
{
1070
   276
 70
     2
1070
   277
 70
     5
1002
}
  0
XRECORD
  5
15E
102
{ACAD_REACTORS
330
15D
102
}
100
AcDbXrecord
340
2
  0
XRECORD
  5
163
102
{ACAD_REACTORS
330
162
102
}
100
AcDbXrecord
340
0
  0
MLINESTYLE
  5
175
102
{ACAD_REACTORS
330
173
102
}
100
AcDbMlineStyle
  2
STANDARD
 70
     0
  3

 62
     0
 51
90.0
 52
90.0
 71
     2
 49
0.5
 62
   256
  6
BYLAYER
 49
-0.5
 62
   256
  6
BYLAYER
  0
ENDSEC
  0
EOF
