  0
SECTION
  2
HEADER
  9
$ACADVER
  1
AC1014
  9
$ACADMAINTVER
 70
     9
  9
$DWGCODEPAGE
  3
ANSI_1252
  9
$INSBASE
 10
0.0
 20
0.0
 30
0.0
  9
$EXTMIN
 10
0.0004049406397471
 20
0.0014294522177565
 30
0.0000000000000103
  9
$EXTMAX
 10
13.26940866947242
 20
23.42260177868062
 30
0.0000000000000113
  9
$LIMMIN
 10
0.0
 20
0.0
  9
$LIMMAX
 10
12.0
 20
9.0
  9
$ORTHOMODE
 70
     0
  9
$REGENMODE
 70
     1
  9
$FILLMODE
 70
     1
  9
$QTEXTMODE
 70
     0
  9
$MIRRTEXT
 70
     1
  9
$DRAGMODE
 70
     2
  9
$LTSCALE
 40
1.0
  9
$OSMODE
 70
    37
  9
$ATTMODE
 70
     1
  9
$TEXTSIZE
 40
0.375
  9
$TRACEWID
 40
0.05
  9
$TEXTSTYLE
  7
STANDARD
  9
$CLAYER
  8
0
  9
$CELTYPE
  6
BYLAYER
  9
$CECOLOR
 62
   256
  9
$CELTSCALE
 40
1.0
  9
$DELOBJ
 70
     1
  9
$DISPSILH
 70
     0
  9
$DIMSCALE
 40
1.0
  9
$DIMASZ
 40
0.18
  9
$DIMEXO
 40
0.0625
  9
$DIMDLI
 40
0.38
  9
$DIMRND
 40
0.0
  9
$DIMDLE
 40
0.0
  9
$DIMEXE
 40
0.18
  9
$DIMTP
 40
0.0
  9
$DIMTM
 40
0.0
  9
$DIMTXT
 40
0.18
  9
$DIMCEN
 40
0.09
  9
$DIMTSZ
 40
0.0
  9
$DIMTOL
 70
     0
  9
$DIMLIM
 70
     0
  9
$DIMTIH
 70
     1
  9
$DIMTOH
 70
     1
  9
$DIMSE1
 70
     0
  9
$DIMSE2
 70
     0
  9
$DIMTAD
 70
     0
  9
$DIMZIN
 70
     0
  9
$DIMBLK
  1

  9
$DIMASO
 70
     1
  9
$DIMSHO
 70
     1
  9
$DIMPOST
  1

  9
$DIMAPOST
  1

  9
$DIMALT
 70
     0
  9
$DIMALTD
 70
     2
  9
$DIMALTF
 40
25.4
  9
$DIMLFAC
 40
1.0
  9
$DIMTOFL
 70
     0
  9
$DIMTVP
 40
0.0
  9
$DIMTIX
 70
     0
  9
$DIMSOXD
 70
     0
  9
$DIMSAH
 70
     0
  9
$DIMBLK1
  1

  9
$DIMBLK2
  1

  9
$DIMSTYLE
  2
STANDARD
  9
$DIMCLRD
 70
     0
  9
$DIMCLRE
 70
     0
  9
$DIMCLRT
 70
     0
  9
$DIMTFAC
 40
1.0
  9
$DIMGAP
 40
0.09
  9
$DIMJUST
 70
     0
  9
$DIMSD1
 70
     0
  9
$DIMSD2
 70
     0
  9
$DIMTOLJ
 70
     1
  9
$DIMTZIN
 70
     0
  9
$DIMALTZ
 70
     0
  9
$DIMALTTZ
 70
     0
  9
$DIMFIT
 70
     3
  9
$DIMUPT
 70
     0
  9
$DIMUNIT
 70
     2
  9
$DIMDEC
 70
     4
  9
$DIMTDEC
 70
     4
  9
$DIMALTU
 70
     2
  9
$DIMALTTD
 70
     2
  9
$DIMTXSTY
  7
STANDARD
  9
$DIMAUNIT
 70
     0
  9
$LUNITS
 70
     2
  9
$LUPREC
 70
     4
  9
$SKETCHINC
 40
0.1
  9
$FILLETRAD
 40
0.5
  9
$AUNITS
 70
     0
  9
$AUPREC
 70
     0
  9
$MENU
  1
.
  9
$ELEVATION
 40
0.0
  9
$PELEVATION
 40
0.0
  9
$THICKNESS
 40
0.0
  9
$LIMCHECK
 70
     0
  9
$BLIPMODE
 70
     0
  9
$CHAMFERA
 40
0.5
  9
$CHAMFERB
 40
0.5
  9
$CHAMFERC
 40
1.0
  9
$CHAMFERD
 40
0.0
  9
$SKPOLY
 70
     0
  9
$TDCREATE
 40
2451674.624929629
  9
$TDUPDATE
 40
2452759.747150787
  9
$TDINDWG
 40
0.0134416782
  9
$TDUSRTIMER
 40
0.0134378588
  9
$USRTIMER
 70
     1
  9
$ANGBASE
 50
0.0
  9
$ANGDIR
 70
     0
  9
$PDMODE
 70
     0
  9
$PDSIZE
 40
0.0
  9
$PLINEWID
 40
0.0
  9
$COORDS
 70
     1
  9
$SPLFRAME
 70
     0
  9
$SPLINETYPE
 70
     6
  9
$SPLINESEGS
 70
     8
  9
$ATTDIA
 70
     0
  9
$ATTREQ
 70
     1
  9
$HANDLING
 70
     1
  9
$HANDSEED
  5
DA
  9
$SURFTAB1
 70
     6
  9
$SURFTAB2
 70
     6
  9
$SURFTYPE
 70
     6
  9
$SURFU
 70
     6
  9
$SURFV
 70
     6
  9
$UCSNAME
  2

  9
$UCSORG
 10
0.0
 20
0.0
 30
0.0
  9
$UCSXDIR
 10
1.0
 20
0.0
 30
0.0
  9
$UCSYDIR
 10
0.0
 20
1.0
 30
0.0
  9
$PUCSNAME
  2

  9
$PUCSORG
 10
0.0
 20
0.0
 30
0.0
  9
$PUCSXDIR
 10
1.0
 20
0.0
 30
0.0
  9
$PUCSYDIR
 10
0.0
 20
1.0
 30
0.0
  9
$USERI1
 70
     0
  9
$USERI2
 70
     0
  9
$USERI3
 70
     0
  9
$USERI4
 70
     0
  9
$USERI5
 70
     0
  9
$USERR1
 40
0.0
  9
$USERR2
 40
0.0
  9
$USERR3
 40
0.0
  9
$USERR4
 40
0.0
  9
$USERR5
 40
0.0
  9
$WORLDVIEW
 70
     1
  9
$SHADEDGE
 70
     3
  9
$SHADEDIF
 70
    70
  9
$TILEMODE
 70
     1
  9
$MAXACTVP
 70
    48
  9
$PINSBASE
 10
0.0
 20
0.0
 30
0.0
  9
$PLIMCHECK
 70
     0
  9
$PEXTMIN
 10
1.000000000000000E+20
 20
1.000000000000000E+20
 30
1.000000000000000E+20
  9
$PEXTMAX
 10
-1.000000000000000E+20
 20
-1.000000000000000E+20
 30
-1.000000000000000E+20
  9
$PLIMMIN
 10
0.0
 20
0.0
  9
$PLIMMAX
 10
12.0
 20
9.0
  9
$UNITMODE
 70
     0
  9
$VISRETAIN
 70
     1
  9
$PLINEGEN
 70
     0
  9
$PSLTSCALE
 70
     1
  9
$TREEDEPTH
 70
  3020
  9
$PICKSTYLE
 70
     1
  9
$CMLSTYLE
  2
STANDARD
  9
$CMLJUST
 70
     0
  9
$CMLSCALE
 40
1.0
  9
$PROXYGRAPHICS
 70
     1
  9
$MEASUREMENT
 70
     0
  0
ENDSEC
  0
SECTION
  2
CLASSES
  0
CLASS
  1
ACDBDICTIONARYWDFLT
  2
AcDbDictionaryWithDefault
  3
AutoCAD 2000
 90
        0
280
     1
281
     0
  0
CLASS
  1
ACDBPLACEHOLDER
  2
AcDbPlaceHolder
  3
AutoCAD 2000
 90
        0
280
     1
281
     0
  0
CLASS
  1
LAYOUT
  2
AcDbLayout
  3
AutoCAD 2000
 90
        0
280
     1
281
     0
  0
CLASS
  1
LONG_TRANSACTION
  2
AcDbLongTransaction
  3
AutoCAD 2000
 90
        0
280
     1
281
     0
  0
CLASS
  1
LWPOLYLINE
  2
AcDbPolyline
  3
"AutoCAD"
 90
        0
280
     1
281
     1
  0
CLASS
  1
HATCH
  2
AcDbHatch
  3
"ACAD_SEDONA"
 90
        0
280
     1
281
     1
  0
CLASS
  1
XRECORD
  2
AcDbXrecord
  3
"<Built In>"
 90
        0
280
     0
281
     0
  0
CLASS
  1
LONG_TRANSACTION
  2
AcDbLongTransaction
  3
AutoCAD 2000
 90
        0
280
     1
281
     0
  0
CLASS
  1
LWPOLYLINE
  2
AcDbPolyline
  3
"AutoCAD"
 90
        0
280
     1
281
     1
  0
CLASS
  1
HATCH
  2
AcDbHatch
  3
"ACAD_SEDONA"
 90
        0
280
     1
281
     1
  0
CLASS
  1
XRECORD
  2
AcDbXrecord
  3
"<Built In>"
 90
        0
280
     0
281
     0
  0
CLASS
  1
LONG_TRANSACTION
  2
AcDbLongTransaction
  3
AutoCAD 2000
 90
        0
280
     1
281
     0
  0
CLASS
  1
LWPOLYLINE
  2
AcDbPolyline
  3
"AutoCAD"
 90
        0
280
     1
281
     1
  0
CLASS
  1
HATCH
  2
AcDbHatch
  3
"ACAD_SEDONA"
 90
        0
280
     1
281
     1
  0
CLASS
  1
XRECORD
  2
AcDbXrecord
  3
"<Built In>"
 90
        0
280
     0
281
     0
  0
CLASS
  1
DICTIONARYVAR
  2
AcDbDictionaryVar
  3
"AutoCAD"
 90
        0
280
     0
281
     0
  0
CLASS
  1
LONG_TRANSACTION
  2
AcDbLongTransaction
  3
AutoCAD 2000
 90
        0
280
     0
281
     0
  0
CLASS
  1
LWPOLYLINE
  2
AcDbPolyline
  3
"AutoCAD"
 90
        0
280
     0
281
     1
  0
CLASS
  1
HATCH
  2
AcDbHatch
  3
"ACAD_SEDONA"
 90
        0
280
     0
281
     1
  0
CLASS
  1
XRECORD
  2
AcDbXrecord
  3
"<Built In>"
 90
        0
280
     0
281
     0
  0
CLASS
  1
LONG_TRANSACTION
  2
AcDbLongTransaction
  3
AutoCAD 2000
 90
        0
280
     0
281
     0
  0
CLASS
  1
LWPOLYLINE
  2
AcDbPolyline
  3
"AutoCAD"
 90
        0
280
     0
281
     1
  0
CLASS
  1
HATCH
  2
AcDbHatch
  3
"ACAD_SEDONA"
 90
        0
280
     0
281
     1
  0
CLASS
  1
XRECORD
  2
AcDbXrecord
  3
"<Built In>"
 90
        0
280
     0
281
     0
  0
ENDSEC
  0
SECTION
  2
TABLES
  0
TABLE
  2
VPORT
  5
BA
100
AcDbSymbolTable
 70
     1
  0
VPORT
  5
D6
100
AcDbSymbolTableRecord
100
AcDbViewportTableRecord
  2
*ACTIVE
 70
     0
 10
0.0
 20
0.0
 11
1.0
 21
1.0
 12
6.635210615194122
 22
12.00101371175614
 13
0.0
 23
0.0
 14
0.5
 24
0.5
 15
0.5
 25
0.5
 16
0.0
 26
0.0
 36
1.0
 17
0.0
 27
0.0
 37
0.0
 40
24.17168939261733
 41
1.457627118644067
 42
50.0
 43
0.0
 44
0.0
 50
0.0
 51
0.0
 71
     0
 72
   100
 73
     1
 74
     3
 75
     0
 76
     0
 77
     0
 78
     0
  0
ENDTAB
  0
TABLE
  2
LTYPE
  5
B3
100
AcDbSymbolTable
 70
     2
  0
LTYPE
  5
B4
102
{ACAD_XDICTIONARY
360
B5
102
}
100
AcDbSymbolTableRecord
100
AcDbLinetypeTableRecord
  2
BYBLOCK
 70
     0
  3

 72
    65
 73
     0
 40
0.0
  0
LTYPE
  5
B6
102
{ACAD_XDICTIONARY
360
B7
102
}
100
AcDbSymbolTableRecord
100
AcDbLinetypeTableRecord
  2
BYLAYER
 70
     0
  3

 72
    65
 73
     0
 40
0.0
  0
LTYPE
  5
5
102
{ACAD_XDICTIONARY
360
6
102
}
100
AcDbSymbolTableRecord
100
AcDbLinetypeTableRecord
  2
CONTINUOUS
 70
     0
  3
Solid line
 72
    65
 73
     0
 40
0.0
  0
LTYPE
  5
7F
100
AcDbSymbolTableRecord
100
AcDbLinetypeTableRecord
  2
HIDDEN
 70
     0
  3
Hidden __ __ __ __ __ __ __ __ __ __ __ __ __ _
 72
    65
 73
     2
 40
0.375
 49
0.25
 74
     0
 49
-0.125
 74
     0
  0
ENDTAB
  0
TABLE
  2
LAYER
  5
B1
100
AcDbSymbolTable
 70
     5
  0
LAYER
  5
45
100
AcDbSymbolTableRecord
100
AcDbLayerTableRecord
  2
0
 70
     0
 62
     7
  6
CONTINUOUS
  0
LAYER
  5
4
100
AcDbSymbolTableRecord
100
AcDbLayerTableRecord
  2
USP
 70
     0
 62
     7
  6
CONTINUOUS
  0
LAYER
  5
7E
100
AcDbSymbolTableRecord
100
AcDbLayerTableRecord
  2
USP-HID
 70
     0
 62
     7
  6
HIDDEN
  0
LAYER
  5
D
100
AcDbSymbolTableRecord
100
AcDbLayerTableRecord
  2
USP-GEO
 70
     0
 62
     7
  6
CONTINUOUS
  0
LAYER
  5
9
100
AcDbSymbolTableRecord
100
AcDbLayerTableRecord
  2
USP-TXT
 70
     0
 62
     7
  6
CONTINUOUS
  0
ENDTAB
  0
TABLE
  2
STYLE
  5
B2
100
AcDbSymbolTable
 70
     1
  0
STYLE
  5
A
102
{ACAD_XDICTIONARY
360
B
102
}
100
AcDbSymbolTableRecord
100
AcDbTextStyleTableRecord
  2
STANDARD
 70
     0
 40
0.0
 41
1.0
 50
0.0
 71
     0
 42
0.375
  3
txt
  4

  0
ENDTAB
  0
TABLE
  2
VIEW
  5
B8
100
AcDbSymbolTable
 70
     0
  0
ENDTAB
  0
TABLE
  2
UCS
  5
B9
100
AcDbSymbolTable
 70
     0
  0
ENDTAB
  0
TABLE
  2
APPID
  5
BC
100
AcDbSymbolTable
 70
     1
  0
APPID
  5
BD
100
AcDbSymbolTableRecord
100
AcDbRegAppTableRecord
  2
ACAD
 70
     0
  0
ENDTAB
  0
TABLE
  2
DIMSTYLE
  5
BE
100
AcDbSymbolTable
 70
     1
  0
DIMSTYLE
105
C7
102
{ACAD_XDICTIONARY
360
C8
102
}
100
AcDbSymbolTableRecord
100
AcDbDimStyleTableRecord
  2
STANDARD
 70
     0
  3

  4

  5

  6

  7

 40
1.0
 41
0.18
 42
0.0625
 43
0.38
 44
0.18
 45
0.0
 46
0.0
 47
0.0
 48
0.0
140
0.18
141
0.09
142
0.0
143
25.4
144
1.0
145
0.0
146
1.0
147
0.09
 71
     0
 72
     0
 73
     1
 74
     1
 75
     0
 76
     0
 77
     0
 78
     0
170
     0
171
     2
172
     0
173
     0
174
     0
175
     0
176
     0
177
     0
178
     0
270
     2
271
     4
272
     4
273
     2
274
     2
340
A
275
     0
280
     0
281
     0
282
     0
283
     1
284
     0
285
     0
286
     0
287
     3
288
     0
  0
ENDTAB
  0
TABLE
  2
BLOCK_RECORD
  5
1
100
AcDbSymbolTable
 70
     3
  0
BLOCK_RECORD
  5
2
102
{ACAD_XDICTIONARY
360
A8
102
}
100
AcDbSymbolTableRecord
100
AcDbBlockTableRecord
  2
*MODEL_SPACE
  0
BLOCK_RECORD
  5
AC
102
{ACAD_XDICTIONARY
360
AD
102
}
100
AcDbSymbolTableRecord
100
AcDbBlockTableRecord
  2
*PAPER_SPACE
  0
BLOCK_RECORD
  5
7
100
AcDbSymbolTableRecord
100
AcDbBlockTableRecord
  2
TDX8_T
  0
BLOCK_RECORD
  5
48
100
AcDbSymbolTableRecord
100
AcDbBlockTableRecord
  2
TDX8_F
  0
BLOCK_RECORD
  5
7A
100
AcDbSymbolTableRecord
100
AcDbBlockTableRecord
  2
TDX8_S
  0
ENDTAB
  0
ENDSEC
  0
SECTION
  2
BLOCKS
  0
BLOCK
  5
AA
100
AcDbEntity
  8
0
100
AcDbBlockBegin
  2
*MODEL_SPACE
 70
     0
 10
0.0
 20
0.0
 30
0.0
  3
*MODEL_SPACE
  1

  0
ENDBLK
  5
AB
100
AcDbEntity
  8
0
100
AcDbBlockEnd
  0
BLOCK
  5
AF
100
AcDbEntity
 67
     1
  8
0
100
AcDbBlockBegin
  2
*PAPER_SPACE
 70
     0
 10
0.0
 20
0.0
 30
0.0
  3
*PAPER_SPACE
  1

  0
ENDBLK
  5
B0
100
AcDbEntity
 67
     1
  8
0
100
AcDbBlockEnd
  0
BLOCK
  5
44
100
AcDbEntity
  8
0
100
AcDbBlockBegin
  2
TDX8_T
 70
     0
 10
0.0
 20
0.0
 30
0.0
  3
TDX8_T
  1

  0
TEXT
  5
8
100
AcDbEntity
  8
USP-TXT
100
AcDbText
 10
-0.8286469649943981
 20
-1.306960893248437
 30
0.0
 40
0.375
  1
TDX8 - TOP VIEW
 72
     1
 11
1.983853035005601
 21
-1.306960893248437
 31
0.0
100
AcDbText
  0
LINE
  5
C
100
AcDbEntity
  8
USP-GEO
100
AcDbLine
 10
0.429000000000201
 20
3.164528180024582
 30
0.0
 11
1.727531377058951
 21
3.007978431628806
 31
0.0
  0
LINE
  5
E
100
AcDbEntity
  8
USP-GEO
100
AcDbLine
 10
3.238147156010327
 20
3.629809074504478
 30
0.0
 11
0.2608528439900937
 21
3.629809074504478
 31
0.0
  0
LINE
  5
F
100
AcDbEntity
  8
USP-GEO
100
AcDbLine
 10
0.2608528439900937
 20
3.45080907450448
 30
0.0
 11
3.238147156010327
 21
3.45080907450448
 31
0.0
  0
LINE
  5
10
100
AcDbEntity
  8
USP-GEO
100
AcDbLine
 10
3.070000000000206
 20
3.178047767912978
 30
0.0
 11
0.4790000000002124
 21
2.849809444288805
 31
0.0
  0
LINE
  5
11
100
AcDbEntity
  8
USP-GEO
100
AcDbLine
 10
0.4790000000002124
 20
-0.0407067370113161
 30
0.0
 11
3.488706070010991
 21
0.0010132355930637
 31
0.0
  0
LINE
  5
12
100
AcDbEntity
  8
USP-GEO
100
AcDbLine
 10
0.000000000000199
 20
3.45080907450448
 30
0.0
 11
0.000000000000199
 21
2.767524793174533
 31
0.0
  0
LINE
  5
13
100
AcDbEntity
  8
USP-GEO
100
AcDbLine
 10
0.179000000000201
 20
3.45080907450448
 30
0.0
 11
0.179000000000201
 21
2.767524793174533
 31
0.0
  0
LINE
  5
14
100
AcDbEntity
  8
USP-GEO
100
AcDbLine
 10
0.4790000000002124
 20
2.849809444288805
 30
0.0
 11
0.4790000000002124
 21
-0.0407067370113161
 31
0.0
  0
LINE
  5
15
100
AcDbEntity
  8
USP-GEO
100
AcDbLine
 10
0.000000000000199
 20
2.693550401305149
 30
0.0
 11
0.000000000000199
 21
0.3323437673018255
 31
0.0
  0
LINE
  5
16
100
AcDbEntity
  8
USP-GEO
100
AcDbLine
 10
0.179000000000201
 20
0.3323437673018255
 30
0.0
 11
0.179000000000201
 21
2.693550401305149
 31
0.0
  0
LINE
  5
17
100
AcDbEntity
  8
USP-GEO
100
AcDbLine
 10
0.4790000000002124
 20
-0.0071813369942042
 30
0.0
 11
0.0102939299892455
 21
-0.0010614529215083
 31
0.0
  0
LINE
  5
18
100
AcDbEntity
  8
USP-GEO
100
AcDbLine
 10
0.429000000000201
 20
-0.0009270453210739
 30
0.0
 11
0.0102939299892455
 21
-0.0009270453210739
 31
0.0
  0
LINE
  5
19
100
AcDbEntity
  8
USP-GEO
100
AcDbLine
 10
0.000000000000199
 20
0.332343767301829
 30
0.0
 11
0.000000000000199
 21
0.0215011965841754
 31
0.0
  0
LINE
  5
1A
100
AcDbEntity
  8
USP-GEO
100
AcDbLine
 10
0.0102939299892455
 20
-0.0010614529215083
 30
0.0
 11
0.0102939299892455
 21
-0.0009270453210739
 31
0.0
  0
ELLIPSE
  5
1B
100
AcDbEntity
  8
USP-GEO
100
AcDbEllipse
 10
0.25
 20
0.0
 30
0.0
 11
-0.25
 21
0.0
 31
0.0
210
0.0
220
0.0
230
1.0
 40
0.0130569763531285
 41
-0.0000000000000018
 42
0.2879633228747224
  0
LINE
  5
1C
100
AcDbEntity
  8
USP-GEO
100
AcDbLine
 10
0.000000000000199
 20
0.0215011965841718
 30
0.0
 11
0.000000000000199
 21
0.0
 31
0.0
  0
ELLIPSE
  5
1D
100
AcDbEntity
  8
USP-GEO
100
AcDbEllipse
 10
0.429000000000201
 20
0.0023371987672078
 30
0.0
 11
0.25
 21
0.0
 31
0.0
210
0.0
220
0.0
230
1.0
 40
0.0130569763531285
 41
3.141592653589777
 42
4.712388980384718
  0
LINE
  5
1E
100
AcDbEntity
  8
USP-GEO
100
AcDbLine
 10
0.179000000000201
 20
0.0215011965841754
 30
0.0
 11
0.179000000000201
 21
0.332343767301829
 31
0.0
  0
LINE
  5
1F
100
AcDbEntity
  8
USP-GEO
100
AcDbLine
 10
0.179000000000201
 20
0.0023371987672078
 30
0.0
 11
0.179000000000201
 21
0.0215011965841718
 31
0.0
  0
LINE
  5
20
100
AcDbEntity
  8
USP-GEO
100
AcDbLine
 10
0.000000000000199
 20
2.76752479317453
 30
0.0
 11
0.000000000000199
 21
2.693550401305152
 31
0.0
  0
LINE
  5
21
100
AcDbEntity
  8
USP-GEO
100
AcDbLine
 10
0.179000000000201
 20
2.76752479317453
 30
0.0
 11
0.179000000000201
 21
2.693550401305152
 31
0.0
  0
LINE
  5
22
100
AcDbEntity
  8
USP-GEO
100
AcDbLine
 10
0.2608528439900795
 20
3.629809074504478
 30
0.0
 11
0.0408337380640518
 21
3.629809074504478
 31
0.0
  0
LINE
  5
23
100
AcDbEntity
  8
USP-GEO
100
AcDbLine
 10
0.0408337380640518
 20
3.45080907450448
 30
0.0
 11
0.2608528439900795
 21
3.45080907450448
 31
0.0
  0
LINE
  5
24
100
AcDbEntity
  8
USP-GEO
100
AcDbLine
 10
0.0408337380640518
 20
3.45080907450448
 30
0.0
 11
0.0408337380640518
 21
3.629809074504478
 31
0.0
  0
LINE
  5
25
100
AcDbEntity
  8
USP-GEO
100
AcDbLine
 10
0.000000000000199
 20
3.629809074504482
 30
0.0
 11
0.000000000000199
 21
3.45080907450448
 31
0.0
  0
LINE
  5
26
100
AcDbEntity
  8
USP-GEO
100
AcDbLine
 10
0.0408337380640518
 20
3.45080907450448
 30
0.0
 11
0.000000000000199
 21
3.45080907450448
 31
0.0
  0
LINE
  5
27
100
AcDbEntity
  8
USP-GEO
100
AcDbLine
 10
0.0408337380640518
 20
3.629809074504482
 30
0.0
 11
0.000000000000199
 21
3.629809074504482
 31
0.0
  0
LINE
  5
28
100
AcDbEntity
  8
USP-GEO
100
AcDbLine
 10
0.429000000000201
 20
3.164528180024582
 30
0.0
 11
0.179000000000201
 21
3.194667950068179
 31
0.0
  0
LINE
  5
29
100
AcDbEntity
  8
USP-GEO
100
AcDbLine
 10
3.320000000000206
 20
3.450809074504466
 30
0.0
 11
3.320000000000206
 21
2.767524793174533
 31
0.0
  0
LINE
  5
2A
100
AcDbEntity
  8
USP-GEO
100
AcDbLine
 10
3.499000000000208
 20
2.767524793174533
 30
0.0
 11
3.499000000000208
 21
3.450809074504466
 31
0.0
  0
ARC
  5
2B
100
AcDbEntity
  8
USP-GEO
100
AcDbCircle
 10
1.744905801179385
 20
1.532774244388559
 30
0.0
 40
0.4690000000000003
100
AcDbArc
 50
179.9999999999989
 51
0.0000000000004071
  0
ARC
  5
2C
100
AcDbEntity
  8
USP-GEO
100
AcDbCircle
 10
1.744905801179385
 20
1.719774244388563
 30
0.0
 40
0.4690000000000003
100
AcDbArc
 50
359.9999999999987
 51
180.0
  0
LINE
  5
2D
100
AcDbEntity
  8
USP-GEO
100
AcDbLine
 10
3.019999999999996
 20
-0.0403591139074813
 30
0.0
 11
1.724427636670355
 21
-0.0234428561957287
 31
0.0
  0
LINE
  5
2E
100
AcDbEntity
  8
USP-GEO
100
AcDbLine
 10
1.275905801179391
 20
1.532774244388566
 30
0.0
 11
1.275905801179391
 21
1.719774244388563
 31
0.0
  0
LINE
  5
2F
100
AcDbEntity
  8
USP-GEO
100
AcDbLine
 10
3.320000000000206
 20
0.3323437673018361
 30
0.0
 11
3.320000000000206
 21
2.693550401305149
 31
0.0
  0
LINE
  5
30
100
AcDbEntity
  8
USP-GEO
100
AcDbLine
 10
3.499000000000208
 20
0.3323437673018361
 30
0.0
 11
3.499000000000208
 21
2.693550401305149
 31
0.0
  0
LINE
  5
31
100
AcDbEntity
  8
USP-GEO
100
AcDbLine
 10
3.019999999999996
 20
-0.0054838787249132
 30
0.0
 11
3.019999999999996
 21
-0.0403591139074813
 31
0.0
  0
LINE
  5
32
100
AcDbEntity
  8
USP-GEO
100
AcDbLine
 10
3.488706070010991
 20
0.0011559280909843
 30
0.0
 11
3.070000000000206
 21
0.0011559280909843
 31
0.0
  0
ELLIPSE
  5
33
100
AcDbEntity
  8
USP-GEO
100
AcDbEllipse
 10
3.070000000000206
 20
0.0046213805001152
 30
0.0
 11
0.25
 21
0.0
 31
0.0
210
0.0
220
0.0
230
1.0
 40
0.0138618096365286
 41
-1.570796326794896
 42
0.0000000000000018
  0
LINE
  5
34
100
AcDbEntity
  8
USP-GEO
100
AcDbLine
 10
3.320000000000206
 20
0.0046213805001152
 30
0.0
 11
3.320000000000206
 21
0.0215011965841718
 31
0.0
  0
LINE
  5
35
100
AcDbEntity
  8
USP-GEO
100
AcDbLine
 10
3.320000000000206
 20
0.332343767301829
 30
0.0
 11
3.320000000000206
 21
0.0215011965841754
 31
0.0
  0
LINE
  5
36
100
AcDbEntity
  8
USP-GEO
100
AcDbLine
 10
3.499000000000208
 20
0.0215011965841754
 30
0.0
 11
3.499000000000208
 21
0.332343767301829
 31
0.0
  0
ELLIPSE
  5
37
100
AcDbEntity
  8
USP-GEO
100
AcDbEllipse
 10
3.249000000000236
 20
0.0021401165751769
 30
0.0
 11
-0.25
 21
-0.000000000000002
 31
0.0
210
0.0
220
0.0
230
1.0
 40
0.0138618096365286
 41
2.853629330714556
 42
3.141592653589198
  0
LINE
  5
38
100
AcDbEntity
  8
USP-GEO
100
AcDbLine
 10
3.488706070010991
 20
0.0011559280909843
 30
0.0
 11
3.488706070010991
 21
0.0010132355930637
 31
0.0
  0
LINE
  5
39
100
AcDbEntity
  8
USP-GEO
100
AcDbLine
 10
3.499000000000208
 20
0.0021401165751769
 30
0.0
 11
3.499000000000208
 21
0.0215011965841718
 31
0.0
  0
LINE
  5
3A
100
AcDbEntity
  8
USP-GEO
100
AcDbLine
 10
2.213905801179379
 20
1.719774244388563
 30
0.0
 11
2.213905801179379
 21
1.532774244388559
 31
0.0
  0
LINE
  5
3B
100
AcDbEntity
  8
USP-GEO
100
AcDbLine
 10
3.320000000000206
 20
2.693550401305152
 30
0.0
 11
3.320000000000206
 21
2.76752479317453
 31
0.0
  0
LINE
  5
3C
100
AcDbEntity
  8
USP-GEO
100
AcDbLine
 10
3.499000000000208
 20
2.693550401305152
 30
0.0
 11
3.499000000000208
 21
2.76752479317453
 31
0.0
  0
LINE
  5
3D
100
AcDbEntity
  8
USP-GEO
100
AcDbLine
 10
3.238147156010327
 20
3.629809074504478
 30
0.0
 11
3.461664648454259
 21
3.629809074504478
 31
0.0
  0
LINE
  5
3E
100
AcDbEntity
  8
USP-GEO
100
AcDbLine
 10
3.238147156010327
 20
3.45080907450448
 30
0.0
 11
3.461664648454259
 21
3.45080907450448
 31
0.0
  0
LINE
  5
3F
100
AcDbEntity
  8
USP-GEO
100
AcDbLine
 10
3.320000000000206
 20
3.209718775595757
 30
0.0
 11
3.070000000000206
 21
3.178047767912993
 31
0.0
  0
LINE
  5
40
100
AcDbEntity
  8
USP-GEO
100
AcDbLine
 10
3.461664648454259
 20
3.629809074504468
 30
0.0
 11
3.499000000000208
 21
3.629809074504468
 31
0.0
  0
LINE
  5
41
100
AcDbEntity
  8
USP-GEO
100
AcDbLine
 10
3.461664648454259
 20
3.450809074504466
 30
0.0
 11
3.499000000000208
 21
3.450809074504466
 31
0.0
  0
LINE
  5
42
100
AcDbEntity
  8
USP-GEO
100
AcDbLine
 10
3.499000000000208
 20
3.450809074504466
 30
0.0
 11
3.499000000000208
 21
3.629809074504468
 31
0.0
  0
LINE
  5
43
100
AcDbEntity
  8
USP-GEO
100
AcDbLine
 10
3.461664648454259
 20
3.450809074504466
 30
0.0
 11
3.461664648454259
 21
3.629809074504468
 31
0.0
  0
ENDBLK
  5
46
100
AcDbEntity
  8
0
100
AcDbBlockEnd
  0
BLOCK
  5
77
100
AcDbEntity
  8
0
100
AcDbBlockBegin
  2
TDX8_F
 70
     0
 10
0.0
 20
0.0
 30
0.0
  3
TDX8_F
  1

  0
TEXT
  5
49
100
AcDbEntity
  8
USP-TXT
100
AcDbText
 10
-1.437999999999995
 20
-1.287114142539309
 30
0.0
 40
0.375
  1
TDX8 - FRONT VIEW
 72
     1
 11
1.749500000000004
 21
-1.287114142539309
 31
0.0
100
AcDbText
  0
CIRCLE
  5
4A
100
AcDbEntity
  8
USP-GEO
100
AcDbCircle
 10
1.749500000000011
 20
10.48561671024394
 30
-0.0000000000000002
 40
0.469
  0
LINE
  5
4B
100
AcDbEntity
  8
USP-GEO
100
AcDbLine
 10
0.0
 20
12.39169081345562
 30
-0.0000000000000004
 11
0.0
 21
6.869599995563721
 31
-0.0000000000000004
210
0.0
220
1.0
230
0.0
  0
LINE
  5
4C
100
AcDbEntity
  8
USP-GEO
100
AcDbLine
 10
3.320000000000007
 20
12.36341794285724
 30
0.0
 11
3.320000000000007
 21
6.841327124965534
 31
0.0
210
0.0
220
1.0
230
0.0
  0
LINE
  5
4D
100
AcDbEntity
  8
USP-GEO
100
AcDbLine
 10
3.499000000000009
 20
6.841327124965534
 30
0.0000000000000001
 11
3.499000000000009
 21
12.36341794285724
 31
0.0000000000000001
210
0.0
220
1.0
230
0.0
  0
LINE
  5
4E
100
AcDbEntity
  8
USP-GEO
100
AcDbLine
 10
0.179000000000002
 20
12.39169081345562
 30
-0.0000000000000003
 11
0.179000000000002
 21
6.869599995563721
 31
-0.0000000000000003
210
0.0
220
1.0
230
0.0
  0
LINE
  5
4F
100
AcDbEntity
  8
USP-GEO
100
AcDbLine
 10
0.0
 20
2.940165809324502
 30
-0.0000000000000004
 11
0.0
 21
1.896720956113384
 31
-0.0000000000000004
210
0.0
220
1.0
230
0.0
  0
LINE
  5
50
100
AcDbEntity
  8
USP-GEO
100
AcDbLine
 10
3.320000000000007
 20
2.911892938726315
 30
0.0
 11
3.320000000000007
 21
1.868448085515196
 31
0.0
210
0.0
220
1.0
230
0.0
  0
LINE
  5
51
100
AcDbEntity
  8
USP-GEO
100
AcDbLine
 10
3.499000000000009
 20
1.868448085515196
 30
0.0000000000000001
 11
3.499000000000009
 21
2.911892938726315
 31
0.0000000000000001
210
0.0
220
1.0
230
0.0
  0
LINE
  5
52
100
AcDbEntity
  8
USP-GEO
100
AcDbLine
 10
0.179000000000002
 20
1.896720956113384
 30
-0.0000000000000003
 11
0.179000000000002
 21
2.940165809324502
 31
-0.0000000000000003
210
0.0
220
1.0
230
0.0
  0
LINE
  5
53
100
AcDbEntity
  8
USP-GEO
100
AcDbLine
 10
0.249999999999801
 20
0.0
 30
-0.0000000000000003
 11
3.019999999999797
 21
0.0
 31
0.0
210
0.0
220
1.0
230
0.0
  0
LINE
  5
54
100
AcDbEntity
  8
USP-GEO
100
AcDbLine
 10
3.019999999999797
 20
0.1789999999999998
 30
0.0
 11
0.0102939299890466
 21
0.1789999999999998
 31
-0.0000000000000004
210
0.0
220
1.0
230
0.0
  0
LINE
  5
55
100
AcDbEntity
  8
USP-GEO
100
AcDbLine
 10
0.4790000000000135
 20
0.2217271294018124
 30
-0.0000000000000003
 11
3.249000000000037
 21
0.2217271294018124
 31
0.0
210
0.0
220
1.0
230
0.0
  0
LINE
  5
56
100
AcDbEntity
  8
USP-GEO
100
AcDbLine
 10
0.4790000000000135
 20
0.4007271294018122
 30
-0.0000000000000003
 11
3.488706070010792
 21
0.4007271294018122
 31
0.0000000000000001
210
0.0
220
1.0
230
0.0
  0
ARC
  5
57
100
AcDbEntity
  8
USP-GEO
100
AcDbCircle
 10
0.4290000000000021
 20
0.4289999999999994
 30
-0.0000000000000003
 40
0.25
100
AcDbArc
 50
179.9999999999991
 51
270.0
  0
LINE
  5
58
100
AcDbEntity
  8
USP-GEO
100
AcDbLine
 10
0.4790000000000135
 20
0.4007271294018122
 30
-0.0000000000000003
 11
0.4790000000000135
 21
0.2217271294018124
 31
-0.0000000000000003
210
0.0
220
1.0
230
0.0
  0
LINE
  5
59
100
AcDbEntity
  8
USP-GEO
100
AcDbLine
 10
0.0
 20
1.896720956113384
 30
-0.0000000000000004
 11
0.0
 21
0.25
 31
-0.0000000000000004
210
0.0
220
1.0
230
0.0
  0
ARC
  5
5A
100
AcDbEntity
  8
USP-GEO
100
AcDbCircle
 10
0.249999999999801
 20
0.25
 30
-0.0000000000000003
 40
0.25
100
AcDbArc
 50
196.4990830552845
 51
270.0
  0
ARC
  5
5B
100
AcDbEntity
  8
USP-GEO
100
AcDbCircle
 10
0.249999999999801
 20
0.25
 30
-0.0000000000000003
 40
0.25
100
AcDbArc
 50
179.9999999999998
 51
196.4990830552843
  0
LINE
  5
5C
100
AcDbEntity
  8
USP-GEO
100
AcDbLine
 10
0.179000000000002
 20
0.4289999999999994
 30
-0.0000000000000003
 11
0.179000000000002
 21
1.896720956113384
 31
-0.0000000000000003
210
0.0
220
1.0
230
0.0
  0
ARC
  5
5D
100
AcDbEntity
  8
USP-GEO
100
AcDbCircle
 10
3.249000000000037
 20
0.471727129401812
 30
0.0
 40
0.25
100
AcDbArc
 50
270.0
 51
343.5009169447154
  0
ARC
  5
5E
100
AcDbEntity
  8
USP-GEO
100
AcDbCircle
 10
3.070000000000007
 20
0.6507271294018127
 30
0.0
 40
0.25
100
AcDbArc
 50
270.0
 51
0.0000000000001272
  0
LINE
  5
5F
100
AcDbEntity
  8
USP-GEO
100
AcDbLine
 10
3.019999999999797
 20
0.1789999999999998
 30
0.0
 11
3.019999999999797
 21
0.0
 31
0.0
210
0.0
220
1.0
230
0.0
  0
LINE
  5
60
100
AcDbEntity
  8
USP-GEO
100
AcDbLine
 10
3.320000000000007
 20
0.6507271294018127
 30
0.0
 11
3.320000000000007
 21
1.868448085515196
 31
0.0
210
0.0
220
1.0
230
0.0
  0
LINE
  5
61
100
AcDbEntity
  8
USP-GEO
100
AcDbLine
 10
3.499000000000009
 20
0.4717271294018133
 30
0.0000000000000001
 11
3.499000000000009
 21
1.868448085515196
 31
0.0000000000000001
210
0.0
220
1.0
230
0.0
  0
ARC
  5
62
100
AcDbEntity
  8
USP-GEO
100
AcDbCircle
 10
3.249000000000037
 20
0.471727129401812
 30
0.0
 40
0.25
100
AcDbArc
 50
343.5009169446822
 51
359.9999999999662
  0
ARC
  5
63
100
AcDbEntity
  8
USP-GEO
100
AcDbCircle
 10
1.749500000000011
 20
3.98561671024394
 30
-0.0000000000000002
 40
1.5
100
AcDbArc
 50
0.0
 51
179.9999999999991
  0
LINE
  5
64
100
AcDbEntity
  8
USP-GEO
100
AcDbLine
 10
0.0
 20
6.663208547668872
 30
-0.0000000000000004
 11
0.0
 21
2.940165809324504
 31
-0.0000000000000004
210
0.0
220
1.0
230
0.0
  0
LINE
  5
65
100
AcDbEntity
  8
USP-GEO
100
AcDbLine
 10
0.179000000000002
 20
2.940165809324504
 30
-0.0000000000000003
 11
0.179000000000002
 21
6.663208547668872
 31
-0.0000000000000003
210
0.0
220
1.0
230
0.0
  0
LINE
  5
66
100
AcDbEntity
  8
USP-GEO
100
AcDbLine
 10
0.2495000000000118
 20
3.985616710243942
 30
-0.0000000000000003
 11
0.1789999999999878
 21
3.429114050886076
 31
-0.0000000000000003
210
0.0
220
1.0
230
0.0
  0
LINE
  5
67
100
AcDbEntity
  8
USP-GEO
100
AcDbLine
 10
0.0
 20
6.869599995563723
 30
-0.0000000000000004
 11
0.0
 21
6.663208547668869
 31
-0.0000000000000004
210
0.0
220
1.0
230
0.0
  0
LINE
  5
68
100
AcDbEntity
  8
USP-GEO
100
AcDbLine
 10
0.179000000000002
 20
6.869599995563723
 30
-0.0000000000000003
 11
0.179000000000002
 21
6.663208547668869
 31
-0.0000000000000003
210
0.0
220
1.0
230
0.0
  0
LINE
  5
69
100
AcDbEntity
  8
USP-GEO
100
AcDbLine
 10
3.320000000000007
 20
2.911892938726311
 30
0.0
 11
3.320000000000007
 21
6.634935677070686
 31
0.0
210
0.0
220
1.0
230
0.0
  0
LINE
  5
6A
100
AcDbEntity
  8
USP-GEO
100
AcDbLine
 10
3.499000000000009
 20
2.911892938726311
 30
0.0000000000000001
 11
3.499000000000009
 21
6.634935677070686
 31
0.0000000000000001
210
0.0
220
1.0
230
0.0
  0
LINE
  5
6B
100
AcDbEntity
  8
USP-GEO
100
AcDbLine
 10
3.320000000000007
 20
3.400841180287853
 30
0.0
 11
3.249500000000011
 21
3.98561671024394
 31
0.0
210
0.0
220
1.0
230
0.0
  0
CIRCLE
  5
6C
100
AcDbEntity
  8
USP-GEO
100
AcDbCircle
 10
1.749500000000011
 20
6.985616710243942
 30
-0.0000000000000002
 40
0.469
  0
LINE
  5
6D
100
AcDbEntity
  8
USP-GEO
100
AcDbLine
 10
3.320000000000007
 20
6.634935677070682
 30
0.0
 11
3.320000000000007
 21
6.841327124965534
 31
0.0
210
0.0
220
1.0
230
0.0
  0
LINE
  5
6E
100
AcDbEntity
  8
USP-GEO
100
AcDbLine
 10
3.499000000000009
 20
6.634935677070682
 30
0.0000000000000001
 11
3.499000000000009
 21
6.841327124965534
 31
0.0000000000000001
210
0.0
220
1.0
230
0.0
  0
ARC
  5
6F
100
AcDbEntity
  8
USP-GEO
100
AcDbCircle
 10
1.749500000000011
 20
13.98561671024394
 30
-0.0000000000000002
 40
1.5
100
AcDbArc
 50
7.05372675219064
 51
172.9462732478092
  0
LINE
  5
70
100
AcDbEntity
  8
USP-GEO
100
AcDbLine
 10
0.0408337380638528
 20
12.39169081345562
 30
-0.0000000000000004
 11
0.2608528439898805
 21
14.16981672355277
 31
-0.0000000000000003
210
0.0
220
1.0
230
0.0
  0
LINE
  5
71
100
AcDbEntity
  8
USP-GEO
100
AcDbLine
 10
0.179000000000002
 20
12.39169081345562
 30
-0.0000000000000003
 11
0.0408337380638528
 21
12.39169081345562
 31
-0.0000000000000004
210
0.0
220
1.0
230
0.0
  0
LINE
  5
72
100
AcDbEntity
  8
USP-GEO
100
AcDbLine
 10
0.0408337380638528
 20
12.39169081345562
 30
-0.0000000000000004
 11
0.0
 21
12.39169081345562
 31
-0.0000000000000004
210
0.0
220
1.0
230
0.0
  0
CIRCLE
  5
73
100
AcDbEntity
  8
USP-GEO
100
AcDbCircle
 10
1.749500000000011
 20
13.98561671024394
 30
-0.0000000000000002
 40
0.469
  0
LINE
  5
74
100
AcDbEntity
  8
USP-GEO
100
AcDbLine
 10
3.238147156010128
 20
14.16981672355277
 30
0.0
 11
3.46166464845406
 21
12.36341794285724
 31
0.0000000000000001
210
0.0
220
1.0
230
0.0
  0
LINE
  5
75
100
AcDbEntity
  8
USP-GEO
100
AcDbLine
 10
3.320000000000007
 20
12.36341794285736
 30
0.0
 11
3.46166464845406
 21
12.36341794285736
 31
0.0000000000000001
210
0.0
220
1.0
230
0.0
  0
LINE
  5
76
100
AcDbEntity
  8
USP-GEO
100
AcDbLine
 10
3.46166464845406
 20
12.36341794285724
 30
0.0000000000000001
 11
3.499000000000009
 21
12.36341794285724
 31
0.0000000000000001
210
0.0
220
1.0
230
0.0
  0
ENDBLK
  5
78
100
AcDbEntity
  8
0
100
AcDbBlockEnd
  0
BLOCK
  5
A6
100
AcDbEntity
  8
0
100
AcDbBlockBegin
  2
TDX8_S
 70
     0
 10
0.0
 20
0.0
 30
0.0
  3
TDX8_S
  1

  0
LINE
  5
7B
100
AcDbEntity
  8
USP-GEO
100
AcDbLine
 10
0.0
 20
3.429114050886075
 30
-0.0000000000000001
 11
0.0
 21
12.39169081345562
 31
-0.0000000000000001
210
0.0
220
1.0
230
0.0
  0
LINE
  5
7C
100
AcDbEntity
  8
USP-GEO
100
AcDbLine
 10
0.179000000000002
 20
12.39169081345562
 30
0.0
 11
0.8622842813299484
 21
6.869599995563721
 31
0.0000000000000001
210
0.0
220
1.0
230
0.0
  0
LINE
  5
7D
100
AcDbEntity
  8
USP-HID
100
AcDbLine
 10
0.179000000000002
 20
12.39169081345562
 30
0.0
 11
0.179000000000002
 21
3.429114050886074
 31
0.0
  0
TEXT
  5
80
100
AcDbEntity
  8
USP-TXT
100
AcDbText
 10
-1.120499818043089
 20
-1.287114142539309
 30
0.0000000000000006
 40
0.375
  1
TDX8 - SIDE VIEW
 72
     1
 11
1.81700018195691
 21
-1.287114142539309
 31
0.0000000000000006
100
AcDbText
  0
LINE
  5
81
100
AcDbEntity
  8
USP-GEO
100
AcDbLine
 10
0.1084999999999923
 20
2.84072712940181
 30
-0.0000000000000001
 11
0.1789999999997498
 21
2.284224470045931
 31
0.0
210
0.0
220
1.0
230
0.0
  0
ARC
  5
82
100
AcDbEntity
  8
USP-GEO
100
AcDbCircle
 10
1.608499999999992
 20
1.868999999999996
 30
0.0000000000000002
 40
2.0
100
AcDbArc
 50
0.794172324518214
 51
32.38345121011289
  0
LINE
  5
83
100
AcDbEntity
  8
USP-GEO
100
AcDbLine
 10
0.4242442309766937
 20
0.2499999999999996
 30
0.0
 11
0.1084999999999923
 21
2.868999999999994
 31
-0.0000000000000001
210
0.0
220
1.0
230
0.0
  0
LINE
  5
84
100
AcDbEntity
  8
USP-GEO
100
AcDbLine
 10
0.4437008191286616
 20
0.0
 30
0.0
 11
3.63400036391382
 21
0.0
 31
0.0000000000000006
210
0.0
220
1.0
230
0.0
  0
LINE
  5
85
100
AcDbEntity
  8
USP-HID
100
AcDbLine
 10
3.630736119825556
 20
0.1789999999999998
 30
0.0000000000000006
 11
0.4328039256690666
 21
0.1789999999999998
 31
0.0000000000000006
  0
LINE
  5
86
100
AcDbEntity
  8
USP-HID
100
AcDbLine
 10
3.630178232707319
 20
0.2217271294018124
 30
0.0000000000000006
 11
0.4276527822499006
 21
0.2217271294018124
 31
0.0000000000000006
  0
LINE
  5
87
100
AcDbEntity
  8
USP-HID
100
AcDbLine
 10
3.627841033940111
 20
0.4007271294018122
 30
0.0000000000000006
 11
0.4276527822499006
 21
0.4007271294018118
 31
0.0000000000000006
  0
LINE
  5
88
100
AcDbEntity
  8
USP-GEO
100
AcDbLine
 10
0.4276527822499006
 20
0.2217271294018124
 30
0.0000000000000006
 11
0.4276527822499006
 21
0.4007271294018118
 31
0.0000000000000006
  0
LINE
  5
89
100
AcDbEntity
  8
USP-GEO
100
AcDbLine
 10
0.4242442309766937
 20
0.25
 30
0.0
 11
0.4351411244362815
 21
0.1596136645715096
 31
0.0
210
0.0
220
1.0
230
0.0
  0
ELLIPSE
  5
8A
100
AcDbEntity
  8
USP-GEO
100
AcDbEllipse
 10
0.4437008191286616
 20
0.25
 30
0.0
 11
-0.0000000000000001
 21
-0.25
 31
0.0
210
-0.0000000000000002
220
0.0
230
1.0
 40
0.120559080174381
 41
-0.2879633228747511
 42
0.0000000000000018
  0
LINE
  5
8B
100
AcDbEntity
  8
USP-GEO
100
AcDbLine
 10
0.4351411244362815
 20
0.1596136645715145
 30
0.0
 11
0.4351411244362744
 21
0.0102939299892508
 31
0.0
210
0.0
220
1.0
230
0.0
  0
LINE
  5
8C
100
AcDbEntity
  8
USP-GEO
100
AcDbLine
 10
3.670515811515798
 20
0.4007271294018122
 30
0.0000000000000006
 11
3.670515811515798
 21
0.2217271294018124
 31
0.0000000000000006
210
0.0
220
1.0
230
0.0
  0
LINE
  5
8D
100
AcDbEntity
  8
USP-GEO
100
AcDbLine
 10
3.60830787792031
 20
1.896720956113384
 30
0.0000000000000006
 11
3.629809074504482
 21
0.25
 31
0.0000000000000006
210
0.0
220
1.0
230
0.0
  0
LINE
  5
8E
100
AcDbEntity
  8
USP-GEO
100
AcDbLine
 10
3.630178232707319
 20
0.2217271294018124
 30
0.0000000000000006
 11
3.670515811515798
 21
0.2217271294018124
 31
0.0000000000000006
210
0.0
220
1.0
230
0.0
  0
LINE
  5
8F
100
AcDbEntity
  8
USP-GEO
100
AcDbLine
 10
3.670168188411963
 20
0.1789999999999998
 30
0.0000000000000006
 11
3.63087052742599
 21
0.1789999999999998
 31
0.0000000000000006
210
0.0
220
1.0
230
0.0
  0
LINE
  5
90
100
AcDbEntity
  8
USP-GEO
100
AcDbLine
 10
3.63087052742599
 20
0.1789999999999998
 30
0.0000000000000006
 11
3.630736119825556
 21
0.1789999999999998
 31
0.0000000000000006
210
0.0
220
1.0
230
0.0
  0
LINE
  5
91
100
AcDbEntity
  8
USP-GEO
100
AcDbLine
 10
3.630736119825556
 20
0.1790000000000003
 30
0.0000000000000006
 11
3.629809074504482
 21
0.25
 31
0.0000000000000006
210
0.0
220
1.0
230
0.0
  0
LINE
  5
92
100
AcDbEntity
  8
USP-GEO
100
AcDbLine
 10
3.63400036391382
 20
0.0
 30
0.0000000000000006
 11
3.670168188411963
 21
0.0
 31
0.0000000000000006
210
0.0
220
1.0
230
0.0
  0
LINE
  5
93
100
AcDbEntity
  8
USP-GEO
100
AcDbLine
 10
3.670168188411963
 20
0.1789999999999998
 30
0.0000000000000006
 11
3.670168188411963
 21
0.0
 31
0.0000000000000006
210
0.0
220
1.0
230
0.0
  0
ELLIPSE
  5
94
100
AcDbEntity
  8
USP-GEO
100
AcDbEllipse
 10
3.63400036391382
 20
0.25
 30
0.0000000000000006
 11
0.0
 21
0.25
 31
0.0
210
-0.0000000000000002
220
0.0
230
1.0
 40
0.0130569763531206
 41
1.858759649669611
 42
3.141592653589809
  0
LINE
  5
95
100
AcDbEntity
  8
USP-GEO
100
AcDbLine
 10
3.625187694004367
 20
0.6507271294018127
 30
0.0000000000000006
 11
3.614665965786471
 21
1.409771474533064
 31
0.0000000000000006
210
0.0
220
1.0
230
0.0
  0
LINE
  5
96
100
AcDbEntity
  8
USP-GEO
100
AcDbLine
 10
3.627841033940111
 20
0.4007271294018122
 30
0.0000000000000006
 11
3.670515811515798
 21
0.4007271294018122
 31
0.0000000000000006
210
0.0
220
1.0
230
0.0
  0
LINE
  5
97
100
AcDbEntity
  8
USP-GEO
100
AcDbLine
 10
3.628653146413498
 20
0.4007271294018127
 30
0.0000000000000006
 11
3.625187694004367
 21
0.6507271294018127
 31
0.0000000000000006
210
0.0
220
1.0
230
0.0
  0
LINE
  5
98
100
AcDbEntity
  8
USP-GEO
100
AcDbLine
 10
0.9362586731993332
 20
6.663208547668872
 30
0.0000000000000001
 11
3.297465307202656
 21
2.940165809324504
 31
0.0000000000000005
210
0.0
220
1.0
230
0.0
  0
ARC
  5
99
100
AcDbEntity
  8
USP-GEO
100
AcDbCircle
 10
-1.391499999999993
 20
2.868999999999996
 30
-0.0000000000000003
 40
1.5
100
AcDbArc
 50
0.0
 51
21.92603609218649
  0
ARC
  5
9A
100
AcDbEntity
  8
USP-GEO
100
AcDbCircle
 10
-1.391500000000007
 20
2.840727129401808
 30
-0.0000000000000003
 40
1.5
100
AcDbArc
 50
0.0000000000000509
 51
21.92603609218504
  0
LINE
  5
9B
100
AcDbEntity
  8
USP-HID
100
AcDbLine
 10
0.179000000000002
 20
3.429114050886075
 30
-0.0000000000000003
 11
0.0
 21
3.429114050886075
 31
-0.0000000000000003
  0
LINE
  5
9C
100
AcDbEntity
  8
USP-GEO
100
AcDbLine
 10
0.0000000000000036
 20
3.429114050886075
 30
-0.0000000000000001
 11
0.0000000000000036
 21
3.400841180287853
 31
-0.0000000000000001
210
0.0
220
1.0
230
0.0
  0
LINE
  5
9D
100
AcDbEntity
  8
USP-GEO
100
AcDbLine
 10
0.0000000000000036
 20
3.400841180287853
 30
-0.0000000000000001
 11
0.011049449734319
 21
3.400841180287853
 31
-0.0000000000000001
210
0.0
220
1.0
230
0.0
  0
LINE
  5
9E
100
AcDbEntity
  8
USP-HID
100
AcDbLine
 10
0.179000000000002
 20
5.48561671024394
 30
-0.0000000000000002
 11
0.0
 21
5.48561671024394
 31
-0.0000000000000002
  0
ARC
  5
9F
100
AcDbEntity
  8
USP-GEO
100
AcDbCircle
 10
1.358499999999992
 20
6.930999999999999
 30
0.0000000000000002
 40
0.5
100
AcDbArc
 50
187.0537267521906
 51
212.3834512101133
  0
LINE
  5
A0
100
AcDbEntity
  8
USP-GEO
100
AcDbLine
 10
0.0000000000000036
 20
14.16981672355277
 30
-0.0000000000000001
 11
0.0000000000000036
 21
12.39169081345562
 31
-0.0000000000000001
210
0.0
220
1.0
230
0.0
  0
LINE
  5
A1
100
AcDbEntity
  8
USP-GEO
100
AcDbLine
 10
0.179000000000002
 20
12.39169081345562
 30
0.0
 11
0.179000000000002
 21
14.16981672355277
 31
0.0
210
0.0
220
1.0
230
0.0
  0
LINE
  5
A2
100
AcDbEntity
  8
USP-GEO
100
AcDbLine
 10
0.0
 20
12.39169081345562
 30
-0.0000000000000001
 11
0.179000000000002
 21
12.39169081345562
 31
0.0
210
0.0
220
1.0
230
0.0
  0
LINE
  5
A3
100
AcDbEntity
  8
USP-GEO
100
AcDbLine
 10
0.0000000000000036
 20
15.48561671024394
 30
-0.0000000000000001
 11
0.179000000000002
 21
15.48561671024394
 31
0.0
210
0.0
220
1.0
230
0.0
  0
LINE
  5
A4
100
AcDbEntity
  8
USP-GEO
100
AcDbLine
 10
0.0000000000000036
 20
15.48561671024394
 30
-0.0000000000000001
 11
0.0000000000000036
 21
14.16981672355277
 31
-0.0000000000000001
210
0.0
220
1.0
230
0.0
  0
LINE
  5
A5
100
AcDbEntity
  8
USP-GEO
100
AcDbLine
 10
0.179000000000002
 20
14.16981672355277
 30
0.0
 11
0.179000000000002
 21
15.48561671024394
 31
0.0
210
0.0
220
1.0
230
0.0
  0
ENDBLK
  5
A7
100
AcDbEntity
  8
0
100
AcDbBlockEnd
  0
ENDSEC
  0
SECTION
  2
ENTITIES
  0
INSERT
  5
3
100
AcDbEntity
  8
USP
100
AcDbBlockReference
  2
TDX8_T
 10
8.337002868293041
 20
19.79279270417614
 30
0.0000000000000105
  0
INSERT
  5
47
100
AcDbEntity
  8
USP
100
AcDbBlockReference
  2
TDX8_F
 10
8.332408669472414
 20
1.288543594757065
 30
0.0000000000000107
  0
INSERT
  5
79
100
AcDbEntity
  8
USP
100
AcDbBlockReference
  2
TDX8_S
 10
1.120904758682836
 20
1.288543594757065
 30
0.0000000000000107
  0
ENDSEC
  0
SECTION
  2
OBJECTS
  0
DICTIONARY
  5
C3
102
{ACAD_XDICTIONARY
360
C4
102
}
100
AcDbDictionary
  3
ACAD_GROUP
350
C0
  3
ACAD_MLINESTYLE
350
C1
  0
DICTIONARY
  5
B5
100
AcDbDictionary
280
     1
  0
DICTIONARY
  5
B7
100
AcDbDictionary
280
     1
  0
DICTIONARY
  5
6
100
AcDbDictionary
280
     1
  0
DICTIONARY
  5
B
100
AcDbDictionary
280
     1
  0
DICTIONARY
  5
C8
100
AcDbDictionary
280
     1
  0
DICTIONARY
  5
A8
100
AcDbDictionary
280
     1
  3
ACAD_LAYOUTSELFREF
360
A9
  0
DICTIONARY
  5
AD
100
AcDbDictionary
280
     1
  3
ACAD_LAYOUTSELFREF
360
AE
  0
DICTIONARY
  5
C4
100
AcDbDictionary
280
     1
  3
ACAD_XREC_ROUNDTRIP
360
C5
  0
DICTIONARY
  5
C0
102
{ACAD_REACTORS
330
C3
102
}
100
AcDbDictionary
  0
DICTIONARY
  5
C1
102
{ACAD_XDICTIONARY
360
C2
102
}
102
{ACAD_REACTORS
330
C3
102
}
100
AcDbDictionary
  3
STANDARD
350
C6
  0
XRECORD
  5
A9
102
{ACAD_REACTORS
330
A8
102
}
100
AcDbXrecord
340
2
  0
XRECORD
  5
AE
102
{ACAD_REACTORS
330
AD
102
}
100
AcDbXrecord
340
AE
  0
XRECORD
  5
C5
102
{ACAD_REACTORS
330
C4
102
}
100
AcDbXrecord
102
EXTNAMES
  1
ACDBVARIABLEDICTIONARY
  2
AcDbVariableDictionary
  0
DICTIONARY
  5
C2
100
AcDbDictionary
280
     1
  0
MLINESTYLE
  5
C6
102
{ACAD_REACTORS
330
C1
102
}
100
AcDbMlineStyle
  2
STANDARD
 70
     0
  3

 62
   256
 51
90.0
 52
90.0
 71
     2
 49
0.5
 62
   256
  6
BYLAYER
 49
-0.5
 62
   256
  6
BYLAYER
  0
ENDSEC
  0
EOF
