  0
SECTION
  2
HEADER
  9
$ACADVER
  1
AC1014
  9
$ACADMAINTVER
 70
     9
  9
$DWGCODEPAGE
  3
ANSI_1252
  9
$INSBASE
 10
0.0
 20
0.0
 30
0.0
  9
$EXTMIN
 10
-0.0592016336105488
 20
0.0005353104508821
 30
0.0
  9
$EXTMAX
 10
12.11246657441275
 20
17.54345167234902
 30
0.0
  9
$LIMMIN
 10
0.0
 20
0.0
  9
$LIMMAX
 10
12.0
 20
9.0
  9
$ORTHOMODE
 70
     1
  9
$REGENMODE
 70
     1
  9
$FILLMODE
 70
     1
  9
$QTEXTMODE
 70
     0
  9
$MIRRTEXT
 70
     0
  9
$DRAGMODE
 70
     2
  9
$LTSCALE
 40
1.5
  9
$OSMODE
 70
     0
  9
$ATTMODE
 70
     1
  9
$TEXTSIZE
 40
0.75
  9
$TRACEWID
 40
0.05
  9
$TEXTSTYLE
  7
STANDARD
  9
$CLAYER
  8
USP
  9
$CELTYPE
  6
BYLAYER
  9
$CECOLOR
 62
   256
  9
$CELTSCALE
 40
1.0
  9
$DELOBJ
 70
     1
  9
$DISPSILH
 70
     1
  9
$DIMSCALE
 40
3.0
  9
$DIMASZ
 40
0.125
  9
$DIMEXO
 40
0.0625
  9
$DIMDLI
 40
0.37890625
  9
$DIMRND
 40
0.0
  9
$DIMDLE
 40
0.0
  9
$DIMEXE
 40
0.09375
  9
$DIMTP
 40
0.0
  9
$DIMTM
 40
0.0
  9
$DIMTXT
 40
0.109375
  9
$DIMCEN
 40
0.0
  9
$DIMTSZ
 40
0.0
  9
$DIMTOL
 70
     0
  9
$DIMLIM
 70
     0
  9
$DIMTIH
 70
     1
  9
$DIMTOH
 70
     1
  9
$DIMSE1
 70
     0
  9
$DIMSE2
 70
     0
  9
$DIMTAD
 70
     0
  9
$DIMZIN
 70
     8
  9
$DIMBLK
  1

  9
$DIMASO
 70
     1
  9
$DIMSHO
 70
     1
  9
$DIMPOST
  1

  9
$DIMAPOST
  1

  9
$DIMALT
 70
     0
  9
$DIMALTD
 70
     2
  9
$DIMALTF
 40
25.4
  9
$DIMLFAC
 40
1.0
  9
$DIMTOFL
 70
     0
  9
$DIMTVP
 40
0.0
  9
$DIMTIX
 70
     0
  9
$DIMSOXD
 70
     0
  9
$DIMSAH
 70
     0
  9
$DIMBLK1
  1

  9
$DIMBLK2
  1

  9
$DIMSTYLE
  2
STANDARD
  9
$DIMCLRD
 70
     0
  9
$DIMCLRE
 70
     0
  9
$DIMCLRT
 70
   256
  9
$DIMTFAC
 40
1.0
  9
$DIMGAP
 40
0.08984375
  9
$DIMJUST
 70
     0
  9
$DIMSD1
 70
     0
  9
$DIMSD2
 70
     0
  9
$DIMTOLJ
 70
     1
  9
$DIMTZIN
 70
     0
  9
$DIMALTZ
 70
     0
  9
$DIMALTTZ
 70
     0
  9
$DIMFIT
 70
     3
  9
$DIMUPT
 70
     1
  9
$DIMUNIT
 70
     7
  9
$DIMDEC
 70
     4
  9
$DIMTDEC
 70
     4
  9
$DIMALTU
 70
     2
  9
$DIMALTTD
 70
     2
  9
$DIMTXSTY
  7
STANDARD
  9
$DIMAUNIT
 70
     0
  9
$LUNITS
 70
     5
  9
$LUPREC
 70
     6
  9
$SKETCHINC
 40
0.1
  9
$FILLETRAD
 40
0.0
  9
$AUNITS
 70
     0
  9
$AUPREC
 70
     1
  9
$MENU
  1
CUSTOM
  9
$ELEVATION
 40
0.0
  9
$PELEVATION
 40
0.0
  9
$THICKNESS
 40
0.0
  9
$LIMCHECK
 70
     0
  9
$BLIPMODE
 70
     0
  9
$CHAMFERA
 40
0.0
  9
$CHAMFERB
 40
0.0
  9
$CHAMFERC
 40
0.0
  9
$CHAMFERD
 40
0.0
  9
$SKPOLY
 70
     0
  9
$TDCREATE
 40
2451263.663231366
  9
$TDUPDATE
 40
2452768.673367870
  9
$TDINDWG
 40
0.6216898958
  9
$TDUSRTIMER
 40
0.6216898958
  9
$USRTIMER
 70
     1
  9
$ANGBASE
 50
0.0
  9
$ANGDIR
 70
     0
  9
$PDMODE
 70
     0
  9
$PDSIZE
 40
0.0
  9
$PLINEWID
 40
0.0
  9
$COORDS
 70
     2
  9
$SPLFRAME
 70
     0
  9
$SPLINETYPE
 70
     6
  9
$SPLINESEGS
 70
     8
  9
$ATTDIA
 70
     0
  9
$ATTREQ
 70
     0
  9
$HANDLING
 70
     1
  9
$HANDSEED
  5
C8
  9
$SURFTAB1
 70
     6
  9
$SURFTAB2
 70
     6
  9
$SURFTYPE
 70
     6
  9
$SURFU
 70
     6
  9
$SURFV
 70
     6
  9
$UCSNAME
  2

  9
$UCSORG
 10
0.0
 20
0.0
 30
0.0
  9
$UCSXDIR
 10
1.0
 20
0.0
 30
0.0
  9
$UCSYDIR
 10
0.0
 20
1.0
 30
0.0
  9
$PUCSNAME
  2

  9
$PUCSORG
 10
0.0
 20
0.0
 30
0.0
  9
$PUCSXDIR
 10
1.0
 20
0.0
 30
0.0
  9
$PUCSYDIR
 10
0.0
 20
1.0
 30
0.0
  9
$USERI1
 70
     0
  9
$USERI2
 70
     0
  9
$USERI3
 70
     0
  9
$USERI4
 70
     0
  9
$USERI5
 70
     0
  9
$USERR1
 40
0.0
  9
$USERR2
 40
0.0
  9
$USERR3
 40
0.0
  9
$USERR4
 40
0.0
  9
$USERR5
 40
0.0
  9
$WORLDVIEW
 70
     1
  9
$SHADEDGE
 70
     3
  9
$SHADEDIF
 70
    70
  9
$TILEMODE
 70
     1
  9
$MAXACTVP
 70
    16
  9
$PINSBASE
 10
0.0
 20
0.0
 30
0.0
  9
$PLIMCHECK
 70
     0
  9
$PEXTMIN
 10
1.000000000000000E+20
 20
1.000000000000000E+20
 30
1.000000000000000E+20
  9
$PEXTMAX
 10
-1.000000000000000E+20
 20
-1.000000000000000E+20
 30
-1.000000000000000E+20
  9
$PLIMMIN
 10
0.0
 20
0.0
  9
$PLIMMAX
 10
12.0
 20
9.0
  9
$UNITMODE
 70
     0
  9
$VISRETAIN
 70
     0
  9
$PLINEGEN
 70
     0
  9
$PSLTSCALE
 70
     0
  9
$TREEDEPTH
 70
  3020
  9
$PICKSTYLE
 70
     0
  9
$CMLSTYLE
  2
STANDARD
  9
$CMLJUST
 70
     0
  9
$CMLSCALE
 40
1.0
  9
$PROXYGRAPHICS
 70
     1
  9
$MEASUREMENT
 70
     0
  0
ENDSEC
  0
SECTION
  2
CLASSES
  0
CLASS
  1
ACDBDICTIONARYWDFLT
  2
AcDbDictionaryWithDefault
  3
AutoCAD 2000
 90
        0
280
     0
281
     0
  0
CLASS
  1
ACDBPLACEHOLDER
  2
AcDbPlaceHolder
  3
AutoCAD 2000
 90
        0
280
     0
281
     0
  0
CLASS
  1
LAYOUT
  2
AcDbLayout
  3
AutoCAD 2000
 90
        0
280
     0
281
     0
  0
CLASS
  1
DICTIONARYVAR
  2
AcDbDictionaryVar
  3
"AutoCAD"
 90
        0
280
     0
281
     0
  0
CLASS
  1
LONG_TRANSACTION
  2
AcDbLongTransaction
  3
AutoCAD 2000
 90
        0
280
     0
281
     0
  0
CLASS
  1
LWPOLYLINE
  2
AcDbPolyline
  3
"AutoCAD"
 90
        0
280
     0
281
     1
  0
CLASS
  1
HATCH
  2
AcDbHatch
  3
"ACAD_SEDONA"
 90
        0
280
     0
281
     1
  0
CLASS
  1
XRECORD
  2
AcDbXrecord
  3
"<Built In>"
 90
        0
280
     0
281
     0
  0
CLASS
  1
LONG_TRANSACTION
  2
AcDbLongTransaction
  3
AutoCAD 2000
 90
        0
280
     0
281
     0
  0
CLASS
  1
LWPOLYLINE
  2
AcDbPolyline
  3
"AutoCAD"
 90
        0
280
     0
281
     1
  0
CLASS
  1
HATCH
  2
AcDbHatch
  3
"ACAD_SEDONA"
 90
        0
280
     0
281
     1
  0
CLASS
  1
XRECORD
  2
AcDbXrecord
  3
"<Built In>"
 90
        0
280
     0
281
     0
  0
ENDSEC
  0
SECTION
  2
TABLES
  0
TABLE
  2
VPORT
  5
B8
100
AcDbSymbolTable
 70
     1
  0
VPORT
  5
B9
100
AcDbSymbolTableRecord
100
AcDbViewportTableRecord
  2
*ACTIVE
 70
     0
 10
0.0
 20
0.0
 11
1.0
 21
1.0
 12
-11.76161932041199
 22
2.34080315445461
 13
0.0
 23
0.0
 14
1.0
 24
1.0
 15
0.0
 25
0.0
 16
0.0
 26
0.0
 36
1.0
 17
18.06596660309899
 27
8.119903606830565
 37
5.823974399722915
 40
26.56320433111162
 41
1.457627118644067
 42
50.0
 43
10.55307667737539
 44
10.55307667737539
 50
0.0
 51
0.0
 71
     0
 72
   100
 73
     1
 74
     1
 75
     0
 76
     0
 77
     0
 78
     0
  0
ENDTAB
  0
TABLE
  2
LTYPE
  5
B3
100
AcDbSymbolTable
 70
     1
  0
LTYPE
  5
B4
100
AcDbSymbolTableRecord
100
AcDbLinetypeTableRecord
  2
BYBLOCK
 70
     0
  3

 72
    65
 73
     0
 40
0.0
  0
LTYPE
  5
B5
100
AcDbSymbolTableRecord
100
AcDbLinetypeTableRecord
  2
BYLAYER
 70
     0
  3

 72
    65
 73
     0
 40
0.0
  0
LTYPE
  5
5
100
AcDbSymbolTableRecord
100
AcDbLinetypeTableRecord
  2
CONTINUOUS
 70
     0
  3
Solid line
 72
    65
 73
     0
 40
0.0
  0
ENDTAB
  0
TABLE
  2
LAYER
  5
B1
100
AcDbSymbolTable
 70
     4
  0
LAYER
  5
34
100
AcDbSymbolTableRecord
100
AcDbLayerTableRecord
  2
0
 70
     0
 62
     7
  6
CONTINUOUS
  0
LAYER
  5
D
102
{ACAD_XDICTIONARY
360
E
102
}
100
AcDbSymbolTableRecord
100
AcDbLayerTableRecord
  2
USP-GEO
 70
     0
 62
     7
  6
CONTINUOUS
  0
LAYER
  5
8
102
{ACAD_XDICTIONARY
360
9
102
}
100
AcDbSymbolTableRecord
100
AcDbLayerTableRecord
  2
USP-TXT
 70
     0
 62
     7
  6
CONTINUOUS
  0
LAYER
  5
4
100
AcDbSymbolTableRecord
100
AcDbLayerTableRecord
  2
USP
 70
     0
 62
     7
  6
CONTINUOUS
  0
ENDTAB
  0
TABLE
  2
STYLE
  5
B2
100
AcDbSymbolTable
 70
     1
  0
STYLE
  5
B
100
AcDbSymbolTableRecord
100
AcDbTextStyleTableRecord
  2
STANDARD
 70
     0
 40
0.0
 41
1.0
 50
0.0
 71
     0
 42
0.75
  3
txt
  4

  0
ENDTAB
  0
TABLE
  2
VIEW
  5
B6
100
AcDbSymbolTable
 70
     0
  0
ENDTAB
  0
TABLE
  2
UCS
  5
B7
100
AcDbSymbolTable
 70
     0
  0
ENDTAB
  0
TABLE
  2
APPID
  5
BA
100
AcDbSymbolTable
 70
     1
  0
APPID
  5
BB
100
AcDbSymbolTableRecord
100
AcDbRegAppTableRecord
  2
ACAD
 70
     0
  0
ENDTAB
  0
TABLE
  2
DIMSTYLE
  5
BC
100
AcDbSymbolTable
 70
     1
  0
DIMSTYLE
105
C4
100
AcDbSymbolTableRecord
100
AcDbDimStyleTableRecord
  2
STANDARD
 70
     0
  3

  4

  5

  6

  7

 40
1.0
 41
0.18
 42
0.0625
 43
0.38
 44
0.18
 45
0.0
 46
0.0
 47
0.0
 48
0.0
140
0.18
141
0.09
142
0.0
143
25.4
144
1.0
145
0.0
146
1.0
147
0.09
 71
     0
 72
     0
 73
     1
 74
     1
 75
     0
 76
     0
 77
     0
 78
     0
170
     0
171
     2
172
     0
173
     0
174
     0
175
     0
176
     0
177
     0
178
     0
270
     2
271
     4
272
     4
273
     2
274
     2
340
B
275
     0
280
     0
281
     0
282
     0
283
     1
284
     0
285
     0
286
     0
287
     3
288
     0
  0
ENDTAB
  0
TABLE
  2
BLOCK_RECORD
  5
1
100
AcDbSymbolTable
 70
     3
  0
BLOCK_RECORD
  5
2
102
{ACAD_XDICTIONARY
360
A8
102
}
100
AcDbSymbolTableRecord
100
AcDbBlockTableRecord
  2
*MODEL_SPACE
  0
BLOCK_RECORD
  5
AC
102
{ACAD_XDICTIONARY
360
AD
102
}
100
AcDbSymbolTableRecord
100
AcDbBlockTableRecord
  2
*PAPER_SPACE
  0
BLOCK_RECORD
  5
6
100
AcDbSymbolTableRecord
100
AcDbBlockTableRecord
  2
TDX5_T
  0
BLOCK_RECORD
  5
37
100
AcDbSymbolTableRecord
100
AcDbBlockTableRecord
  2
TDX5_F
  0
BLOCK_RECORD
  5
8A
100
AcDbSymbolTableRecord
100
AcDbBlockTableRecord
  2
TDX5_S
  0
ENDTAB
  0
ENDSEC
  0
SECTION
  2
BLOCKS
  0
BLOCK
  5
AA
100
AcDbEntity
  8
0
100
AcDbBlockBegin
  2
*MODEL_SPACE
 70
     0
 10
0.0
 20
0.0
 30
0.0
  3
*MODEL_SPACE
  1

  0
ENDBLK
  5
AB
100
AcDbEntity
  8
0
100
AcDbBlockEnd
  0
BLOCK
  5
AF
100
AcDbEntity
 67
     1
  8
0
100
AcDbBlockBegin
  2
*PAPER_SPACE
 70
     0
 10
0.0
 20
0.0
 30
0.0
  3
*PAPER_SPACE
  1

  0
ENDBLK
  5
B0
100
AcDbEntity
 67
     1
  8
0
100
AcDbBlockEnd
  0
BLOCK
  5
33
100
AcDbEntity
  8
0
100
AcDbBlockBegin
  2
TDX5_T
 70
     0
 10
0.0
 20
0.0
 30
0.0
  3
TDX5_T
  1

  0
TEXT
  5
7
100
AcDbEntity
  8
USP-TXT
100
AcDbText
 10
-0.7637837474963485
 20
-1.37613645756129
 30
0.0
 40
0.296875
  1
TDX5 - TOP VIEW
 72
     1
 11
1.462778752503651
 21
-1.37613645756129
 31
0.0
100
AcDbText
  0
LWPOLYLINE
  5
C
100
AcDbEntity
  8
USP-GEO
100
AcDbPolyline
 90
        4
 70
   128
 43
0.0
 10
0.2451095456020482
 20
3.540082151481005
 10
2.750479258148695
 20
3.540082151481005
 10
2.750479258148695
 20
3.662636924282029
 10
0.2451095456020482
 20
3.662636924282029
  0
LWPOLYLINE
  5
10
100
AcDbEntity
  8
USP-GEO
100
AcDbPolyline
 90
       14
 70
   128
 43
0.0
 10
1.033837047700066
 20
1.6825019523112
 10
1.103868346443508
 20
1.927611497913249
 10
1.278946593302114
 20
2.120197569457715
 10
1.541563963590023
 20
2.172721043515295
 10
1.786673509192072
 20
2.120197569457715
 10
1.961751756050677
 20
1.927611497913249
 10
2.03178305479412
 20
1.6825019523112
 10
2.03178305479412
 20
1.489915880766734
 10
1.961751756050677
 20
1.243930943930394
 10
1.786673509192072
 20
1.051344872385927
 10
1.541563963590023
 20
0.9988213983283458
 10
1.278946593302114
 20
1.051344872385927
 10
1.103868346443508
 20
1.243930943930394
 10
1.033837047700066
 20
1.489915880766734
  0
LWPOLYLINE
  5
11
100
AcDbEntity
  8
USP-GEO
100
AcDbPolyline
 90
       10
 70
   129
 43
0.0
 10
0.437695617146515
 20
3.048987669042617
 10
2.540385361918369
 20
3.048987669042617
 10
2.540385361918369
 20
0.0
 10
2.540385361918369
 20
3.048987669042617
 10
0.437695617146515
 20
3.048987669042617
 10
0.4026799677747928
 20
3.048987669042617
 10
0.3851721430889334
 20
3.048987669042617
 10
0.3676643184030723
 20
3.048987669042617
 10
0.3851721430889334
 20
3.048987669042617
 10
0.4026799677747928
 20
3.048987669042617
  0
LWPOLYLINE
  5
12
100
AcDbEntity
  8
USP-GEO
100
AcDbPolyline
 90
        2
 70
   129
 43
0.0
 10
2.540385361918369
 20
0.0
 10
0.3851721430889334
 20
0.0
  0
LWPOLYLINE
  5
13
100
AcDbEntity
  8
USP-GEO
100
AcDbPolyline
 90
        2
 70
   129
 43
0.0
 10
0.4552034418323761
 20
3.048987669042617
 10
2.610416660661812
 20
3.048987669042617
  0
LWPOLYLINE
  5
14
100
AcDbEntity
  8
USP-GEO
100
AcDbPolyline
 90
        8
 70
   128
 43
0.0
 10
1.261438768616255
 20
2.085181920085993
 10
1.471532664846581
 20
2.155213218829434
 10
1.716642210448629
 20
2.085181920085993
 10
1.891720457307235
 20
1.892595848541526
 10
1.961751756050677
 20
1.64748630293948
 10
1.961751756050677
 20
1.454900231395011
 10
1.891720457307235
 20
1.208915294558671
 10
1.73415003513449
 20
1.051344872385927
  0
LWPOLYLINE
  5
15
100
AcDbEntity
  8
USP-GEO
100
AcDbPolyline
 90
        8
 70
   128
 43
0.0
 10
0.1225547728010241
 20
3.540082151481005
 10
0.1400625974868852
 20
3.540082151481005
 10
0.1925860715444667
 20
3.540082151481005
 10
0.2451095456020482
 20
3.540082151481005
 10
2.750479258148695
 20
3.540082151481005
 10
2.767987082834556
 20
3.540082151481005
 10
2.803002732206277
 20
3.540082151481005
 10
2.873034030949719
 20
3.540082151481005
  0
LWPOLYLINE
  5
16
100
AcDbEntity
  8
USP-GEO
100
AcDbPolyline
 90
       44
 70
   128
 43
0.0
 10
2.628799876581965
 20
0.0
 10
2.627924485347671
 20
0.0
 10
2.628799876581965
 20
0.0
 10
2.627924485347671
 20
0.0
 10
2.767987082834556
 20
0.0
 10
3.013096628436604
 20
3.470050852737564
 10
2.995588803750743
 20
3.540082151481005
 10
2.978080979064882
 20
3.592605625538588
 10
2.925557505007301
 20
3.62762127491031
 10
2.873034030949719
 20
3.662636924282029
 10
2.85552620626386
 20
3.662636924282029
 10
2.820510556892138
 20
3.662636924282029
 10
2.785494907520417
 20
3.662636924282029
 10
2.767987082834556
 20
3.662636924282029
 10
2.750479258148695
 20
3.662636924282029
 10
0.2451095456020482
 20
3.662636924282029
 10
0.2276017209161871
 20
3.662636924282029
 10
0.1925860715444667
 20
3.662636924282029
 10
0.1575704221727463
 20
3.662636924282029
 10
0.1225547728010241
 20
3.662636924282029
 10
0.0700312987434426
 20
3.62762127491031
 10
0.0350156493717222
 20
3.592605625538588
 10
0.0
 20
3.540082151481005
 10
0.0
 20
3.470050852737564
 10
0.2451095456020482
 20
0.0350156493717204
 10
0.2451095456020482
 20
0.0
 10
0.2459849368363418
 20
0.0
 10
0.2451095456020482
 20
0.0
 10
0.4026799677747928
 20
0.0
 10
0.4201877924606539
 20
0.0
 10
0.437695617146515
 20
0.0
 10
0.4201877924606539
 20
0.0
 10
0.437695617146515
 20
0.0
 10
0.4201877924606539
 20
0.0
 10
0.4026799677747928
 20
0.0
 10
0.3851721430889334
 20
0.0175078246858611
 10
0.3676643184030723
 20
0.0350156493717204
 10
0.1400625974868852
 20
3.470050852737564
 10
0.3151408443454908
 20
3.470050852737564
 10
0.3151408443454908
 20
3.171542441843641
 10
0.3151408443454908
 20
3.119018967786061
 10
0.3151408443454908
 20
3.084003318414339
 10
0.3151408443454908
 20
3.048987669042617
 10
0.3326486690313519
 20
3.048987669042617
  0
LWPOLYLINE
  5
17
100
AcDbEntity
  8
USP-GEO
100
AcDbPolyline
 90
        2
 70
   128
 43
0.0
 10
0.437695617146515
 20
0.0
 10
0.437695617146515
 20
3.048987669042617
  0
LWPOLYLINE
  5
18
100
AcDbEntity
  8
USP-GEO
100
AcDbPolyline
 90
        2
 70
   128
 43
0.0
 10
0.3676643184030723
 20
0.0350156493717204
 10
0.3676643184030723
 20
3.048987669042617
  0
LWPOLYLINE
  5
19
100
AcDbEntity
  8
USP-GEO
100
AcDbPolyline
 90
        3
 70
   128
 43
0.0
 10
0.2451095456020482
 20
0.0
 10
0.4026799677747928
 20
0.0
 10
0.4035553590090864
 20
0.0
  0
LWPOLYLINE
  5
1A
100
AcDbEntity
  8
USP-GEO
100
AcDbPolyline
 90
        2
 70
   129
 43
0.0
 10
0.4035553590090864
 20
0.0
 10
0.4026799677747928
 20
0.0
  0
LWPOLYLINE
  5
1B
100
AcDbEntity
  8
USP-GEO
100
AcDbPolyline
 90
        2
 70
   129
 43
0.0
 10
1.033837047700066
 20
1.6825019523112
 10
1.033837047700066
 20
1.489915880766734
  0
LWPOLYLINE
  5
1C
100
AcDbEntity
  8
USP-GEO
100
AcDbPolyline
 90
        2
 70
   129
 43
0.0
 10
0.4560788330666679
 20
3.048987669042617
 10
0.4552034418323761
 20
3.048987669042617
  0
LWPOLYLINE
  5
1D
100
AcDbEntity
  8
USP-GEO
100
AcDbPolyline
 90
        4
 70
   128
 43
0.0
 10
0.3851721430889334
 20
3.540082151481005
 10
0.3501564937172112
 20
3.522574326795147
 10
0.3326486690313519
 20
3.505066502109286
 10
0.3151408443454908
 20
3.470050852737564
  0
LWPOLYLINE
  5
1E
100
AcDbEntity
  8
USP-GEO
100
AcDbPolyline
 90
        3
 70
   128
 43
0.0
 10
0.0
 20
3.540082151481005
 10
0.1225547728010241
 20
3.540082151481005
 10
0.1225547728010241
 20
3.662636924282029
  0
LWPOLYLINE
  5
1F
100
AcDbEntity
  8
USP-GEO
100
AcDbPolyline
 90
        3
 70
   128
 43
0.0
 10
0.1925860715444667
 20
3.540082151481005
 10
0.2451095456020482
 20
3.540082151481005
 10
0.2459849368363418
 20
3.540082151481005
  0
LWPOLYLINE
  5
20
100
AcDbEntity
  8
USP-GEO
100
AcDbPolyline
 90
        4
 70
   128
 43
0.0
 10
0.2459849368363418
 20
3.662636924282029
 10
0.2451095456020482
 20
3.662636924282029
 10
0.2276017209161871
 20
3.662636924282029
 10
0.1925860715444667
 20
3.662636924282029
  0
LWPOLYLINE
  5
21
100
AcDbEntity
  8
USP-GEO
100
AcDbPolyline
 90
        6
 70
   128
 43
0.0
 10
0.1400625974868852
 20
3.540082151481005
 10
0.1925860715444667
 20
3.540082151481005
 10
0.1750782468586056
 20
3.522574326795147
 10
0.1575704221727463
 20
3.522574326795147
 10
0.1400625974868852
 20
3.505066502109286
 10
0.1400625974868852
 20
3.470050852737564
  0
LWPOLYLINE
  5
22
100
AcDbEntity
  8
USP-GEO
100
AcDbPolyline
 90
        2
 70
   129
 43
0.0
 10
0.2451095456020482
 20
3.540082151481005
 10
0.2451095456020482
 20
3.662636924282029
  0
LWPOLYLINE
  5
23
100
AcDbEntity
  8
USP-GEO
100
AcDbPolyline
 90
        7
 70
   128
 43
0.0
 10
2.627924485347671
 20
3.540082151481005
 10
2.645432310033532
 20
3.522574326795147
 10
2.680447959405253
 20
3.505066502109286
 10
2.680447959405253
 20
3.470050852737564
 10
2.873034030949719
 20
3.470050852737564
 10
2.627924485347671
 20
0.0
 10
2.627924485347671
 20
3.048987669042617
  0
LWPOLYLINE
  5
24
100
AcDbEntity
  8
USP-GEO
100
AcDbPolyline
 90
        2
 70
   128
 43
0.0
 10
2.55789318660423
 20
0.0
 10
2.55789318660423
 20
3.048987669042617
  0
LWPOLYLINE
  5
25
100
AcDbEntity
  8
USP-GEO
100
AcDbPolyline
 90
        9
 70
   128
 43
0.0
 10
2.610416660661812
 20
0.0
 10
2.592908835975951
 20
0.0
 10
2.55789318660423
 20
0.0
 10
2.540385361918369
 20
0.0
 10
2.55789318660423
 20
0.0
 10
2.592908835975951
 20
0.0
 10
2.610416660661812
 20
0.0
 10
2.627924485347671
 20
0.0
 10
2.767987082834556
 20
0.0
  0
LWPOLYLINE
  5
26
100
AcDbEntity
  8
USP-GEO
100
AcDbPolyline
 90
        2
 70
   128
 43
0.0
 10
2.610416660661812
 20
0.0
 10
2.627924485347671
 20
0.0
  0
LWPOLYLINE
  5
27
100
AcDbEntity
  8
USP-GEO
100
AcDbPolyline
 90
        2
 70
   129
 43
0.0
 10
2.611292051896104
 20
0.0
 10
2.610416660661812
 20
0.0
  0
LWPOLYLINE
  5
28
100
AcDbEntity
  8
USP-GEO
100
AcDbPolyline
 90
        5
 70
   128
 43
0.0
 10
2.680447959405253
 20
3.470050852737564
 10
2.680447959405253
 20
3.171542441843641
 10
2.680447959405253
 20
3.119018967786061
 10
2.680447959405253
 20
3.084003318414339
 10
2.680447959405253
 20
3.048987669042617
  0
LWPOLYLINE
  5
29
100
AcDbEntity
  8
USP-GEO
100
AcDbPolyline
 90
        2
 70
   128
 43
0.0
 10
1.961751756050677
 20
1.64748630293948
 10
1.961751756050677
 20
1.454900231395011
  0
LWPOLYLINE
  5
2A
100
AcDbEntity
  8
USP-GEO
100
AcDbPolyline
 90
        2
 70
   128
 43
0.0
 10
2.03178305479412
 20
1.6825019523112
 10
2.03178305479412
 20
1.489915880766734
  0
LWPOLYLINE
  5
2B
100
AcDbEntity
  8
USP-GEO
100
AcDbPolyline
 90
        4
 70
   128
 43
0.0
 10
2.627924485347671
 20
3.048987669042617
 10
2.610416660661812
 20
3.048987669042617
 10
2.592908835975951
 20
3.048987669042617
 10
2.57540101129009
 20
3.048987669042617
  0
LWPOLYLINE
  5
2C
100
AcDbEntity
  8
USP-GEO
100
AcDbPolyline
 90
        6
 70
   128
 43
0.0
 10
2.627924485347671
 20
3.048987669042617
 10
2.610416660661812
 20
3.048987669042617
 10
2.592908835975951
 20
3.048987669042617
 10
2.57540101129009
 20
3.048987669042617
 10
2.55789318660423
 20
3.048987669042617
 10
2.57540101129009
 20
3.048987669042617
  0
LWPOLYLINE
  5
2D
100
AcDbEntity
  8
USP-GEO
100
AcDbPolyline
 90
        2
 70
   129
 43
0.0
 10
2.55789318660423
 20
3.048987669042617
 10
2.57540101129009
 20
3.048987669042617
  0
LWPOLYLINE
  5
2E
100
AcDbEntity
  8
USP-GEO
100
AcDbPolyline
 90
        2
 70
   129
 43
0.0
 10
2.628799876581965
 20
3.048987669042617
 10
2.627924485347671
 20
3.048987669042617
  0
LWPOLYLINE
  5
2F
100
AcDbEntity
  8
USP-GEO
100
AcDbPolyline
 90
        2
 70
   129
 43
0.0
 10
2.627924485347671
 20
3.048987669042617
 10
2.680447959405253
 20
3.048987669042617
  0
LWPOLYLINE
  5
30
100
AcDbEntity
  8
USP-GEO
100
AcDbPolyline
 90
        3
 70
   128
 43
0.0
 10
2.995588803750743
 20
3.540082151481005
 10
2.873034030949719
 20
3.540082151481005
 10
2.873909422184013
 20
3.540082151481005
  0
LWPOLYLINE
  5
31
100
AcDbEntity
  8
USP-GEO
100
AcDbPolyline
 90
        9
 70
   128
 43
0.0
 10
2.820510556892138
 20
3.662636924282029
 10
2.785494907520417
 20
3.662636924282029
 10
2.767987082834556
 20
3.662636924282029
 10
2.750479258148695
 20
3.662636924282029
 10
2.750479258148695
 20
3.540082151481005
 10
2.767987082834556
 20
3.540082151481005
 10
2.803002732206277
 20
3.540082151481005
 10
2.873034030949719
 20
3.540082151481005
 10
2.873034030949719
 20
3.662636924282029
  0
LWPOLYLINE
  5
32
100
AcDbEntity
  8
USP-GEO
100
AcDbPolyline
 90
        5
 70
   128
 43
0.0
 10
2.873034030949719
 20
3.470050852737564
 10
2.85552620626386
 20
3.505066502109286
 10
2.838018381577999
 20
3.522574326795147
 10
2.820510556892138
 20
3.522574326795147
 10
2.820510556892138
 20
3.540082151481005
  0
ENDBLK
  5
35
100
AcDbEntity
  8
0
100
AcDbBlockEnd
  0
BLOCK
  5
87
100
AcDbEntity
  8
0
100
AcDbBlockBegin
  2
TDX5_F
 70
     0
 10
0.0
 20
0.0
 30
0.0
  3
TDX5_F
  1

  0
LWPOLYLINE
  5
38
100
AcDbEntity
  8
USP-GEO
100
AcDbPolyline
 90
       11
 70
   128
 43
0.0
 10
2.873034030949719
 20
5.888756833089203
 10
2.803002732206277
 20
5.906264657775064
 10
2.767987082834556
 20
5.958788131832646
 10
2.750479258148695
 20
6.011311605890227
 10
2.750479258148695
 20
9.392947943964196
 10
0.2451095456020482
 20
9.392947943964196
 10
0.2451095456020482
 20
6.011311605890227
 10
0.2451095456020482
 20
5.958788131832646
 10
0.1925860715444667
 20
5.906264657775064
 10
0.1400625974868852
 20
5.888756833089203
 10
0.1225547728010241
 20
5.888756833089203
  0
LWPOLYLINE
  5
39
100
AcDbEntity
  8
USP-GEO
100
AcDbPolyline
 90
        4
 70
   128
 43
0.0
 10
2.750479258148695
 20
6.011311605890227
 10
2.750479258148695
 20
9.392947943964196
 10
0.2451095456020482
 20
9.392947943964196
 10
0.2451095456020482
 20
6.011311605890227
  0
TEXT
  5
3A
100
AcDbEntity
  8
USP-TXT
100
AcDbText
 10
-1.025643098124627
 20
-1.139835413715374
 30
0.0
 40
0.296875
  1
TDX5 - FRONT VIEW
 72
     1
 11
1.497794401875371
 21
-1.139835413715374
 31
0.0
100
AcDbText
  0
LWPOLYLINE
  5
3B
100
AcDbEntity
  8
USP-GEO
100
AcDbPolyline
 90
        2
 70
   129
 43
0.0
 10
2.400322764431484
 20
1.402376757337432
 10
0.5952660393192595
 20
1.402376757337432
  0
LWPOLYLINE
  5
3C
100
AcDbEntity
  8
USP-GEO
100
AcDbPolyline
 90
       12
 70
   129
 43
0.0
 10
1.103868346443508
 20
5.25759975316393
 10
1.15639182050109
 20
5.467693649394256
 10
1.296454417987975
 20
5.607756246881141
 10
1.506548314218303
 20
5.660279720938723
 10
1.699134385762768
 20
5.607756246881141
 10
1.856704807935514
 20
5.467693649394256
 10
1.909228281993096
 20
5.25759975316393
 10
1.856704807935514
 20
5.065013681619463
 10
1.699134385762768
 20
4.907443259446718
 10
1.506548314218303
 20
4.854919785389137
 10
1.296454417987975
 20
4.907443259446718
 10
1.15639182050109
 20
5.065013681619463
  0
LWPOLYLINE
  5
3D
100
AcDbEntity
  8
USP-GEO
100
AcDbPolyline
 90
        7
 70
   128
 43
0.0
 10
2.03178305479412
 20
0.2634927615222011
 10
1.961751756050677
 20
0.2634927615222011
 10
1.786673509192072
 20
0.2634927615222011
 10
1.541563963590023
 20
0.2634927615222011
 10
1.278946593302114
 20
0.2634927615222011
 10
1.103868346443508
 20
0.2634927615222011
 10
1.033837047700066
 20
0.2634927615222011
  0
LWPOLYLINE
  5
3E
100
AcDbEntity
  8
USP-GEO
100
AcDbPolyline
 90
        7
 70
   128
 43
0.0
 10
2.03178305479412
 20
0.2634927615222011
 10
1.961751756050677
 20
0.2634927615222011
 10
1.786673509192072
 20
0.2634927615222011
 10
1.541563963590023
 20
0.2634927615222011
 10
1.278946593302114
 20
0.2634927615222011
 10
1.103868346443508
 20
0.2634927615222011
 10
1.033837047700066
 20
0.2634927615222011
  0
LWPOLYLINE
  5
3F
100
AcDbEntity
  8
USP-GEO
100
AcDbPolyline
 90
        5
 70
   128
 43
0.0
 10
0.437695617146515
 20
0.1225547728010241
 10
2.540385361918369
 20
0.1400625974868852
 10
2.540385361918369
 20
0.2634927615222011
 10
0.3851721430889334
 20
0.2634927615222011
 10
0.3851721430889334
 20
0.1400625974868852
  0
LWPOLYLINE
  5
40
100
AcDbEntity
  8
USP-GEO
100
AcDbPolyline
 90
        9
 70
   128
 43
0.0
 10
2.540385361918369
 20
0.2634927615222011
 10
2.540385361918369
 20
0.1400625974868852
 10
0.437695617146515
 20
0.1225547728010241
 10
0.4201877924606539
 20
0.1400625974868852
 10
0.4026799677747928
 20
0.1400625974868852
 10
0.3851721430889334
 20
0.1400625974868852
 10
0.3326486690313519
 20
0.1575704221727463
 10
0.2801251949737686
 20
0.2109692874646214
 10
0.2451095456020482
 20
0.2634927615222011
  0
LWPOLYLINE
  5
41
100
AcDbEntity
  8
USP-GEO
100
AcDbPolyline
 90
        7
 70
   128
 43
0.0
 10
0.9638057489566254
 20
0.0
 10
1.033837047700066
 20
0.0
 10
1.208915294558673
 20
0.0
 10
1.471532664846581
 20
0.0
 10
1.716642210448629
 20
0.0
 10
1.891720457307235
 20
0.0
 10
1.961751756050677
 20
0.0
  0
LWPOLYLINE
  5
42
100
AcDbEntity
  8
USP-GEO
100
AcDbPolyline
 90
        9
 70
   128
 43
0.0
 10
1.961751756050677
 20
0.0
 10
1.891720457307235
 20
0.0
 10
1.716642210448629
 20
0.0
 10
1.471532664846581
 20
0.0
 10
1.716642210448629
 20
0.0
 10
1.471532664846581
 20
0.0
 10
1.208915294558673
 20
0.0
 10
1.033837047700066
 20
0.0
 10
0.9638057489566254
 20
0.0
  0
LWPOLYLINE
  5
43
100
AcDbEntity
  8
USP-GEO
100
AcDbPolyline
 90
        3
 70
   128
 43
0.0
 10
1.471532664846581
 20
0.0
 10
1.208915294558673
 20
0.0
 10
1.471532664846581
 20
0.0
  0
LWPOLYLINE
  5
44
100
AcDbEntity
  8
USP-GEO
100
AcDbPolyline
 90
        2
 70
   129
 43
0.0
 10
0.4552034418323761
 20
0.0
 10
1.45402484016072
 20
0.0
  0
LWPOLYLINE
  5
45
100
AcDbEntity
  8
USP-GEO
100
AcDbPolyline
 90
       11
 70
   128
 43
0.0
 10
0.4552034418323761
 20
0.0
 10
2.55789318660423
 20
0.0
 10
1.506548314218303
 20
0.0
 10
2.55789318660423
 20
0.0
 10
2.57540101129009
 20
0.0
 10
2.592908835975951
 20
0.0
 10
2.610416660661812
 20
0.0
 10
2.680447959405253
 20
0.0350156493717222
 10
2.715463608776975
 20
0.0700312987434444
 10
2.750479258148695
 20
0.1225547728010241
 10
2.751354649382989
 20
0.1225547728010241
  0
LWPOLYLINE
  5
46
100
AcDbEntity
  8
USP-GEO
100
AcDbPolyline
 90
        8
 70
   128
 43
0.0
 10
0.4552034418323761
 20
0.1225547728010241
 10
0.4552034418323761
 20
0.0
 10
2.55789318660423
 20
0.0
 10
2.57540101129009
 20
0.0
 10
2.592908835975951
 20
0.0
 10
2.610416660661812
 20
0.0
 10
2.610416660661812
 20
0.1575704221727463
 10
2.610416660661812
 20
0.1400625974868852
  0
LWPOLYLINE
  5
47
100
AcDbEntity
  8
USP-GEO
100
AcDbPolyline
 90
        4
 70
   128
 43
0.0
 10
2.592908835975951
 20
0.1400625974868852
 10
2.55789318660423
 20
0.1225547728010241
 10
0.6652973380627021
 20
0.1225547728010241
 10
2.55789318660423
 20
0.1225547728010241
  0
LWPOLYLINE
  5
48
100
AcDbEntity
  8
USP-GEO
100
AcDbPolyline
 90
        8
 70
   129
 43
0.0
 10
0.9638057489566254
 20
0.1225547728010241
 10
1.033837047700066
 20
0.1225547728010241
 10
1.208915294558673
 20
0.1225547728010241
 10
1.471532664846581
 20
0.1225547728010241
 10
1.594087437647605
 20
0.1225547728010241
 10
1.471532664846581
 20
0.1225547728010241
 10
1.208915294558673
 20
0.1225547728010241
 10
1.033837047700066
 20
0.1225547728010241
  0
LWPOLYLINE
  5
49
100
AcDbEntity
  8
USP-GEO
100
AcDbPolyline
 90
        8
 70
   128
 43
0.0
 10
2.540385361918369
 20
0.2634927615222011
 10
0.3851721430889334
 20
0.2634927615222011
 10
0.437695617146515
 20
0.2634927615222011
 10
0.4026799677747928
 20
0.2810005862080622
 10
0.3851721430889334
 20
0.2985084108939233
 10
0.3676643184030723
 20
0.3335240602656455
 10
0.1400625974868852
 20
5.78370988497404
 10
0.3151408443454908
 20
1.524931530138456
  0
LWPOLYLINE
  5
4A
100
AcDbEntity
  8
USP-GEO
100
AcDbPolyline
 90
        2
 70
   129
 43
0.0
 10
0.2451095456020482
 20
0.3160162355797844
 10
0.0
 20
5.78370988497404
  0
LWPOLYLINE
  5
4B
100
AcDbEntity
  8
USP-GEO
100
AcDbPolyline
 90
        7
 70
   128
 43
0.0
 10
0.3851721430889334
 20
1.524931530138456
 10
0.1925860715444667
 20
5.888756833089203
 10
0.1750782468586056
 20
5.888756833089203
 10
0.1575704221727463
 20
5.888756833089203
 10
0.1400625974868852
 20
5.853741183717483
 10
0.1400625974868852
 20
5.78370988497404
 10
0.3151408443454908
 20
1.524931530138456
  0
LWPOLYLINE
  5
4C
100
AcDbEntity
  8
USP-GEO
100
AcDbPolyline
 90
        6
 70
   128
 43
0.0
 10
0.2451095456020482
 20
0.3160162355797844
 10
0.2451095456020482
 20
0.2634927615222011
 10
0.4026799677747928
 20
0.2810005862080622
 10
0.3851721430889334
 20
0.2985084108939233
 10
0.3676643184030723
 20
0.3335240602656455
 10
0.1400625974868852
 20
5.78370988497404
  0
LWPOLYLINE
  5
4D
100
AcDbEntity
  8
USP-GEO
100
AcDbPolyline
 90
        2
 70
   129
 43
0.0
 10
0.4727112665182354
 20
1.524931530138456
 10
0.3151408443454908
 20
1.524931530138456
  0
LWPOLYLINE
  5
4E
100
AcDbEntity
  8
USP-GEO
100
AcDbPolyline
 90
        5
 70
   128
 43
0.0
 10
0.3851721430889334
 20
0.2634927615222011
 10
0.437695617146515
 20
0.2634927615222011
 10
0.4201877924606539
 20
0.2634927615222011
 10
0.4026799677747928
 20
0.2810005862080622
 10
0.2451095456020482
 20
0.2634927615222011
  0
LWPOLYLINE
  5
4F
100
AcDbEntity
  8
USP-GEO
100
AcDbPolyline
 90
        4
 70
   129
 43
0.0
 10
0.3326486690313519
 20
1.524931530138456
 10
0.3151408443454908
 20
1.524931530138456
 10
0.3851721430889334
 20
1.524931530138456
 10
0.3501564937172112
 20
1.524931530138456
  0
LWPOLYLINE
  5
50
100
AcDbEntity
  8
USP-GEO
100
AcDbPolyline
 90
        4
 70
   128
 43
0.0
 10
0.2451095456020482
 20
0.3160162355797844
 10
0.2451095456020482
 20
0.2985084108939233
 10
0.2451095456020482
 20
0.2810005862080622
 10
0.2459849368363418
 20
0.2810005862080622
  0
LWPOLYLINE
  5
51
100
AcDbEntity
  8
USP-GEO
100
AcDbPolyline
 90
        2
 70
   129
 43
0.0
 10
0.2459849368363418
 20
0.2634927615222011
 10
0.2451095456020482
 20
0.2634927615222011
  0
LWPOLYLINE
  5
52
100
AcDbEntity
  8
USP-GEO
100
AcDbPolyline
 90
        3
 70
   128
 43
0.0
 10
0.2451095456020482
 20
0.2985084108939233
 10
0.2451095456020482
 20
0.3160162355797844
 10
0.2451095456020482
 20
0.2985084108939233
  0
LWPOLYLINE
  5
53
100
AcDbEntity
  8
USP-GEO
100
AcDbPolyline
 90
        4
 70
   129
 43
0.0
 10
0.3151408443454908
 20
1.437392406709152
 10
0.3326486690313519
 20
1.402376757337432
 10
0.3501564937172112
 20
0.8062353267838791
 10
0.3326486690313519
 20
1.402376757337432
  0
LWPOLYLINE
  5
54
100
AcDbEntity
  8
USP-GEO
100
AcDbPolyline
 90
        2
 70
   128
 43
0.0
 10
0.3326486690313519
 20
1.402376757337432
 10
0.3335240602656437
 20
1.402376757337432
  0
LWPOLYLINE
  5
55
100
AcDbEntity
  8
USP-GEO
100
AcDbPolyline
 90
        2
 70
   129
 43
0.0
 10
0.3151408443454908
 20
1.524931530138456
 10
0.3151408443454908
 20
1.507423705452595
  0
LWPOLYLINE
  5
56
100
AcDbEntity
  8
USP-GEO
100
AcDbPolyline
 90
        2
 70
   129
 43
0.0
 10
1.033837047700066
 20
0.2634927615222011
 10
0.4902190912040965
 20
0.2634927615222011
  0
LWPOLYLINE
  5
57
100
AcDbEntity
  8
USP-GEO
100
AcDbPolyline
 90
        2
 70
   128
 43
0.0
 10
0.4552034418323761
 20
0.1225547728010241
 10
0.4552034418323761
 20
0.0
  0
LWPOLYLINE
  5
58
100
AcDbEntity
  8
USP-GEO
100
AcDbPolyline
 90
        2
 70
   129
 43
0.0
 10
0.4560788330666679
 20
0.0
 10
0.4552034418323761
 20
0.0
  0
LWPOLYLINE
  5
59
100
AcDbEntity
  8
USP-GEO
100
AcDbPolyline
 90
        2
 70
   129
 43
0.0
 10
0.4552034418323761
 20
0.1225547728010241
 10
0.6652973380627021
 20
0.1225547728010241
  0
LWPOLYLINE
  5
5A
100
AcDbEntity
  8
USP-GEO
100
AcDbPolyline
 90
        2
 70
   128
 43
0.0
 10
0.4201877924606539
 20
0.2634927615222011
 10
0.4210631836949475
 20
0.2634927615222011
  0
LWPOLYLINE
  5
5B
100
AcDbEntity
  8
USP-GEO
100
AcDbPolyline
 90
        2
 70
   128
 43
0.0
 10
0.4026799677747928
 20
0.2810005862080622
 10
0.4035553590090864
 20
0.2810005862080622
  0
LWPOLYLINE
  5
5C
100
AcDbEntity
  8
USP-GEO
100
AcDbPolyline
 90
        2
 70
   129
 43
0.0
 10
0.9646811401909172
 20
0.0
 10
0.9638057489566254
 20
0.0
  0
LWPOLYLINE
  5
5D
100
AcDbEntity
  8
USP-GEO
100
AcDbPolyline
 90
        2
 70
   129
 43
0.0
 10
1.034712438934359
 20
0.2634927615222011
 10
1.033837047700066
 20
0.2634927615222011
  0
LWPOLYLINE
  5
5E
100
AcDbEntity
  8
USP-GEO
100
AcDbPolyline
 90
        2
 70
   129
 43
0.0
 10
0.9646811401909172
 20
0.1225547728010241
 10
0.9638057489566254
 20
0.1225547728010241
  0
LWPOLYLINE
  5
5F
100
AcDbEntity
  8
USP-GEO
100
AcDbPolyline
 90
        4
 70
   128
 43
0.0
 10
0.4727112665182354
 20
1.524931530138456
 10
0.542742565261678
 20
1.507423705452595
 10
0.5777582146333984
 20
1.454900231395013
 10
0.5952660393192595
 20
1.402376757337432
  0
LWPOLYLINE
  5
60
100
AcDbEntity
  8
USP-GEO
100
AcDbPolyline
 90
        2
 70
   128
 43
0.0
 10
0.5777582146333984
 20
1.454900231395013
 10
0.5952660393192595
 20
1.402376757337432
  0
LWPOLYLINE
  5
61
100
AcDbEntity
  8
USP-GEO
100
AcDbPolyline
 90
        2
 70
   129
 43
0.0
 10
0.0
 20
5.888756833089203
 10
0.1225547728010241
 20
5.888756833089203
  0
LWPOLYLINE
  5
62
100
AcDbEntity
  8
USP-GEO
100
AcDbPolyline
 90
        4
 70
   129
 43
0.0
 10
0.0525234740575815
 20
5.888756833089203
 10
0.0700312987434426
 20
5.888756833089203
 10
0.1225547728010241
 20
5.888756833089203
 10
0.0700312987434426
 20
5.888756833089203
  0
LWPOLYLINE
  5
63
100
AcDbEntity
  8
USP-GEO
100
AcDbPolyline
 90
        2
 70
   128
 43
0.0
 10
0.0
 20
5.888756833089203
 10
0.0
 20
5.78370988497404
  0
LWPOLYLINE
  5
64
100
AcDbEntity
  8
USP-GEO
100
AcDbPolyline
 90
        3
 70
   128
 43
0.0
 10
0.1925860715444667
 20
5.888756833089203
 10
0.1400625974868852
 20
5.888756833089203
 10
0.1225547728010241
 20
5.888756833089203
  0
LWPOLYLINE
  5
65
100
AcDbEntity
  8
USP-GEO
100
AcDbPolyline
 90
        2
 70
   128
 43
0.0
 10
0.1400625974868852
 20
5.888756833089203
 10
0.1225547728010241
 20
5.888756833089203
  0
LWPOLYLINE
  5
66
100
AcDbEntity
  8
USP-GEO
100
AcDbPolyline
 90
        2
 70
   128
 43
0.0
 10
0.1925860715444667
 20
5.906264657775064
 10
0.1934614627787603
 20
5.906264657775064
  0
LWPOLYLINE
  5
67
100
AcDbEntity
  8
USP-GEO
100
AcDbPolyline
 90
        2
 70
   128
 43
0.0
 10
0.2451095456020482
 20
5.958788131832646
 10
0.2276017209161871
 20
5.941280307146785
  0
LWPOLYLINE
  5
68
100
AcDbEntity
  8
USP-GEO
100
AcDbPolyline
 90
        3
 70
   128
 43
0.0
 10
2.767987082834556
 20
0.1750782468586074
 10
2.767987082834556
 20
0.2634927615222011
 10
3.013096628436604
 20
5.78370988497404
  0
LWPOLYLINE
  5
69
100
AcDbEntity
  8
USP-GEO
100
AcDbPolyline
 90
       12
 70
   128
 43
0.0
 10
2.820510556892138
 20
1.507423705452595
 10
2.820510556892138
 20
1.524931530138456
 10
3.013096628436604
 20
5.78370988497404
 10
2.767987082834556
 20
0.2634927615222011
 10
2.767987082834556
 20
0.1750782468586074
 10
2.750479258148695
 20
0.1575704221727463
 10
2.750479258148695
 20
0.1400625974868852
 10
2.750479258148695
 20
0.1225547728010241
 10
2.750479258148695
 20
0.1400625974868852
 10
2.750479258148695
 20
0.1575704221727463
 10
2.767987082834556
 20
0.1750782468586074
 10
2.750479258148695
 20
0.1575704221727463
  0
LWPOLYLINE
  5
6A
100
AcDbEntity
  8
USP-GEO
100
AcDbPolyline
 90
        2
 70
   129
 43
0.0
 10
2.627924485347671
 20
0.2634927615222011
 10
2.873034030949719
 20
5.78370988497404
  0
LWPOLYLINE
  5
6B
100
AcDbEntity
  8
USP-GEO
100
AcDbPolyline
 90
        7
 70
   128
 43
0.0
 10
2.873034030949719
 20
5.888756833089203
 10
2.820510556892138
 20
5.888756833089203
 10
2.627924485347671
 20
1.524931530138456
 10
2.680447959405253
 20
1.524931530138456
 10
2.522877537232508
 20
1.524931530138456
 10
2.680447959405253
 20
1.524931530138456
 10
2.681323350639546
 20
1.524931530138456
  0
LWPOLYLINE
  5
6C
100
AcDbEntity
  8
USP-GEO
100
AcDbPolyline
 90
        8
 70
   128
 43
0.0
 10
2.821385948126431
 20
1.524931530138456
 10
2.820510556892138
 20
1.524931530138456
 10
2.821385948126431
 20
1.524931530138456
 10
2.820510556892138
 20
1.524931530138456
 10
3.013096628436604
 20
5.78370988497404
 10
2.995588803750743
 20
5.888756833089203
 10
2.873034030949719
 20
5.888756833089203
 10
2.873909422184013
 20
5.888756833089203
  0
LWPOLYLINE
  5
6D
100
AcDbEntity
  8
USP-GEO
100
AcDbPolyline
 90
        2
 70
   129
 43
0.0
 10
2.540385361918369
 20
0.2634927615222011
 10
1.489040489532442
 20
0.2634927615222011
  0
LWPOLYLINE
  5
6E
100
AcDbEntity
  8
USP-GEO
100
AcDbPolyline
 90
        8
 70
   129
 43
0.0
 10
1.541563963590023
 20
0.1400625974868852
 10
1.786673509192072
 20
0.1400625974868852
 10
1.961751756050677
 20
0.1400625974868852
 10
2.03178305479412
 20
0.1400625974868852
 10
1.961751756050677
 20
0.1400625974868852
 10
1.786673509192072
 20
0.1400625974868852
 10
1.541563963590023
 20
0.1400625974868852
 10
1.489040489532442
 20
0.1400625974868852
  0
LWPOLYLINE
  5
6F
100
AcDbEntity
  8
USP-GEO
100
AcDbPolyline
 90
        2
 70
   129
 43
0.0
 10
1.962627147284971
 20
0.0
 10
1.961751756050677
 20
0.0
  0
LWPOLYLINE
  5
70
100
AcDbEntity
  8
USP-GEO
100
AcDbPolyline
 90
        2
 70
   129
 43
0.0
 10
2.032658446028412
 20
0.2634927615222011
 10
2.03178305479412
 20
0.2634927615222011
  0
LWPOLYLINE
  5
71
100
AcDbEntity
  8
USP-GEO
100
AcDbPolyline
 90
        2
 70
   129
 43
0.0
 10
2.032658446028412
 20
0.1400625974868852
 10
2.03178305479412
 20
0.1400625974868852
  0
LWPOLYLINE
  5
72
100
AcDbEntity
  8
USP-GEO
100
AcDbPolyline
 90
        3
 70
   128
 43
0.0
 10
2.680447959405253
 20
1.402376757337432
 10
2.627924485347671
 20
0.1925860715444649
 10
2.627924485347671
 20
0.1750782468586074
  0
LWPOLYLINE
  5
73
100
AcDbEntity
  8
USP-GEO
100
AcDbPolyline
 90
        4
 70
   128
 43
0.0
 10
2.627924485347671
 20
0.2634927615222011
 10
2.627924485347671
 20
0.1400625974868852
 10
2.627924485347671
 20
0.1925860715444649
 10
2.680447959405253
 20
1.402376757337432
  0
LWPOLYLINE
  5
74
100
AcDbEntity
  8
USP-GEO
100
AcDbPolyline
 90
        8
 70
   128
 43
0.0
 10
2.611292051896104
 20
0.0
 10
2.610416660661812
 20
0.0
 10
2.680447959405253
 20
0.0350156493717222
 10
2.715463608776975
 20
0.0700312987434444
 10
2.750479258148695
 20
0.1225547728010241
 10
2.627924485347671
 20
0.1400625974868852
 10
2.627924485347671
 20
0.1925860715444649
 10
2.627924485347671
 20
0.1750782468586074
  0
LWPOLYLINE
  5
75
100
AcDbEntity
  8
USP-GEO
100
AcDbPolyline
 90
        2
 70
   128
 43
0.0
 10
2.767987082834556
 20
0.2634927615222011
 10
2.627924485347671
 20
0.2634927615222011
  0
LWPOLYLINE
  5
76
100
AcDbEntity
  8
USP-GEO
100
AcDbPolyline
 90
        2
 70
   129
 43
0.0
 10
2.592908835975951
 20
0.1400625974868852
 10
2.610416660661812
 20
0.1400625974868852
  0
LWPOLYLINE
  5
77
100
AcDbEntity
  8
USP-GEO
100
AcDbPolyline
 90
        2
 70
   129
 43
0.0
 10
2.541260753152663
 20
0.2634927615222011
 10
2.540385361918369
 20
0.2634927615222011
  0
LWPOLYLINE
  5
78
100
AcDbEntity
  8
USP-GEO
100
AcDbPolyline
 90
        2
 70
   128
 43
0.0
 10
2.627924485347671
 20
0.1750782468586074
 10
2.628799876581965
 20
0.1750782468586074
  0
LWPOLYLINE
  5
79
100
AcDbEntity
  8
USP-GEO
100
AcDbPolyline
 90
        2
 70
   128
 43
0.0
 10
2.627924485347671
 20
0.2634927615222011
 10
2.627924485347671
 20
0.1400625974868852
  0
LWPOLYLINE
  5
7A
100
AcDbEntity
  8
USP-GEO
100
AcDbPolyline
 90
        2
 70
   129
 43
0.0
 10
2.610416660661812
 20
0.1575704221727463
 10
2.627924485347671
 20
0.1750782468586074
  0
LWPOLYLINE
  5
7B
100
AcDbEntity
  8
USP-GEO
100
AcDbPolyline
 90
        5
 70
   128
 43
0.0
 10
2.470354063174927
 20
1.507423705452595
 10
2.522877537232508
 20
1.524931530138456
 10
2.470354063174927
 20
1.507423705452595
 10
2.417830589117345
 20
1.454900231395013
 10
2.400322764431484
 20
1.402376757337432
  0
LWPOLYLINE
  5
7C
100
AcDbEntity
  8
USP-GEO
100
AcDbPolyline
 90
        8
 70
   129
 43
0.0
 10
2.680447959405253
 20
1.402376757337432
 10
2.680447959405253
 20
1.454900231395013
 10
2.680447959405253
 20
1.507423705452595
 10
2.680447959405253
 20
1.524931530138456
 10
2.680447959405253
 20
1.542439354824317
 10
2.680447959405253
 20
1.524931530138456
 10
2.680447959405253
 20
1.507423705452595
 10
2.680447959405253
 20
1.454900231395013
  0
LWPOLYLINE
  5
7D
100
AcDbEntity
  8
USP-GEO
100
AcDbPolyline
 90
        3
 70
   128
 43
0.0
 10
2.680447959405253
 20
1.524931530138456
 10
2.645432310033532
 20
1.524931530138456
 10
2.627924485347671
 20
1.524931530138456
  0
LWPOLYLINE
  5
7E
100
AcDbEntity
  8
USP-GEO
100
AcDbPolyline
 90
        2
 70
   128
 43
0.0
 10
2.680447959405253
 20
1.542439354824317
 10
2.681323350639546
 20
1.542439354824317
  0
LWPOLYLINE
  5
7F
100
AcDbEntity
  8
USP-GEO
100
AcDbPolyline
 90
       12
 70
   129
 43
0.0
 10
1.419009190788999
 20
6.765023458616525
 10
1.419009190788999
 20
6.800039107988245
 10
1.45402484016072
 20
6.835054757359968
 10
1.506548314218303
 20
6.852562582045829
 10
1.541563963590023
 20
6.835054757359968
 10
1.576579612961744
 20
6.800039107988245
 10
1.594087437647605
 20
6.765023458616525
 10
1.576579612961744
 20
6.712499984558943
 10
1.541563963590023
 20
6.676608943952929
 10
1.506548314218303
 20
6.676608943952929
 10
1.45402484016072
 20
6.676608943952929
 10
1.419009190788999
 20
6.712499984558943
  0
LWPOLYLINE
  5
80
100
AcDbEntity
  8
USP-GEO
100
AcDbPolyline
 90
        2
 70
   128
 43
0.0
 10
2.995588803750743
 20
5.888756833089203
 10
2.873034030949719
 20
5.888756833089203
  0
LWPOLYLINE
  5
81
100
AcDbEntity
  8
USP-GEO
100
AcDbPolyline
 90
        4
 70
   129
 43
0.0
 10
2.925557505007301
 20
5.888756833089203
 10
2.960573154379023
 20
5.888756833089203
 10
2.925557505007301
 20
5.888756833089203
 10
2.873034030949719
 20
5.888756833089203
  0
LWPOLYLINE
  5
82
100
AcDbEntity
  8
USP-GEO
100
AcDbPolyline
 90
        5
 70
   128
 43
0.0
 10
2.873034030949719
 20
5.78370988497404
 10
2.85552620626386
 20
5.853741183717483
 10
2.838018381577999
 20
5.888756833089203
 10
2.820510556892138
 20
5.888756833089203
 10
2.821385948126431
 20
5.888756833089203
  0
LWPOLYLINE
  5
83
100
AcDbEntity
  8
USP-GEO
100
AcDbPolyline
 90
        2
 70
   128
 43
0.0
 10
2.803002732206277
 20
5.906264657775064
 10
2.80387812344057
 20
5.906264657775064
  0
LWPOLYLINE
  5
84
100
AcDbEntity
  8
USP-GEO
100
AcDbPolyline
 90
        2
 70
   128
 43
0.0
 10
2.873034030949719
 20
5.888756833089203
 10
2.85552620626386
 20
5.888756833089203
  0
LWPOLYLINE
  5
85
100
AcDbEntity
  8
USP-GEO
100
AcDbPolyline
 90
        2
 70
   128
 43
0.0
 10
2.767987082834556
 20
5.941280307146785
 10
2.767987082834556
 20
5.958788131832646
  0
LWPOLYLINE
  5
86
100
AcDbEntity
  8
USP-GEO
100
AcDbPolyline
 90
       14
 70
   128
 43
0.0
 10
1.856704807935514
 20
8.464157844379293
 10
1.909228281993096
 20
8.271571772834827
 10
1.856704807935514
 20
8.0614778766045
 10
1.699134385762768
 20
7.903907454431756
 10
1.506548314218303
 20
7.851383980374173
 10
1.296454417987975
 20
7.903907454431756
 10
1.15639182050109
 20
8.0614778766045
 10
1.103868346443508
 20
8.271571772834827
 10
1.15639182050109
 20
8.464157844379293
 10
1.296454417987975
 20
8.622603657786331
 10
1.506548314218303
 20
8.675127131843915
 10
1.699134385762768
 20
8.622603657786331
 10
1.856704807935514
 20
8.464157844379293
 10
1.909228281993096
 20
8.271571772834827
  0
ENDBLK
  5
88
100
AcDbEntity
  8
0
100
AcDbBlockEnd
  0
BLOCK
  5
A6
100
AcDbEntity
  8
0
100
AcDbBlockBegin
  2
TDX5_S
 70
     0
 10
0.0
 20
0.0
 30
0.0
  3
TDX5_S
  1

  0
LWPOLYLINE
  5
8B
100
AcDbEntity
  8
USP-GEO
100
AcDbPolyline
 90
       16
 70
   128
 43
0.0
 10
3.537455977778128
 20
5.888756833089203
 10
3.537455977778128
 20
5.906264657775064
 10
3.537455977778128
 20
5.958788131832646
 10
3.537455977778128
 20
6.011311605890227
 10
3.537455977778128
 20
9.392947943964196
 10
3.660010750579152
 20
9.392947943964196
 10
3.660010750579152
 20
6.011311605890227
 10
3.660010750579152
 20
5.976295956518507
 10
3.660010750579152
 20
5.923772482460924
 10
3.660010750579152
 20
5.906264657775064
 10
3.660010750579152
 20
1.524931530138456
 10
3.660010750579152
 20
1.507423705452595
 10
3.660010750579152
 20
1.454900231395013
 10
3.660010750579152
 20
1.402376757337432
 10
3.537455977778128
 20
1.402376757337432
 10
3.537455977778128
 20
1.454900231395013
  0
LWPOLYLINE
  5
8C
100
AcDbEntity
  8
USP-GEO
100
AcDbPolyline
 90
       20
 70
   128
 43
0.0
 10
3.660886141813444
 20
1.524931530138456
 10
3.660010750579152
 20
1.524931530138456
 10
3.660886141813444
 20
1.524931530138456
 10
3.660010750579152
 20
1.524931530138456
 10
3.660010750579152
 20
5.906264657775064
 10
3.660010750579152
 20
5.923772482460924
 10
3.660010750579152
 20
5.976295956518507
 10
3.660010750579152
 20
6.011311605890227
 10
3.660010750579152
 20
9.392947943964196
 10
3.537455977778128
 20
9.392947943964196
 10
3.537455977778128
 20
6.011311605890227
 10
3.537455977778128
 20
5.958788131832646
 10
3.537455977778128
 20
5.906264657775064
 10
3.537455977778128
 20
5.888756833089203
 10
3.660010750579152
 20
5.888756833089203
 10
3.537455977778128
 20
5.888756833089203
 10
3.589979451835711
 20
5.888756833089203
 10
3.62499510120743
 20
5.888756833089203
 10
3.660010750579152
 20
5.888756833089203
 10
3.660886141813444
 20
5.888756833089203
  0
LWPOLYLINE
  5
8D
100
AcDbEntity
  8
USP-GEO
100
AcDbPolyline
 90
        4
 70
   128
 43
0.0
 10
-0.0008753912342936
 20
0.2810005862080622
 10
-0.0008753912342936
 20
0.2634927615222011
 10
-0.0008753912342936
 20
0.1750782468586074
 10
3.047236886574031
 20
0.1750782468586074
  0
LWPOLYLINE
  5
8E
100
AcDbEntity
  8
USP-GEO
100
AcDbPolyline
 90
        9
 70
   128
 43
0.0
 10
-0.0008753912342936
 20
0.2634927615222011
 10
-0.0008753912342936
 20
0.1750782468586074
 10
-0.0008753912342936
 20
0.1575704221727463
 10
-0.0008753912342936
 20
0.1400625974868852
 10
-0.0008753912342936
 20
0.1225547728010241
 10
-0.0008753912342936
 20
0.0700312987434444
 10
-0.0008753912342936
 20
0.0350156493717222
 10
-0.0008753912342936
 20
0.0
 10
3.047236886574031
 20
0.0
  0
LWPOLYLINE
  5
8F
100
AcDbEntity
  8
USP-GEO
100
AcDbPolyline
 90
       15
 70
   128
 43
0.0
 10
-0.0008753912342936
 20
0.2634927615222011
 10
3.467424679034687
 20
5.78370988497404
 10
3.467424679034687
 20
1.524931530138456
 10
3.169791659375055
 20
1.524931530138456
 10
3.134776010003333
 20
1.524931530138456
 10
3.082252535945753
 20
1.489915880766735
 10
3.064744711259892
 20
1.454900231395013
 10
3.047236886574031
 20
1.402376757337432
 10
3.047236886574031
 20
0.1750782468586074
 10
3.047236886574031
 20
0.1575704221727463
 10
3.047236886574031
 20
0.1400625974868852
 10
3.047236886574031
 20
0.1225547728010241
 10
3.047236886574031
 20
0.0700312987434444
 10
3.047236886574031
 20
0.0350156493717222
 10
3.047236886574031
 20
0.0
  0
LWPOLYLINE
  5
90
100
AcDbEntity
  8
USP-GEO
100
AcDbPolyline
 90
        2
 70
   128
 43
0.0
 10
-0.0008753912342936
 20
0.0
 10
3.047236886574031
 20
0.0
  0
LWPOLYLINE
  5
91
100
AcDbEntity
  8
USP-GEO
100
AcDbPolyline
 90
        5
 70
   128
 43
0.0
 10
3.537455977778128
 20
5.888756833089203
 10
3.519948153092267
 20
5.888756833089203
 10
3.519948153092267
 20
5.853741183717483
 10
3.467424679034687
 20
5.78370988497404
 10
-0.0008753912342936
 20
0.2634927615222011
  0
LWPOLYLINE
  5
92
100
AcDbEntity
  8
USP-GEO
100
AcDbPolyline
 90
        3
 70
   128
 43
0.0
 10
3.537455977778128
 20
5.888756833089203
 10
3.467424679034687
 20
5.78370988497404
 10
0.0341402581374286
 20
0.3335240602656455
  0
TEXT
  5
93
100
AcDbEntity
  8
USP-TXT
100
AcDbText
 10
-0.0757031613714698
 20
-1.139835413715374
 30
0.0
 40
0.296875
  1
TDX5 - SIDE VIEW
 72
     1
 11
2.249817671961864
 21
-1.139835413715374
 31
0.0
100
AcDbText
  0
LWPOLYLINE
  5
94
100
AcDbEntity
  8
USP-GEO
100
AcDbPolyline
 90
        7
 70
   128
 43
0.0
 10
-0.0008753912342936
 20
0.1750782468586074
 10
-0.0008753912342936
 20
0.1575704221727463
 10
-0.0008753912342936
 20
0.1400625974868852
 10
-0.0008753912342936
 20
0.1225547728010241
 10
-0.0008753912342936
 20
0.0700312987434444
 10
-0.0008753912342936
 20
0.0350156493717222
 10
-0.0008753912342936
 20
0.0
  0
LWPOLYLINE
  5
95
100
AcDbEntity
  8
USP-GEO
100
AcDbPolyline
 90
        2
 70
   129
 43
0.0
 10
0.0
 20
0.0
 10
-0.0008753912342936
 20
0.0
  0
LWPOLYLINE
  5
96
100
AcDbEntity
  8
USP-GEO
100
AcDbPolyline
 90
        2
 70
   128
 43
0.0
 10
-0.0008753912342936
 20
0.0
 10
0.0
 20
0.0
  0
LWPOLYLINE
  5
97
100
AcDbEntity
  8
USP-GEO
100
AcDbPolyline
 90
        2
 70
   129
 43
0.0
 10
0.0
 20
0.0
 10
-0.0008753912342936
 20
0.0
  0
LWPOLYLINE
  5
98
100
AcDbEntity
  8
USP-GEO
100
AcDbPolyline
 90
        2
 70
   128
 43
0.0
 10
-0.0008753912342936
 20
0.2810005862080622
 10
-0.0008753912342936
 20
0.2634927615222011
  0
LWPOLYLINE
  5
99
100
AcDbEntity
  8
USP-GEO
100
AcDbPolyline
 90
        2
 70
   129
 43
0.0
 10
0.0
 20
0.2634927615222011
 10
-0.0008753912342936
 20
0.2634927615222011
  0
LWPOLYLINE
  5
9A
100
AcDbEntity
  8
USP-GEO
100
AcDbPolyline
 90
        2
 70
   129
 43
0.0
 10
0.0
 20
0.2810005862080622
 10
-0.0008753912342936
 20
0.2810005862080622
  0
LWPOLYLINE
  5
9B
100
AcDbEntity
  8
USP-GEO
100
AcDbPolyline
 90
        2
 70
   129
 43
0.0
 10
0.0
 20
0.2634927615222011
 10
-0.0008753912342936
 20
0.2634927615222011
  0
LWPOLYLINE
  5
9C
100
AcDbEntity
  8
USP-GEO
100
AcDbPolyline
 90
        4
 70
   128
 43
0.0
 10
0.0516480828232879
 20
0.3335240602656455
 10
0.0341402581374286
 20
0.3335240602656455
 10
0.0166324334515675
 20
0.2985084108939233
 10
-0.0008753912342936
 20
0.2810005862080622
  0
LWPOLYLINE
  5
9D
100
AcDbEntity
  8
USP-GEO
100
AcDbPolyline
 90
        8
 70
   128
 43
0.0
 10
3.047236886574031
 20
1.402376757337432
 10
3.047236886574031
 20
0.1750782468586074
 10
3.047236886574031
 20
0.1575704221727463
 10
3.047236886574031
 20
0.1400625974868852
 10
3.047236886574031
 20
0.1225547728010241
 10
3.047236886574031
 20
0.0700312987434444
 10
3.047236886574031
 20
0.0350156493717222
 10
3.047236886574031
 20
0.0
  0
LWPOLYLINE
  5
9E
100
AcDbEntity
  8
USP-GEO
100
AcDbPolyline
 90
        2
 70
   129
 43
0.0
 10
3.048112277808323
 20
0.0
 10
3.047236886574031
 20
0.0
  0
LWPOLYLINE
  5
9F
100
AcDbEntity
  8
USP-GEO
100
AcDbPolyline
 90
        2
 70
   128
 43
0.0
 10
3.047236886574031
 20
0.0
 10
3.048112277808323
 20
0.0
  0
LWPOLYLINE
  5
A0
100
AcDbEntity
  8
USP-GEO
100
AcDbPolyline
 90
        2
 70
   129
 43
0.0
 10
3.048112277808323
 20
0.0
 10
3.047236886574031
 20
0.0
  0
LWPOLYLINE
  5
A1
100
AcDbEntity
  8
USP-GEO
100
AcDbPolyline
 90
        2
 70
   129
 43
0.0
 10
3.537455977778128
 20
1.507423705452595
 10
3.537455977778128
 20
1.454900231395013
  0
LWPOLYLINE
  5
A2
100
AcDbEntity
  8
USP-GEO
100
AcDbPolyline
 90
       12
 70
   128
 43
0.0
 10
3.537455977778128
 20
1.454900231395013
 10
3.537455977778128
 20
1.402376757337432
 10
3.660010750579152
 20
1.402376757337432
 10
3.660010750579152
 20
1.454900231395013
 10
3.660010750579152
 20
1.507423705452595
 10
3.660010750579152
 20
1.524931530138456
 10
3.62499510120743
 20
1.524931530138456
 10
3.589979451835711
 20
1.507423705452595
 10
3.537455977778128
 20
1.507423705452595
 10
3.502440328406406
 20
1.507423705452595
 10
3.484932503720544
 20
1.507423705452595
 10
3.467424679034687
 20
1.524931530138456
  0
LWPOLYLINE
  5
A3
100
AcDbEntity
  8
USP-GEO
100
AcDbPolyline
 90
        2
 70
   129
 43
0.0
 10
3.53833136901242
 20
5.888756833089203
 10
3.537455977778128
 20
5.888756833089203
  0
LWPOLYLINE
  5
A4
100
AcDbEntity
  8
USP-GEO
100
AcDbPolyline
 90
        2
 70
   128
 43
0.0
 10
3.660010750579152
 20
5.888756833089203
 10
3.660010750579152
 20
5.906264657775064
  0
LWPOLYLINE
  5
A5
100
AcDbEntity
  8
USP-GEO
100
AcDbPolyline
 90
        2
 70
   128
 43
0.0
 10
3.660010750579152
 20
6.011311605890227
 10
3.537455977778128
 20
6.011311605890227
  0
ENDBLK
  5
A7
100
AcDbEntity
  8
0
100
AcDbBlockEnd
  0
ENDSEC
  0
SECTION
  2
ENTITIES
  0
INSERT
  5
3
100
AcDbEntity
  8
USP
100
AcDbBlockReference
  2
TDX5_T
 10
0.9664414645140784
 20
13.88081474806699
 30
0.0
  0
INSERT
  5
36
100
AcDbEntity
  8
USP
100
AcDbBlockReference
  2
TDX5_F
 10
0.9664414645140784
 20
1.140370724166256
 30
0.0
  0
INSERT
  5
89
100
AcDbEntity
  8
USP
100
AcDbBlockReference
  2
TDX5_S
 10
7.537128069117551
 20
1.140370724166256
 30
0.0
  0
ENDSEC
  0
SECTION
  2
OBJECTS
  0
DICTIONARY
  5
C0
102
{ACAD_XDICTIONARY
360
C1
102
}
100
AcDbDictionary
  3
ACAD_GROUP
350
BE
  3
ACAD_MLINESTYLE
350
BF
  0
DICTIONARY
  5
E
100
AcDbDictionary
280
     1
  3
ACAD_XREC_ROUNDTRIP
360
F
  0
DICTIONARY
  5
9
100
AcDbDictionary
280
     1
  3
ACAD_XREC_ROUNDTRIP
360
A
  0
DICTIONARY
  5
A8
100
AcDbDictionary
280
     1
  3
ACAD_LAYOUTSELFREF
360
A9
  0
DICTIONARY
  5
AD
100
AcDbDictionary
280
     1
  3
ACAD_LAYOUTSELFREF
360
AE
  0
DICTIONARY
  5
C1
100
AcDbDictionary
280
     1
  3
ACAD_XREC_ROUNDTRIP
360
C2
  0
DICTIONARY
  5
BE
102
{ACAD_REACTORS
330
C0
102
}
100
AcDbDictionary
  0
DICTIONARY
  5
BF
102
{ACAD_REACTORS
330
C0
102
}
100
AcDbDictionary
  3
STANDARD
350
C3
  0
XRECORD
  5
F
102
{ACAD_REACTORS
330
E
102
}
100
AcDbXrecord
102
EXTNAMES
  1
USP-GEO
  2
USP-Geo
  0
XRECORD
  5
A
102
{ACAD_REACTORS
330
9
102
}
100
AcDbXrecord
102
EXTNAMES
  1
USP-TXT
  2
USP-Txt
  0
XRECORD
  5
A9
102
{ACAD_REACTORS
330
A8
102
}
100
AcDbXrecord
340
18
  0
XRECORD
  5
AE
102
{ACAD_REACTORS
330
AD
102
}
100
AcDbXrecord
340
15
  0
XRECORD
  5
C2
102
{ACAD_REACTORS
330
C1
102
}
100
AcDbXrecord
102
EXTNAMES
  1
ACDBVARIABLEDICTIONARY
  2
AcDbVariableDictionary
  0
MLINESTYLE
  5
C3
102
{ACAD_REACTORS
330
BF
102
}
100
AcDbMlineStyle
  2
STANDARD
 70
     0
  3

 62
     0
 51
90.0
 52
90.0
 71
     2
 49
0.5
 62
   256
  6
BYLAYER
 49
-0.5
 62
   256
  6
BYLAYER
  0
ENDSEC
  0
EOF
