  0
SECTION
  2
HEADER
  9
$ACADVER
  1
AC1014
  9
$ACADMAINTVER
 70
     8
  9
$DWGCODEPAGE
  3
ANSI_1252
  9
$INSBASE
 10
0.0
 20
0.0
 30
0.0
  9
$EXTMIN
 10
-0.1333627055408408
 20
0.0504840443095738
 30
0.0
  9
$EXTMAX
 10
13.23888172874294
 20
11.84785221921994
 30
0.0
  9
$LIMMIN
 10
0.0
 20
0.0
  9
$LIMMAX
 10
12.0
 20
9.0
  9
$ORTHOMODE
 70
     1
  9
$REGENMODE
 70
     1
  9
$FILLMODE
 70
     1
  9
$QTEXTMODE
 70
     0
  9
$MIRRTEXT
 70
     0
  9
$DRAGMODE
 70
     2
  9
$LTSCALE
 40
1.5
  9
$OSMODE
 70
     1
  9
$ATTMODE
 70
     1
  9
$TEXTSIZE
 40
0.25
  9
$TRACEWID
 40
0.05
  9
$TEXTSTYLE
  7
STANDARD
  9
$CLAYER
  8
USP
  9
$CELTYPE
  6
BYLAYER
  9
$CECOLOR
 62
   256
  9
$CELTSCALE
 40
1.0
  9
$DELOBJ
 70
     1
  9
$DISPSILH
 70
     1
  9
$DIMSCALE
 40
3.0
  9
$DIMASZ
 40
0.09375
  9
$DIMEXO
 40
0.0625
  9
$DIMDLI
 40
0.38
  9
$DIMRND
 40
0.0
  9
$DIMDLE
 40
0.0
  9
$DIMEXE
 40
0.09375
  9
$DIMTP
 40
0.0
  9
$DIMTM
 40
0.0
  9
$DIMTXT
 40
0.09375
  9
$DIMCEN
 40
0.0
  9
$DIMTSZ
 40
0.0
  9
$DIMTOL
 70
     0
  9
$DIMLIM
 70
     0
  9
$DIMTIH
 70
     1
  9
$DIMTOH
 70
     1
  9
$DIMSE1
 70
     0
  9
$DIMSE2
 70
     0
  9
$DIMTAD
 70
     0
  9
$DIMZIN
 70
     0
  9
$DIMBLK
  1

  9
$DIMASO
 70
     1
  9
$DIMSHO
 70
     1
  9
$DIMPOST
  1

  9
$DIMAPOST
  1

  9
$DIMALT
 70
     0
  9
$DIMALTD
 70
     2
  9
$DIMALTF
 40
25.4
  9
$DIMLFAC
 40
1.0
  9
$DIMTOFL
 70
     0
  9
$DIMTVP
 40
0.0
  9
$DIMTIX
 70
     0
  9
$DIMSOXD
 70
     0
  9
$DIMSAH
 70
     0
  9
$DIMBLK1
  1

  9
$DIMBLK2
  1

  9
$DIMSTYLE
  2
FRACTION
  9
$DIMCLRD
 70
     0
  9
$DIMCLRE
 70
     0
  9
$DIMCLRT
 70
     0
  9
$DIMTFAC
 40
6.0
  9
$DIMGAP
 40
0.09
  9
$DIMJUST
 70
     0
  9
$DIMSD1
 70
     0
  9
$DIMSD2
 70
     0
  9
$DIMTOLJ
 70
     1
  9
$DIMTZIN
 70
     0
  9
$DIMALTZ
 70
     0
  9
$DIMALTTZ
 70
     0
  9
$DIMFIT
 70
     3
  9
$DIMUPT
 70
     1
  9
$DIMUNIT
 70
     7
  9
$DIMDEC
 70
     4
  9
$DIMTDEC
 70
     4
  9
$DIMALTU
 70
     2
  9
$DIMALTTD
 70
     2
  9
$DIMTXSTY
  7
STANDARD
  9
$DIMAUNIT
 70
     0
  9
$LUNITS
 70
     5
  9
$LUPREC
 70
     6
  9
$SKETCHINC
 40
0.1
  9
$FILLETRAD
 40
0.0
  9
$AUNITS
 70
     0
  9
$AUPREC
 70
     1
  9
$MENU
  1
CUSTOM
  9
$ELEVATION
 40
0.0
  9
$PELEVATION
 40
0.0
  9
$THICKNESS
 40
0.0
  9
$LIMCHECK
 70
     0
  9
$BLIPMODE
 70
     0
  9
$CHAMFERA
 40
0.0
  9
$CHAMFERB
 40
0.0
  9
$CHAMFERC
 40
0.0
  9
$CHAMFERD
 40
0.0
  9
$SKPOLY
 70
     0
  9
$TDCREATE
 40
2451263.579898032
  9
$TDUPDATE
 40
2452990.857497465
  9
$TDINDWG
 40
1.0539301968
  9
$TDUSRTIMER
 40
1.0539301968
  9
$USRTIMER
 70
     1
  9
$ANGBASE
 50
0.0
  9
$ANGDIR
 70
     0
  9
$PDMODE
 70
     0
  9
$PDSIZE
 40
0.0
  9
$PLINEWID
 40
0.0
  9
$COORDS
 70
     2
  9
$SPLFRAME
 70
     0
  9
$SPLINETYPE
 70
     6
  9
$SPLINESEGS
 70
     8
  9
$ATTDIA
 70
     0
  9
$ATTREQ
 70
     0
  9
$HANDLING
 70
     1
  9
$HANDSEED
  5
B9
  9
$SURFTAB1
 70
     6
  9
$SURFTAB2
 70
     6
  9
$SURFTYPE
 70
     6
  9
$SURFU
 70
     6
  9
$SURFV
 70
     6
  9
$UCSNAME
  2

  9
$UCSORG
 10
0.0
 20
0.0
 30
0.0
  9
$UCSXDIR
 10
1.0
 20
0.0
 30
0.0
  9
$UCSYDIR
 10
0.0
 20
1.0
 30
0.0
  9
$PUCSNAME
  2

  9
$PUCSORG
 10
0.0
 20
0.0
 30
0.0
  9
$PUCSXDIR
 10
1.0
 20
0.0
 30
0.0
  9
$PUCSYDIR
 10
0.0
 20
1.0
 30
0.0
  9
$USERI1
 70
     0
  9
$USERI2
 70
     0
  9
$USERI3
 70
     0
  9
$USERI4
 70
     0
  9
$USERI5
 70
     0
  9
$USERR1
 40
0.0
  9
$USERR2
 40
0.0
  9
$USERR3
 40
0.0
  9
$USERR4
 40
0.0
  9
$USERR5
 40
0.0
  9
$WORLDVIEW
 70
     1
  9
$SHADEDGE
 70
     3
  9
$SHADEDIF
 70
    70
  9
$TILEMODE
 70
     1
  9
$MAXACTVP
 70
    16
  9
$PINSBASE
 10
0.0
 20
0.0
 30
0.0
  9
$PLIMCHECK
 70
     0
  9
$PEXTMIN
 10
0.0
 20
0.0
 30
0.0
  9
$PEXTMAX
 10
0.0
 20
0.0
 30
0.0
  9
$PLIMMIN
 10
0.0
 20
0.0
  9
$PLIMMAX
 10
12.0
 20
9.0
  9
$UNITMODE
 70
     0
  9
$VISRETAIN
 70
     0
  9
$PLINEGEN
 70
     0
  9
$PSLTSCALE
 70
     1
  9
$TREEDEPTH
 70
  3020
  9
$PICKSTYLE
 70
     1
  9
$CMLSTYLE
  2
STANDARD
  9
$CMLJUST
 70
     0
  9
$CMLSCALE
 40
1.0
  9
$PROXYGRAPHICS
 70
     1
  9
$MEASUREMENT
 70
     0
  0
ENDSEC
  0
SECTION
  2
CLASSES
  0
CLASS
  1
ACDBDICTIONARYWDFLT
  2
AcDbDictionaryWithDefault
  3
AutoCAD 2000
 90
        0
280
     0
281
     0
  0
CLASS
  1
ACDBPLACEHOLDER
  2
AcDbPlaceHolder
  3
AutoCAD 2000
 90
        0
280
     0
281
     0
  0
CLASS
  1
LAYOUT
  2
AcDbLayout
  3
AutoCAD 2000
 90
        0
280
     0
281
     0
  0
CLASS
  1
DICTIONARYVAR
  2
AcDbDictionaryVar
  3
"AutoCAD"
 90
        0
280
     0
281
     0
  0
CLASS
  1
LONG_TRANSACTION
  2
AcDbLongTransaction
  3
AutoCAD 2000
 90
        0
280
     0
281
     0
  0
CLASS
  1
LWPOLYLINE
  2
AcDbPolyline
  3
"AutoCAD"
 90
        0
280
     0
281
     1
  0
CLASS
  1
HATCH
  2
AcDbHatch
  3
"ACAD_SEDONA"
 90
        0
280
     0
281
     1
  0
CLASS
  1
XRECORD
  2
AcDbXrecord
  3
"<Built In>"
 90
        0
280
     0
281
     0
  0
CLASS
  1
LONG_TRANSACTION
  2
AcDbLongTransaction
  3
AutoCAD 2000
 90
        0
280
     0
281
     0
  0
CLASS
  1
LWPOLYLINE
  2
AcDbPolyline
  3
"AutoCAD"
 90
        0
280
     0
281
     1
  0
CLASS
  1
HATCH
  2
AcDbHatch
  3
"ACAD_SEDONA"
 90
        0
280
     0
281
     1
  0
CLASS
  1
XRECORD
  2
AcDbXrecord
  3
"<Built In>"
 90
        0
280
     0
281
     0
  0
CLASS
  1
LONG_TRANSACTION
  2
AcDbLongTransaction
  3
AutoCAD 2000
 90
        0
280
     0
281
     0
  0
CLASS
  1
LWPOLYLINE
  2
AcDbPolyline
  3
"AutoCAD"
 90
        0
280
     0
281
     1
  0
CLASS
  1
HATCH
  2
AcDbHatch
  3
"ACAD_SEDONA"
 90
        0
280
     0
281
     1
  0
CLASS
  1
XRECORD
  2
AcDbXrecord
  3
"<Built In>"
 90
        0
280
     0
281
     0
  0
CLASS
  1
LONG_TRANSACTION
  2
AcDbLongTransaction
  3
AutoCAD 2000
 90
        0
280
     0
281
     0
  0
CLASS
  1
LWPOLYLINE
  2
AcDbPolyline
  3
"AutoCAD"
 90
        0
280
     0
281
     1
  0
CLASS
  1
HATCH
  2
AcDbHatch
  3
"ACAD_SEDONA"
 90
        0
280
     0
281
     1
  0
CLASS
  1
XRECORD
  2
AcDbXrecord
  3
"<Built In>"
 90
        0
280
     0
281
     0
  0
CLASS
  1
LONG_TRANSACTION
  2
AcDbLongTransaction
  3
AutoCAD 2000
 90
        0
280
     0
281
     0
  0
CLASS
  1
LWPOLYLINE
  2
AcDbPolyline
  3
"AutoCAD"
 90
        0
280
     0
281
     1
  0
CLASS
  1
HATCH
  2
AcDbHatch
  3
"ACAD_SEDONA"
 90
        0
280
     0
281
     1
  0
CLASS
  1
XRECORD
  2
AcDbXrecord
  3
"<Built In>"
 90
        0
280
     0
281
     0
  0
ENDSEC
  0
SECTION
  2
TABLES
  0
TABLE
  2
VPORT
  5
A7
100
AcDbSymbolTable
 70
     1
  0
VPORT
  5
A8
100
AcDbSymbolTableRecord
100
AcDbViewportTableRecord
  2
*ACTIVE
 70
     0
 10
0.0
 20
0.0
 11
1.0
 21
1.0
 12
0.7963462824558772
 22
-86.91212734314957
 13
0.0
 23
0.0
 14
1.0
 24
1.0
 15
0.0
 25
0.0
 16
0.0
 26
0.0
 36
1.0
 17
6.703512962608391
 27
93.79416145951735
 37
-8.406864040334092
 40
13.73419193095238
 41
1.45617529880478
 42
50.0
 43
0.0
 44
0.0
 50
0.0
 51
0.0
 71
     0
 72
   100
 73
     1
 74
     1
 75
     0
 76
     0
 77
     0
 78
     0
  0
ENDTAB
  0
TABLE
  2
LTYPE
  5
A2
100
AcDbSymbolTable
 70
     1
  0
LTYPE
  5
A3
100
AcDbSymbolTableRecord
100
AcDbLinetypeTableRecord
  2
BYBLOCK
 70
     0
  3

 72
    65
 73
     0
 40
0.0
  0
LTYPE
  5
A4
100
AcDbSymbolTableRecord
100
AcDbLinetypeTableRecord
  2
BYLAYER
 70
     0
  3

 72
    65
 73
     0
 40
0.0
  0
LTYPE
  5
5
100
AcDbSymbolTableRecord
100
AcDbLinetypeTableRecord
  2
CONTINUOUS
 70
     0
  3
Solid line
 72
    65
 73
     0
 40
0.0
  0
ENDTAB
  0
TABLE
  2
LAYER
  5
A0
100
AcDbSymbolTable
 70
     5
  0
LAYER
  5
2E
102
{ACAD_XDICTIONARY
360
2F
102
}
100
AcDbSymbolTableRecord
100
AcDbLayerTableRecord
  2
0
 70
     0
 62
     7
  6
CONTINUOUS
  0
LAYER
  5
D
102
{ACAD_XDICTIONARY
360
E
102
}
100
AcDbSymbolTableRecord
100
AcDbLayerTableRecord
  2
USP-GEO
 70
     0
 62
     7
  6
CONTINUOUS
  0
LAYER
  5
8
102
{ACAD_XDICTIONARY
360
9
102
}
100
AcDbSymbolTableRecord
100
AcDbLayerTableRecord
  2
USP-TXT
 70
     0
 62
     7
  6
CONTINUOUS
  0
LAYER
  5
12
102
{ACAD_XDICTIONARY
360
13
102
}
100
AcDbSymbolTableRecord
100
AcDbLayerTableRecord
  2
USP-HID
 70
     0
 62
     7
  6
CONTINUOUS
  0
LAYER
  5
4
100
AcDbSymbolTableRecord
100
AcDbLayerTableRecord
  2
USP
 70
     0
 62
     7
  6
CONTINUOUS
  0
ENDTAB
  0
TABLE
  2
STYLE
  5
A1
100
AcDbSymbolTable
 70
     1
  0
STYLE
  5
B
100
AcDbSymbolTableRecord
100
AcDbTextStyleTableRecord
  2
STANDARD
 70
     0
 40
0.0
 41
1.0
 50
0.0
 71
     0
 42
0.25
  3
txt
  4

  0
ENDTAB
  0
TABLE
  2
VIEW
  5
A5
100
AcDbSymbolTable
 70
     0
  0
ENDTAB
  0
TABLE
  2
UCS
  5
A6
100
AcDbSymbolTable
 70
     0
  0
ENDTAB
  0
TABLE
  2
APPID
  5
A9
100
AcDbSymbolTable
 70
     1
  0
APPID
  5
AA
100
AcDbSymbolTableRecord
100
AcDbRegAppTableRecord
  2
ACAD
 70
     0
  0
ENDTAB
  0
TABLE
  2
DIMSTYLE
  5
AB
100
AcDbSymbolTable
 70
     1
  0
DIMSTYLE
105
B3
102
{ACAD_XDICTIONARY
360
B4
102
}
100
AcDbSymbolTableRecord
100
AcDbDimStyleTableRecord
  2
FRACTION
 70
     0
  3

  4

  5

  6

  7

 40
3.0
 41
0.09375
 42
0.0625
 43
0.38
 44
0.09375
 45
0.0
 46
0.0
 47
0.0
 48
0.0
140
0.09375
141
0.0
142
0.0
143
25.4
144
1.0
145
0.0
146
6.0
147
0.09
 71
     0
 72
     0
 73
     1
 74
     1
 75
     0
 76
     0
 77
     0
 78
     0
170
     0
171
     2
172
     0
173
     0
174
     0
175
     0
176
     0
177
     0
178
     0
270
     7
271
     4
272
     4
273
     2
274
     2
340
B
275
     0
280
     0
281
     0
282
     0
283
     1
284
     0
285
     0
286
     0
287
     3
288
     1
  0
ENDTAB
  0
TABLE
  2
BLOCK_RECORD
  5
1
100
AcDbSymbolTable
 70
     4
  0
BLOCK_RECORD
  5
2
102
{ACAD_XDICTIONARY
360
96
102
}
100
AcDbSymbolTableRecord
100
AcDbBlockTableRecord
  2
*MODEL_SPACE
  0
BLOCK_RECORD
  5
9A
102
{ACAD_XDICTIONARY
360
9B
102
}
100
AcDbSymbolTableRecord
100
AcDbBlockTableRecord
  2
*PAPER_SPACE
  0
BLOCK_RECORD
  5
6
100
AcDbSymbolTableRecord
100
AcDbBlockTableRecord
  2
RT4PR-LEFT_F
  0
BLOCK_RECORD
  5
33
100
AcDbSymbolTableRecord
100
AcDbBlockTableRecord
  2
RT4PR-LEFT_S
  0
BLOCK_RECORD
  5
55
100
AcDbSymbolTableRecord
100
AcDbBlockTableRecord
  2
RT4PR-RIGHT_F
  0
BLOCK_RECORD
  5
75
100
AcDbSymbolTableRecord
100
AcDbBlockTableRecord
  2
RT4PR-RIGHT_S
  0
ENDTAB
  0
ENDSEC
  0
SECTION
  2
BLOCKS
  0
BLOCK
  5
98
100
AcDbEntity
  8
0
100
AcDbBlockBegin
  2
*MODEL_SPACE
 70
     0
 10
0.0
 20
0.0
 30
0.0
  3
*MODEL_SPACE
  1

  0
ENDBLK
  5
99
100
AcDbEntity
  8
0
100
AcDbBlockEnd
  0
BLOCK
  5
9E
100
AcDbEntity
 67
     1
  8
0
100
AcDbBlockBegin
  2
*PAPER_SPACE
 70
     0
 10
0.0
 20
0.0
 30
0.0
  3
*PAPER_SPACE
  1

  0
ENDBLK
  5
9F
100
AcDbEntity
 67
     1
  8
0
100
AcDbBlockEnd
  0
BLOCK
  5
2D
100
AcDbEntity
  8
0
100
AcDbBlockBegin
  2
RT4PR-LEFT_F
 70
     0
 10
0.0
 20
0.0
 30
0.0
  3
RT4PR-LEFT_F
  1

  0
TEXT
  5
7
100
AcDbEntity
  8
USP-TXT
100
AcDbText
 10
-1.781101594156621
 20
-1.37013514767564
 30
0.0
 40
0.25
  1
RT4 (LEFT) - FRONT VIEW
 72
     1
 11
1.010565072510044
 21
-1.37013514767564
 31
0.0
100
AcDbText
  0
LWPOLYLINE
  5
C
100
AcDbEntity
  8
USP-GEO
100
AcDbPolyline
 90
        2
 70
   128
 43
0.0
 10
0.5315654969369028
 20
3.05059532408789
 10
2.021130145020089
 20
0.4612807256752447
  0
LWPOLYLINE
  5
10
100
AcDbEntity
  8
USP-GEO
100
AcDbPolyline
 90
        2
 70
   128
 43
0.0
 10
2.021130145020089
 20
0.0
 10
0.0708753995915874
 20
0.0
  0
LWPOLYLINE
  5
11
100
AcDbEntity
  8
USP-HID
100
AcDbPolyline
 90
        2
 70
   128
 43
0.0
 10
0.0354376997957937
 20
3.677251982143506
 10
0.0354376997957937
 20
1.406876681893002
  0
LWPOLYLINE
  5
15
100
AcDbEntity
  8
USP-GEO
100
AcDbPolyline
 90
        2
 70
   128
 43
0.0
 10
0.0
 20
3.677251982143506
 10
0.0
 20
1.406876681893002
  0
LWPOLYLINE
  5
16
100
AcDbEntity
  8
USP-GEO
100
AcDbPolyline
 90
        2
 70
   128
 43
0.0
 10
0.0708753995915874
 20
0.0
 10
0.0708753995915874
 20
1.30056358250562
  0
CIRCLE
  5
17
100
AcDbEntity
  8
USP-GEO
100
AcDbCircle
 10
0.4467308071500394
 20
0.3077254696432732
 30
0.0
 40
0.07
  0
ARC
  5
18
100
AcDbEntity
  8
USP-GEO
100
AcDbCircle
 10
-0.1157691928500055
 20
1.294725469643246
 30
0.0
 40
0.1875
100
AcDbArc
 50
1.791587938256093
 51
36.56458706851693
  0
LWPOLYLINE
  5
19
100
AcDbEntity
  8
USP-HID
100
AcDbPolyline
 90
        2
 70
   128
 43
0.0
 10
0.0
 20
1.489564648083186
 10
0.0354376997957937
 20
1.489564648083186
  0
LWPOLYLINE
  5
1A
100
AcDbEntity
  8
USP-GEO
100
AcDbPolyline
 90
        2
 70
   128
 43
0.0
 10
0.0
 20
1.406876681893002
 10
0.0354376997957937
 20
1.406876681893002
  0
CIRCLE
  5
1B
100
AcDbEntity
  8
USP-GEO
100
AcDbCircle
 10
0.5467308071499866
 20
0.969725469643258
 30
0.0
 40
0.07
  0
LWPOLYLINE
  5
1C
100
AcDbEntity
  8
USP-GEO
100
AcDbPolyline
 90
        2
 70
   128
 43
0.0
 10
0.0354376997957937
 20
3.677251982143506
 10
0.5315654969369028
 20
3.05059532408789
  0
LWPOLYLINE
  5
1D
100
AcDbEntity
  8
USP-HID
100
AcDbPolyline
 90
        2
 70
   128
 43
0.0
 10
0.0354376997957937
 20
2.731065397595818
 10
0.0
 20
2.731065397595818
  0
LWPOLYLINE
  5
1E
100
AcDbEntity
  8
USP-HID
100
AcDbPolyline
 90
        2
 70
   128
 43
0.0
 10
0.0354376997957937
 20
2.672002564602829
 10
0.0
 20
2.672002564602829
  0
LWPOLYLINE
  5
1F
100
AcDbEntity
  8
USP-HID
100
AcDbPolyline
 90
        2
 70
   128
 43
0.0
 10
0.0354376997957937
 20
2.872816196778993
 10
0.0
 20
2.872816196778993
  0
LWPOLYLINE
  5
20
100
AcDbEntity
  8
USP-HID
100
AcDbPolyline
 90
        2
 70
   128
 43
0.0
 10
0.0354376997957937
 20
2.813753363786004
 10
0.0
 20
2.813753363786004
  0
LWPOLYLINE
  5
21
100
AcDbEntity
  8
USP-HID
100
AcDbPolyline
 90
        2
 70
   128
 43
0.0
 10
0.0354376997957937
 20
3.357722055651434
 10
0.0
 20
3.357722055651434
  0
LWPOLYLINE
  5
22
100
AcDbEntity
  8
USP-HID
100
AcDbPolyline
 90
        2
 70
   128
 43
0.0
 10
0.0354376997957937
 20
3.416784888644423
 10
0.0
 20
3.416784888644423
  0
LWPOLYLINE
  5
23
100
AcDbEntity
  8
USP-HID
100
AcDbPolyline
 90
        2
 70
   128
 43
0.0
 10
0.0
 20
3.440410021841618
 10
0.0354376997957937
 20
3.440410021841618
  0
LWPOLYLINE
  5
24
100
AcDbEntity
  8
USP-HID
100
AcDbPolyline
 90
        2
 70
   128
 43
0.0
 10
0.0354376997957937
 20
3.499472854834607
 10
0.0
 20
3.499472854834607
  0
LWPOLYLINE
  5
25
100
AcDbEntity
  8
USP-HID
100
AcDbPolyline
 90
        2
 70
   128
 43
0.0
 10
0.0354376997957937
 20
3.559126316157527
 10
0.0
 20
3.559126316157527
  0
LWPOLYLINE
  5
26
100
AcDbEntity
  8
USP-GEO
100
AcDbPolyline
 90
        2
 70
   128
 43
0.0
 10
0.0
 20
3.795377648129484
 10
0.0354376997957937
 20
3.795377648129484
  0
LWPOLYLINE
  5
27
100
AcDbEntity
  8
USP-GEO
100
AcDbPolyline
 90
        2
 70
   128
 43
0.0
 10
0.0
 20
3.795377648129484
 10
0.0
 20
3.677251982143506
  0
LWPOLYLINE
  5
28
100
AcDbEntity
  8
USP-GEO
100
AcDbPolyline
 90
        2
 70
   128
 43
0.0
 10
0.0
 20
3.677251982143506
 10
0.0354376997957937
 20
3.677251982143506
  0
LWPOLYLINE
  5
29
100
AcDbEntity
  8
USP-GEO
100
AcDbPolyline
 90
        2
 70
   128
 43
0.0
 10
0.0354376997957937
 20
3.795377648129484
 10
0.0354376997957937
 20
3.677251982143506
  0
CIRCLE
  5
2A
100
AcDbEntity
  8
USP-GEO
100
AcDbCircle
 10
1.646730807151434
 20
0.4327254696413441
 30
0.0
 40
0.072
  0
CIRCLE
  5
2B
100
AcDbEntity
  8
USP-GEO
100
AcDbCircle
 10
1.252632128929701
 20
1.032725469643253
 30
0.0
 40
0.07
  0
LWPOLYLINE
  5
2C
100
AcDbEntity
  8
USP-GEO
100
AcDbPolyline
 90
        2
 70
   128
 43
0.0
 10
2.021130145020089
 20
0.4612807256752447
 10
2.021130145020089
 20
0.0
  0
ENDBLK
  5
31
100
AcDbEntity
  8
0
100
AcDbBlockEnd
  0
BLOCK
  5
52
100
AcDbEntity
  8
0
100
AcDbBlockBegin
  2
RT4PR-LEFT_S
 70
     0
 10
0.0
 20
0.0
 30
0.0
  3
RT4PR-LEFT_S
  1

  0
TEXT
  5
34
100
AcDbEntity
  8
USP-TXT
100
AcDbText
 10
-1.68531032708154
 20
-1.37013514767564
 30
0.0
 40
0.25
  1
RT4 (LEFT) - SIDE VIEW
 72
     1
 11
0.9396896729184582
 21
-1.37013514767564
 31
0.0
100
AcDbText
  0
LWPOLYLINE
  5
35
100
AcDbEntity
  8
USP-GEO
100
AcDbPolyline
 90
        2
 70
   128
 43
0.0
 10
0.1305288609145059
 20
3.795377648129484
 10
1.879379345836914
 20
3.795377648129484
  0
LWPOLYLINE
  5
36
100
AcDbEntity
  8
USP-GEO
100
AcDbPolyline
 90
        2
 70
   128
 43
0.0
 10
0.7565948906401907
 20
1.489564648083186
 10
1.879379345836914
 20
3.440410021841618
  0
LWPOLYLINE
  5
37
100
AcDbEntity
  8
USP-GEO
100
AcDbPolyline
 90
        2
 70
   128
 43
0.0
 10
0.0478408947243221
 20
0.4612807256752447
 10
0.0478408947243221
 20
3.05059532408789
  0
LWPOLYLINE
  5
38
100
AcDbEntity
  8
USP-GEO
100
AcDbPolyline
 90
        2
 70
   128
 43
0.0
 10
0.0
 20
3.05059532408789
 10
0.0
 20
0.4612807256752447
  0
LWPOLYLINE
  5
39
100
AcDbEntity
  8
USP-GEO
100
AcDbPolyline
 90
        2
 70
   128
 43
0.0
 10
0.7565948906401907
 20
1.489564648083186
 10
0.2014042605060933
 20
1.489564648083186
  0
LWPOLYLINE
  5
3A
100
AcDbEntity
  8
USP-GEO
100
AcDbPolyline
 90
        2
 70
   128
 43
0.0
 10
0.0478408947243221
 20
0.0
 10
0.0478408947243221
 20
0.4612807256752447
  0
LWPOLYLINE
  5
3B
100
AcDbEntity
  8
USP-GEO
100
AcDbPolyline
 90
        2
 70
   128
 43
0.0
 10
0.0
 20
0.4612807256752447
 10
0.0
 20
0.0
  0
LWPOLYLINE
  5
3C
100
AcDbEntity
  8
USP-GEO
100
AcDbPolyline
 90
        2
 70
   128
 43
0.0
 10
0.0
 20
0.0
 10
0.0478408947243221
 20
0.0
  0
LWPOLYLINE
  5
3D
100
AcDbEntity
  8
USP-HID
100
AcDbPolyline
 90
        2
 70
   128
 43
0.0
 10
0.0478408947243221
 20
0.2362513319719568
 10
0.0
 20
0.2362513319719568
  0
LWPOLYLINE
  5
3E
100
AcDbEntity
  8
USP-HID
100
AcDbPolyline
 90
        2
 70
   128
 43
0.0
 10
0.0478408947243221
 20
0.3780021311551316
 10
0.0
 20
0.3780021311551316
  0
LWPOLYLINE
  5
3F
100
AcDbEntity
  8
USP-HID
100
AcDbPolyline
 90
        2
 70
   128
 43
0.0
 10
0.0478408947243221
 20
0.3661895645565316
 10
0.0
 20
0.3661895645565316
  0
LWPOLYLINE
  5
40
100
AcDbEntity
  8
USP-HID
100
AcDbPolyline
 90
        2
 70
   128
 43
0.0
 10
0.0478408947243221
 20
0.5085309920696375
 10
0.0
 20
0.5085309920696375
  0
LWPOLYLINE
  5
41
100
AcDbEntity
  8
USP-GEO
100
AcDbPolyline
 90
        2
 70
   128
 43
0.0
 10
0.0
 20
0.4612807256752447
 10
0.0478408947243221
 20
0.4612807256752447
  0
LWPOLYLINE
  5
42
100
AcDbEntity
  8
USP-HID
100
AcDbPolyline
 90
        2
 70
   128
 43
0.0
 10
0.0478408947243221
 20
0.9692210894149511
 10
0.0
 20
0.9692210894149511
  0
LWPOLYLINE
  5
43
100
AcDbEntity
  8
USP-HID
100
AcDbPolyline
 90
        2
 70
   128
 43
0.0
 10
0.0478408947243221
 20
0.8983456898233654
 10
0.0
 20
0.8983456898233654
  0
LWPOLYLINE
  5
44
100
AcDbEntity
  8
USP-HID
100
AcDbPolyline
 90
        2
 70
   128
 43
0.0
 10
0.0478408947243221
 20
1.040687117336469
 10
0.0
 20
1.040687117336469
  0
LWPOLYLINE
  5
45
100
AcDbEntity
  8
USP-HID
100
AcDbPolyline
 90
        2
 70
   128
 43
0.0
 10
0.0478408947243221
 20
1.111562516928056
 10
0.0
 20
1.111562516928056
  0
ARC
  5
46
100
AcDbEntity
  8
USP-GEO
100
AcDbCircle
 10
0.1983622481472658
 20
1.294725469643246
 30
0.0
 40
0.1875
100
AcDbArc
 50
89.10551712124146
 51
143.3107552044722
  0
LWPOLYLINE
  5
47
100
AcDbEntity
  8
USP-HID
100
AcDbPolyline
 90
        2
 70
   128
 43
0.0
 10
0.0
 20
1.406876681893002
 10
0.0478408947243221
 20
1.406876681893002
  0
CIRCLE
  5
48
100
AcDbEntity
  8
USP-GEO
100
AcDbCircle
 10
0.6278876502368452
 20
3.483225469643233
 30
0.0
 40
0.07
  0
LWPOLYLINE
  5
49
100
AcDbEntity
  8
USP-GEO
100
AcDbPolyline
 90
        2
 70
   128
 43
0.0
 10
0.0478408947243221
 20
3.677251982143506
 10
0.0478408947243221
 20
3.05059532408789
  0
LWPOLYLINE
  5
4A
100
AcDbEntity
  8
USP-GEO
100
AcDbPolyline
 90
        2
 70
   128
 43
0.0
 10
0.0
 20
3.677251982143506
 10
0.0
 20
3.05059532408789
  0
LWPOLYLINE
  5
4B
100
AcDbEntity
  8
USP-GEO
100
AcDbPolyline
 90
        2
 70
   128
 43
0.0
 10
0.0
 20
3.05059532408789
 10
0.0478408947243221
 20
3.05059532408789
  0
CIRCLE
  5
4C
100
AcDbEntity
  8
USP-GEO
100
AcDbCircle
 10
0.5226825698189313
 20
2.795225469643249
 30
0.0
 40
0.07
  0
CIRCLE
  5
4D
100
AcDbEntity
  8
USP-GEO
100
AcDbCircle
 10
1.207098440202727
 20
2.733225469643233
 30
0.0
 40
0.07
  0
LWPOLYLINE
  5
4E
100
AcDbEntity
  8
USP-GEO
100
AcDbPolyline
 90
        2
 70
   128
 43
0.0
 10
0.1305288609145059
 20
3.795377648129484
 10
0.0478408947243221
 20
3.677251982143506
  0
LWPOLYLINE
  5
4F
100
AcDbEntity
  8
USP-GEO
100
AcDbPolyline
 90
        2
 70
   128
 43
0.0
 10
0.0
 20
3.677251982143506
 10
0.0478408947243221
 20
3.677251982143506
  0
CIRCLE
  5
50
100
AcDbEntity
  8
USP-GEO
100
AcDbCircle
 10
1.599669868774167
 20
3.420225469643241
 30
0.0
 40
0.07
  0
LWPOLYLINE
  5
51
100
AcDbEntity
  8
USP-GEO
100
AcDbPolyline
 90
        2
 70
   128
 43
0.0
 10
1.879379345836914
 20
3.440410021841618
 10
1.879379345836914
 20
3.795377648129484
  0
ENDBLK
  5
53
100
AcDbEntity
  8
0
100
AcDbBlockEnd
  0
BLOCK
  5
72
100
AcDbEntity
  8
0
100
AcDbBlockBegin
  2
RT4PR-RIGHT_F
 70
     0
 10
0.0
 20
0.0
 30
0.0
  3
RT4PR-RIGHT_F
  1

  0
TEXT
  5
56
100
AcDbEntity
  8
USP-TXT
100
AcDbText
 10
-1.864434927489954
 20
-0.8607033895985658
 30
0.0
 40
0.25
  1
RT4 (RIGHT) - FRONT VIEW
 72
     1
 11
1.010565072510044
 21
-0.8607033895985658
 31
0.0
100
AcDbText
  0
CIRCLE
  5
57
100
AcDbEntity
  8
USP-GEO
100
AcDbCircle
 10
0.766708032894413
 20
1.041344398806753
 30
0.0
 40
0.07
  0
LWPOLYLINE
  5
58
100
AcDbEntity
  8
USP-GEO
100
AcDbPolyline
 90
        2
 70
   128
 43
0.0
 10
1.488974019753257
 20
3.05000469575796
 10
0.0
 20
0.4725026639439136
  0
LWPOLYLINE
  5
59
100
AcDbEntity
  8
USP-GEO
100
AcDbPolyline
 90
        2
 70
   128
 43
0.0
 10
0.0
 20
0.0
 10
1.950254745428503
 20
0.0
  0
CIRCLE
  5
5A
100
AcDbEntity
  8
USP-GEO
100
AcDbCircle
 10
0.3726093546726821
 20
0.4413443988048407
 30
0.0
 40
0.072
  0
LWPOLYLINE
  5
5B
100
AcDbEntity
  8
USP-GEO
100
AcDbPolyline
 90
        2
 70
   128
 43
0.0
 10
0.0
 20
0.4725026639439136
 10
0.0
 20
0.0
  0
ARC
  5
5C
100
AcDbEntity
  8
USP-GEO
100
AcDbCircle
 10
2.13510935467412
 20
1.303344398806746
 30
0.0
 40
0.1875
100
AcDbArc
 50
147.2937597411796
 51
180.8618504089862
  0
CIRCLE
  5
5D
100
AcDbEntity
  8
USP-GEO
100
AcDbCircle
 10
1.572609354674077
 20
0.3163443988067733
 30
0.0
 40
0.07
  0
CIRCLE
  5
5E
100
AcDbEntity
  8
USP-GEO
100
AcDbCircle
 10
1.472609354674133
 20
0.9783443988067581
 30
0.0
 40
0.07
  0
LWPOLYLINE
  5
5F
100
AcDbEntity
  8
USP-GEO
100
AcDbPolyline
 90
        2
 70
   128
 43
0.0
 10
1.950254745428503
 20
0.0
 10
1.950254745428503
 20
1.30056358250562
  0
LWPOLYLINE
  5
60
100
AcDbEntity
  8
USP-HID
100
AcDbPolyline
 90
        2
 70
   128
 43
0.0
 10
1.973879878625698
 20
3.688473920412174
 10
1.973879878625698
 20
1.406876681893002
  0
LWPOLYLINE
  5
61
100
AcDbEntity
  8
USP-GEO
100
AcDbPolyline
 90
        2
 70
   128
 43
0.0
 10
2.021130145020089
 20
3.688473920412174
 10
2.021130145020089
 20
1.406876681893002
  0
LWPOLYLINE
  5
62
100
AcDbEntity
  8
USP-GEO
100
AcDbPolyline
 90
        2
 70
   128
 43
0.0
 10
1.973879878625698
 20
3.688473920412174
 10
1.488974019753257
 20
3.05000469575796
  0
LWPOLYLINE
  5
63
100
AcDbEntity
  8
USP-HID
100
AcDbPolyline
 90
        2
 70
   128
 43
0.0
 10
2.021130145020089
 20
1.489564648083186
 10
1.973879878625698
 20
1.489564648083186
  0
LWPOLYLINE
  5
64
100
AcDbEntity
  8
USP-GEO
100
AcDbPolyline
 90
        2
 70
   128
 43
0.0
 10
2.021130145020089
 20
1.406876681893002
 10
1.973879878625698
 20
1.406876681893002
  0
LWPOLYLINE
  5
65
100
AcDbEntity
  8
USP-HID
100
AcDbPolyline
 90
        2
 70
   128
 43
0.0
 10
2.021130145020089
 20
2.672002564602831
 10
1.973879878625698
 20
2.672002564602831
  0
LWPOLYLINE
  5
66
100
AcDbEntity
  8
USP-HID
100
AcDbPolyline
 90
        2
 70
   128
 43
0.0
 10
2.021130145020089
 20
2.731065397595818
 10
1.973879878625698
 20
2.731065397595818
  0
LWPOLYLINE
  5
67
100
AcDbEntity
  8
USP-HID
100
AcDbPolyline
 90
        2
 70
   128
 43
0.0
 10
2.021130145020089
 20
2.872816196778993
 10
1.973879878625698
 20
2.872816196778993
  0
LWPOLYLINE
  5
68
100
AcDbEntity
  8
USP-HID
100
AcDbPolyline
 90
        2
 70
   128
 43
0.0
 10
2.021130145020089
 20
2.813753363786004
 10
1.973879878625698
 20
2.813753363786004
  0
LWPOLYLINE
  5
69
100
AcDbEntity
  8
USP-HID
100
AcDbPolyline
 90
        2
 70
   128
 43
0.0
 10
2.021130145020089
 20
3.357722055651434
 10
1.973879878625698
 20
3.357722055651434
  0
LWPOLYLINE
  5
6A
100
AcDbEntity
  8
USP-HID
100
AcDbPolyline
 90
        2
 70
   128
 43
0.0
 10
2.021130145020089
 20
3.440410021841619
 10
1.973879878625698
 20
3.440410021841619
  0
LWPOLYLINE
  5
6B
100
AcDbEntity
  8
USP-HID
100
AcDbPolyline
 90
        2
 70
   128
 43
0.0
 10
2.021130145020089
 20
3.499472854834608
 10
1.973879878625698
 20
3.499472854834608
  0
LWPOLYLINE
  5
6C
100
AcDbEntity
  8
USP-HID
100
AcDbPolyline
 90
        2
 70
   128
 43
0.0
 10
2.021130145020089
 20
3.416784888644423
 10
1.973879878625698
 20
3.416784888644423
  0
LWPOLYLINE
  5
6D
100
AcDbEntity
  8
USP-HID
100
AcDbPolyline
 90
        2
 70
   128
 43
0.0
 10
2.021130145020089
 20
3.558535687827597
 10
1.973879878625698
 20
3.558535687827597
  0
LWPOLYLINE
  5
6E
100
AcDbEntity
  8
USP-GEO
100
AcDbPolyline
 90
        2
 70
   128
 43
0.0
 10
2.021130145020089
 20
3.807190214728081
 10
1.973879878625698
 20
3.807190214728081
  0
LWPOLYLINE
  5
6F
100
AcDbEntity
  8
USP-GEO
100
AcDbPolyline
 90
        2
 70
   128
 43
0.0
 10
2.021130145020089
 20
3.807190214728081
 10
2.021130145020089
 20
3.688473920412174
  0
LWPOLYLINE
  5
70
100
AcDbEntity
  8
USP-GEO
100
AcDbPolyline
 90
        2
 70
   128
 43
0.0
 10
2.021130145020089
 20
3.688473920412174
 10
1.973879878625698
 20
3.688473920412174
  0
LWPOLYLINE
  5
71
100
AcDbEntity
  8
USP-GEO
100
AcDbPolyline
 90
        2
 70
   128
 43
0.0
 10
1.973879878625698
 20
3.807190214728081
 10
1.973879878625698
 20
3.688473920412174
  0
ENDBLK
  5
73
100
AcDbEntity
  8
0
100
AcDbBlockEnd
  0
BLOCK
  5
94
100
AcDbEntity
  8
0
100
AcDbBlockBegin
  2
RT4PR-RIGHT_S
 70
     0
 10
0.0
 20
0.0
 30
0.0
  3
RT4PR-RIGHT_S
  1

  0
TEXT
  5
76
100
AcDbEntity
  8
USP-TXT
100
AcDbText
 10
-1.768938974579839
 20
-0.784592486147556
 30
0.0
 40
0.25
  1
RT4 (RIGHT) - SIDE VIEW
 72
     1
 11
0.9393943587534927
 21
-0.784592486147556
 31
0.0
100
AcDbText
  0
CIRCLE
  5
77
100
AcDbEntity
  8
USP-GEO
100
AcDbCircle
 10
1.200744766808435
 20
2.741844398806744
 30
0.0
 40
0.07
  0
LWPOLYLINE
  5
78
100
AcDbEntity
  8
USP-GEO
100
AcDbPolyline
 90
        2
 70
   128
 43
0.0
 10
0.7441916957116633
 20
1.489564648083186
 10
1.878788717506985
 20
3.440410021841619
  0
LWPOLYLINE
  5
79
100
AcDbEntity
  8
USP-GEO
100
AcDbPolyline
 90
        2
 70
   128
 43
0.0
 10
1.878788717506985
 20
3.807190214728081
 10
0.1299382325845766
 20
3.807190214728081
  0
LWPOLYLINE
  5
7A
100
AcDbEntity
  8
USP-GEO
100
AcDbPolyline
 90
        2
 70
   128
 43
0.0
 10
0.0354376997957928
 20
1.406876681893002
 10
0.0354376997957928
 20
1.30056358250562
  0
LWPOLYLINE
  5
7B
100
AcDbEntity
  8
USP-GEO
100
AcDbPolyline
 90
        2
 70
   128
 43
0.0
 10
0.0
 20
1.30056358250562
 10
0.0
 20
1.406876681893002
  0
LWPOLYLINE
  5
7C
100
AcDbEntity
  8
USP-GEO
100
AcDbPolyline
 90
        2
 70
   128
 43
0.0
 10
0.0354376997957928
 20
0.0
 10
0.0354376997957928
 20
1.30056358250562
  0
LWPOLYLINE
  5
7D
100
AcDbEntity
  8
USP-GEO
100
AcDbPolyline
 90
        2
 70
   128
 43
0.0
 10
0.0
 20
0.0
 10
0.0
 20
1.30056358250562
  0
LWPOLYLINE
  5
7E
100
AcDbEntity
  8
USP-GEO
100
AcDbPolyline
 90
        2
 70
   128
 43
0.0
 10
0.0
 20
0.0
 10
0.0354376997957928
 20
0.0
  0
LWPOLYLINE
  5
7F
100
AcDbEntity
  8
USP-HID
100
AcDbPolyline
 90
        2
 70
   128
 43
0.0
 10
0.0
 20
0.3780021311551316
 10
0.0354376997957928
 20
0.3780021311551316
  0
LWPOLYLINE
  5
80
100
AcDbEntity
  8
USP-HID
100
AcDbPolyline
 90
        2
 70
   128
 43
0.0
 10
0.0
 20
0.248063898570555
 10
0.0354376997957928
 20
0.248063898570555
  0
LWPOLYLINE
  5
81
100
AcDbEntity
  8
USP-HID
100
AcDbPolyline
 90
        2
 70
   128
 43
0.0
 10
0.0
 20
0.3661895645565334
 10
0.0354376997957928
 20
0.3661895645565334
  0
LWPOLYLINE
  5
82
100
AcDbEntity
  8
USP-HID
100
AcDbPolyline
 90
        2
 70
   128
 43
0.0
 10
0.0
 20
0.4725026639439136
 10
0.0354376997957928
 20
0.4725026639439136
  0
LWPOLYLINE
  5
83
100
AcDbEntity
  8
USP-HID
100
AcDbPolyline
 90
        2
 70
   128
 43
0.0
 10
0.0
 20
0.5079403637397065
 10
0.0354376997957928
 20
0.5079403637397065
  0
LWPOLYLINE
  5
84
100
AcDbEntity
  8
USP-HID
100
AcDbPolyline
 90
        2
 70
   128
 43
0.0
 10
0.0
 20
0.9692210894149528
 10
0.0354376997957928
 20
0.9692210894149528
  0
LWPOLYLINE
  5
85
100
AcDbEntity
  8
USP-HID
100
AcDbPolyline
 90
        2
 70
   128
 43
0.0
 10
0.0
 20
1.04009648900654
 10
0.0354376997957928
 20
1.04009648900654
  0
LWPOLYLINE
  5
86
100
AcDbEntity
  8
USP-HID
100
AcDbPolyline
 90
        2
 70
   128
 43
0.0
 10
0.0
 20
0.9101582564219636
 10
0.0354376997957928
 20
0.9101582564219636
  0
LWPOLYLINE
  5
87
100
AcDbEntity
  8
USP-HID
100
AcDbPolyline
 90
        2
 70
   128
 43
0.0
 10
0.0
 20
1.110971888598125
 10
0.0354376997957928
 20
1.110971888598125
  0
LWPOLYLINE
  5
88
100
AcDbEntity
  8
USP-HID
100
AcDbPolyline
 90
        2
 70
   128
 43
0.0
 10
0.0354376997957928
 20
3.688473920412174
 10
0.0354376997957928
 20
1.406876681893002
  0
LWPOLYLINE
  5
89
100
AcDbEntity
  8
USP-GEO
100
AcDbPolyline
 90
        2
 70
   128
 43
0.0
 10
0.0
 20
3.688473920412174
 10
0.0
 20
1.406876681893002
  0
ARC
  5
8A
100
AcDbEntity
  8
USP-GEO
100
AcDbCircle
 10
0.19200857475297
 20
1.303344398806746
 30
0.0
 40
0.1875
100
AcDbArc
 50
90.92526244410825
 51
146.5253820806534
  0
LWPOLYLINE
  5
8B
100
AcDbEntity
  8
USP-GEO
100
AcDbPolyline
 90
        2
 70
   128
 43
0.0
 10
0.0
 20
1.406876681893002
 10
0.0354376997957928
 20
1.406876681893002
  0
LWPOLYLINE
  5
8C
100
AcDbEntity
  8
USP-HID
100
AcDbPolyline
 90
        2
 70
   128
 43
0.0
 10
0.0
 20
3.05000469575796
 10
0.0354376997957928
 20
3.05000469575796
  0
LWPOLYLINE
  5
8D
100
AcDbEntity
  8
USP-GEO
100
AcDbPolyline
 90
        2
 70
   128
 43
0.0
 10
0.1890010655775658
 20
1.489564648083186
 10
0.7441916957116633
 20
1.489564648083186
  0
CIRCLE
  5
8E
100
AcDbEntity
  8
USP-GEO
100
AcDbCircle
 10
0.5163288964246338
 20
2.803844398806756
 30
0.0
 40
0.07
  0
LWPOLYLINE
  5
8F
100
AcDbEntity
  8
USP-GEO
100
AcDbPolyline
 90
        2
 70
   128
 43
0.0
 10
0.0354376997957928
 20
3.688473920412174
 10
0.0
 20
3.688473920412174
  0
LWPOLYLINE
  5
90
100
AcDbEntity
  8
USP-GEO
100
AcDbPolyline
 90
        2
 70
   128
 43
0.0
 10
0.1299382325845766
 20
3.807190214728081
 10
0.0354376997957928
 20
3.688473920412174
  0
CIRCLE
  5
91
100
AcDbEntity
  8
USP-GEO
100
AcDbCircle
 10
0.6215339768425512
 20
3.49184439880673
 30
0.0
 40
0.07
  0
CIRCLE
  5
92
100
AcDbEntity
  8
USP-GEO
100
AcDbCircle
 10
1.593316195379879
 20
3.428844398806742
 30
0.0
 40
0.07
  0
LWPOLYLINE
  5
93
100
AcDbEntity
  8
USP-GEO
100
AcDbPolyline
 90
        2
 70
   128
 43
0.0
 10
1.878788717506985
 20
3.440410021841619
 10
1.878788717506985
 20
3.807190214728081
  0
ENDBLK
  5
95
100
AcDbEntity
  8
0
100
AcDbBlockEnd
  0
ENDSEC
  0
SECTION
  2
ENTITIES
  0
INSERT
  5
3
100
AcDbEntity
  8
USP
100
AcDbBlockReference
  2
RT4PR-LEFT_F
 10
1.86101045453369
 20
8.05247457109046
 30
0.0
  0
INSERT
  5
32
100
AcDbEntity
  8
USP
100
AcDbBlockReference
  2
RT4PR-LEFT_S
 10
9.507875442135997
 20
8.05247457109046
 30
0.0
  0
INSERT
  5
54
100
AcDbEntity
  8
USP
100
AcDbBlockReference
  2
RT4PR-RIGHT_F
 10
1.731072221949113
 20
0.9111874339081396
 30
0.0
  0
INSERT
  5
74
100
AcDbEntity
  8
USP
100
AcDbBlockReference
  2
RT4PR-RIGHT_S
 10
9.591154036656112
 20
0.9111874339081396
 30
0.0
  0
ENDSEC
  0
SECTION
  2
OBJECTS
  0
DICTIONARY
  5
AF
102
{ACAD_XDICTIONARY
360
B0
102
}
100
AcDbDictionary
  3
ACAD_GROUP
350
AD
  3
ACAD_MLINESTYLE
350
AE
  0
DICTIONARY
  5
2F
100
AcDbDictionary
280
     1
  3
ACAD_XREC_ROUNDTRIP
360
30
  0
DICTIONARY
  5
E
100
AcDbDictionary
280
     1
  3
ACAD_XREC_ROUNDTRIP
360
F
  0
DICTIONARY
  5
9
100
AcDbDictionary
280
     1
  3
ACAD_XREC_ROUNDTRIP
360
A
  0
DICTIONARY
  5
13
100
AcDbDictionary
280
     1
  3
ACAD_XREC_ROUNDTRIP
360
14
  0
DICTIONARY
  5
B4
100
AcDbDictionary
280
     1
  3
ACAD_XREC_ROUNDTRIP
360
B5
  0
DICTIONARY
  5
96
100
AcDbDictionary
280
     1
  3
ACAD_LAYOUTSELFREF
360
97
  0
DICTIONARY
  5
9B
100
AcDbDictionary
280
     1
  3
ACAD_LAYOUTSELFREF
360
9C
  3
ACAD_XREC_ROUNDTRIP
360
9D
  0
DICTIONARY
  5
B0
100
AcDbDictionary
280
     1
  3
ACAD_XREC_ROUNDTRIP
360
B1
  0
DICTIONARY
  5
AD
102
{ACAD_REACTORS
330
AF
102
}
100
AcDbDictionary
  0
DICTIONARY
  5
AE
102
{ACAD_REACTORS
330
AF
102
}
100
AcDbDictionary
  3
STANDARD
350
B2
  0
XRECORD
  5
30
102
{ACAD_REACTORS
330
2F
102
}
100
AcDbXrecord
102
LINEWEIGHT
280
     6
  0
XRECORD
  5
F
102
{ACAD_REACTORS
330
E
102
}
100
AcDbXrecord
102
EXTNAMES
  1
USP-GEO
  2
USP-Geo
  0
XRECORD
  5
A
102
{ACAD_REACTORS
330
9
102
}
100
AcDbXrecord
102
EXTNAMES
  1
USP-TXT
  2
USP-Txt
  0
XRECORD
  5
14
102
{ACAD_REACTORS
330
13
102
}
100
AcDbXrecord
102
EXTNAMES
  1
USP-HID
  2
USP-Hid
  0
XRECORD
  5
B5
102
{ACAD_REACTORS
330
B4
102
}
100
AcDbXrecord
102
ACADR14ROUNDTRIP
1000
DSTYLE
1002
{
1070
   276
 70
     2
1070
   277
 70
     5
1002
}
  0
XRECORD
  5
97
102
{ACAD_REACTORS
330
96
102
}
100
AcDbXrecord
340
2
  0
XRECORD
  5
9C
102
{ACAD_REACTORS
330
9B
102
}
100
AcDbXrecord
340
9A
  0
XRECORD
  5
9D
102
{ACAD_REACTORS
330
9B
102
}
100
AcDbXrecord
102
EXTNAMES
  1
*PAPER_SPACE
  2
*Paper_Space
  0
XRECORD
  5
B1
102
{ACAD_REACTORS
330
B0
102
}
100
AcDbXrecord
102
EXTNAMES
  1
ACDBVARIABLEDICTIONARY
  2
AcDbVariableDictionary
  0
MLINESTYLE
  5
B2
102
{ACAD_REACTORS
330
AE
102
}
100
AcDbMlineStyle
  2
STANDARD
 70
     0
  3

 62
     0
 51
90.0
 52
90.0
 71
     2
 49
0.5
 62
   256
  6
BYLAYER
 49
-0.5
 62
   256
  6
BYLAYER
  0
ENDSEC
  0
EOF
