  0
SECTION
  2
HEADER
  9
$ACADVER
  1
AC1014
  9
$ACADMAINTVER
 70
     8
  9
$DWGCODEPAGE
  3
ANSI_1252
  9
$INSBASE
 10
0.0
 20
0.0
 30
0.0
  9
$EXTMIN
 10
0.57371727371841
 20
0.0005480484382492
 30
0.0
  9
$EXTMAX
 10
10.75114741183053
 20
10.49161075250783
 30
0.0
  9
$LIMMIN
 10
0.0
 20
0.0
  9
$LIMMAX
 10
12.0
 20
9.0
  9
$ORTHOMODE
 70
     1
  9
$REGENMODE
 70
     1
  9
$FILLMODE
 70
     1
  9
$QTEXTMODE
 70
     0
  9
$MIRRTEXT
 70
     0
  9
$DRAGMODE
 70
     2
  9
$LTSCALE
 40
1.5
  9
$OSMODE
 70
     0
  9
$ATTMODE
 70
     1
  9
$TEXTSIZE
 40
0.25
  9
$TRACEWID
 40
0.05
  9
$TEXTSTYLE
  7
STANDARD
  9
$CLAYER
  8
USP
  9
$CELTYPE
  6
BYLAYER
  9
$CECOLOR
 62
   256
  9
$CELTSCALE
 40
1.0
  9
$DELOBJ
 70
     1
  9
$DISPSILH
 70
     1
  9
$DIMSCALE
 40
5.0
  9
$DIMASZ
 40
0.125
  9
$DIMEXO
 40
0.0625
  9
$DIMDLI
 40
0.38
  9
$DIMRND
 40
0.0
  9
$DIMDLE
 40
0.0
  9
$DIMEXE
 40
0.09375
  9
$DIMTP
 40
0.0
  9
$DIMTM
 40
0.0
  9
$DIMTXT
 40
0.109375
  9
$DIMCEN
 40
0.0
  9
$DIMTSZ
 40
0.0
  9
$DIMTOL
 70
     0
  9
$DIMLIM
 70
     0
  9
$DIMTIH
 70
     1
  9
$DIMTOH
 70
     1
  9
$DIMSE1
 70
     0
  9
$DIMSE2
 70
     0
  9
$DIMTAD
 70
     0
  9
$DIMZIN
 70
     8
  9
$DIMBLK
  1

  9
$DIMASO
 70
     1
  9
$DIMSHO
 70
     1
  9
$DIMPOST
  1

  9
$DIMAPOST
  1

  9
$DIMALT
 70
     0
  9
$DIMALTD
 70
     2
  9
$DIMALTF
 40
25.4
  9
$DIMLFAC
 40
1.0
  9
$DIMTOFL
 70
     0
  9
$DIMTVP
 40
0.0
  9
$DIMTIX
 70
     0
  9
$DIMSOXD
 70
     0
  9
$DIMSAH
 70
     0
  9
$DIMBLK1
  1

  9
$DIMBLK2
  1

  9
$DIMSTYLE
  2
STANDARD
  9
$DIMCLRD
 70
   256
  9
$DIMCLRE
 70
   256
  9
$DIMCLRT
 70
   256
  9
$DIMTFAC
 40
1.0
  9
$DIMGAP
 40
0.09
  9
$DIMJUST
 70
     0
  9
$DIMSD1
 70
     0
  9
$DIMSD2
 70
     0
  9
$DIMTOLJ
 70
     1
  9
$DIMTZIN
 70
     0
  9
$DIMALTZ
 70
     0
  9
$DIMALTTZ
 70
     0
  9
$DIMFIT
 70
     3
  9
$DIMUPT
 70
     1
  9
$DIMUNIT
 70
     7
  9
$DIMDEC
 70
     4
  9
$DIMTDEC
 70
     4
  9
$DIMALTU
 70
     2
  9
$DIMALTTD
 70
     2
  9
$DIMTXSTY
  7
STANDARD
  9
$DIMAUNIT
 70
     0
  9
$LUNITS
 70
     5
  9
$LUPREC
 70
     6
  9
$SKETCHINC
 40
0.1
  9
$FILLETRAD
 40
0.0
  9
$AUNITS
 70
     0
  9
$AUPREC
 70
     1
  9
$MENU
  1
CUSTOM
  9
$ELEVATION
 40
0.0
  9
$PELEVATION
 40
0.0
  9
$THICKNESS
 40
0.0
  9
$LIMCHECK
 70
     0
  9
$BLIPMODE
 70
     0
  9
$CHAMFERA
 40
0.0
  9
$CHAMFERB
 40
0.0
  9
$CHAMFERC
 40
0.0
  9
$CHAMFERD
 40
0.0
  9
$SKPOLY
 70
     0
  9
$TDCREATE
 40
2451263.621564698
  9
$TDUPDATE
 40
2453354.906941366
  9
$TDINDWG
 40
1.3003960417
  9
$TDUSRTIMER
 40
1.3003960417
  9
$USRTIMER
 70
     1
  9
$ANGBASE
 50
0.0
  9
$ANGDIR
 70
     0
  9
$PDMODE
 70
     0
  9
$PDSIZE
 40
0.0
  9
$PLINEWID
 40
0.0
  9
$COORDS
 70
     0
  9
$SPLFRAME
 70
     0
  9
$SPLINETYPE
 70
     6
  9
$SPLINESEGS
 70
     8
  9
$ATTDIA
 70
     0
  9
$ATTREQ
 70
     1
  9
$HANDLING
 70
     1
  9
$HANDSEED
  5
B9
  9
$SURFTAB1
 70
     6
  9
$SURFTAB2
 70
     6
  9
$SURFTYPE
 70
     6
  9
$SURFU
 70
     6
  9
$SURFV
 70
     6
  9
$UCSNAME
  2

  9
$UCSORG
 10
0.0
 20
0.0
 30
0.0
  9
$UCSXDIR
 10
1.0
 20
0.0
 30
0.0
  9
$UCSYDIR
 10
0.0
 20
1.0
 30
0.0
  9
$PUCSNAME
  2

  9
$PUCSORG
 10
0.0
 20
0.0
 30
0.0
  9
$PUCSXDIR
 10
1.0
 20
0.0
 30
0.0
  9
$PUCSYDIR
 10
0.0
 20
1.0
 30
0.0
  9
$USERI1
 70
     0
  9
$USERI2
 70
     0
  9
$USERI3
 70
     0
  9
$USERI4
 70
     0
  9
$USERI5
 70
     0
  9
$USERR1
 40
0.0
  9
$USERR2
 40
0.0
  9
$USERR3
 40
0.0
  9
$USERR4
 40
0.0
  9
$USERR5
 40
0.0
  9
$WORLDVIEW
 70
     1
  9
$SHADEDGE
 70
     3
  9
$SHADEDIF
 70
    70
  9
$TILEMODE
 70
     1
  9
$MAXACTVP
 70
    16
  9
$PINSBASE
 10
0.0
 20
0.0
 30
0.0
  9
$PLIMCHECK
 70
     0
  9
$PEXTMIN
 10
1.000000000000000E+20
 20
1.000000000000000E+20
 30
1.000000000000000E+20
  9
$PEXTMAX
 10
-1.000000000000000E+20
 20
-1.000000000000000E+20
 30
-1.000000000000000E+20
  9
$PLIMMIN
 10
0.0
 20
0.0
  9
$PLIMMAX
 10
12.0
 20
9.0
  9
$UNITMODE
 70
     0
  9
$VISRETAIN
 70
     0
  9
$PLINEGEN
 70
     0
  9
$PSLTSCALE
 70
     0
  9
$TREEDEPTH
 70
  3020
  9
$PICKSTYLE
 70
     1
  9
$CMLSTYLE
  2
STANDARD
  9
$CMLJUST
 70
     0
  9
$CMLSCALE
 40
1.0
  9
$PROXYGRAPHICS
 70
     1
  9
$MEASUREMENT
 70
     0
  0
ENDSEC
  0
SECTION
  2
CLASSES
  0
CLASS
  1
ACDBDICTIONARYWDFLT
  2
AcDbDictionaryWithDefault
  3
ObjectDBX Classes
 90
        0
280
     0
281
     0
  0
CLASS
  1
ACDBPLACEHOLDER
  2
AcDbPlaceHolder
  3
ObjectDBX Classes
 90
        0
280
     0
281
     0
  0
CLASS
  1
LAYOUT
  2
AcDbLayout
  3
ObjectDBX Classes
 90
        0
280
     0
281
     0
  0
CLASS
  1
DICTIONARYVAR
  2
AcDbDictionaryVar
  3
"AutoCAD"
 90
        0
280
     0
281
     0
  0
CLASS
  1
SORTENTSTABLE
  2
AcDbSortentsTable
  3
"AutoCAD"
 90
        0
280
     0
281
     0
  0
CLASS
  1
XRECORD
  2
AcDbXrecord
  3
"<Built In>"
 90
        0
280
     0
281
     0
  0
ENDSEC
  0
SECTION
  2
TABLES
  0
TABLE
  2
VPORT
  5
A7
100
AcDbSymbolTable
 70
     1
  0
VPORT
  5
A8
100
AcDbSymbolTableRecord
100
AcDbViewportTableRecord
  2
*ACTIVE
 70
     0
 10
0.0
 20
0.0
 11
1.0
 21
1.0
 12
-17.09603071721725
 22
15.5160696428566
 13
0.0
 23
0.0
 14
1.0
 24
1.0
 15
0.0
 25
0.0
 16
0.0
 26
0.0
 36
1.0
 17
23.09603071721725
 27
-10.27010416511325
 37
-10.44050274849355
 40
10.56786772959154
 41
1.379227053140096
 42
50.0
 43
10.55307667737539
 44
10.55307667737539
 50
0.0
 51
0.0
 71
     0
 72
   100
 73
     1
 74
     1
 75
     0
 76
     0
 77
     0
 78
     0
  0
ENDTAB
  0
TABLE
  2
LTYPE
  5
A2
100
AcDbSymbolTable
 70
     1
  0
LTYPE
  5
A3
100
AcDbSymbolTableRecord
100
AcDbLinetypeTableRecord
  2
BYBLOCK
 70
     0
  3

 72
    65
 73
     0
 40
0.0
  0
LTYPE
  5
A4
100
AcDbSymbolTableRecord
100
AcDbLinetypeTableRecord
  2
BYLAYER
 70
     0
  3

 72
    65
 73
     0
 40
0.0
  0
LTYPE
  5
5
100
AcDbSymbolTableRecord
100
AcDbLinetypeTableRecord
  2
CONTINUOUS
 70
     0
  3
Solid line
 72
    65
 73
     0
 40
0.0
  0
ENDTAB
  0
TABLE
  2
LAYER
  5
A0
100
AcDbSymbolTable
 70
     5
  0
LAYER
  5
44
100
AcDbSymbolTableRecord
100
AcDbLayerTableRecord
  2
0
 70
     0
 62
     7
  6
CONTINUOUS
  0
LAYER
  5
D
102
{ACAD_XDICTIONARY
360
E
102
}
100
AcDbSymbolTableRecord
100
AcDbLayerTableRecord
  2
USP-GEO
 70
     0
 62
     7
  6
CONTINUOUS
  0
LAYER
  5
8
102
{ACAD_XDICTIONARY
360
9
102
}
100
AcDbSymbolTableRecord
100
AcDbLayerTableRecord
  2
USP-TXT
 70
     0
 62
     7
  6
CONTINUOUS
  0
LAYER
  5
2A
102
{ACAD_XDICTIONARY
360
2B
102
}
100
AcDbSymbolTableRecord
100
AcDbLayerTableRecord
  2
USP-HID
 70
     0
 62
     7
  6
CONTINUOUS
  0
LAYER
  5
4
100
AcDbSymbolTableRecord
100
AcDbLayerTableRecord
  2
USP
 70
     0
 62
     7
  6
CONTINUOUS
  0
ENDTAB
  0
TABLE
  2
STYLE
  5
A1
100
AcDbSymbolTable
 70
     1
  0
STYLE
  5
B
100
AcDbSymbolTableRecord
100
AcDbTextStyleTableRecord
  2
STANDARD
 70
     0
 40
0.0
 41
1.0
 50
0.0
 71
     0
 42
0.25
  3
txt
  4

  0
ENDTAB
  0
TABLE
  2
VIEW
  5
A5
100
AcDbSymbolTable
 70
     0
  0
ENDTAB
  0
TABLE
  2
UCS
  5
A6
100
AcDbSymbolTable
 70
     0
  0
ENDTAB
  0
TABLE
  2
APPID
  5
A9
100
AcDbSymbolTable
 70
     1
  0
APPID
  5
AA
100
AcDbSymbolTableRecord
100
AcDbRegAppTableRecord
  2
ACAD
 70
     0
  0
ENDTAB
  0
TABLE
  2
DIMSTYLE
  5
AB
100
AcDbSymbolTable
 70
     1
  0
DIMSTYLE
105
B3
102
{ACAD_XDICTIONARY
360
B4
102
}
100
AcDbSymbolTableRecord
100
AcDbDimStyleTableRecord
  2
STANDARD
 70
     0
  3

  4

  5

  6

  7

 40
1.0
 41
0.125
 42
0.0625
 43
0.38
 44
0.09375
 45
0.0
 46
0.0
 47
0.0
 48
0.0
140
0.109375
141
0.0
142
0.0
143
25.4
144
1.0
145
0.0
146
1.0
147
0.09
 71
     0
 72
     0
 73
     1
 74
     1
 75
     0
 76
     0
 77
     0
 78
     8
170
     0
171
     2
172
     0
173
     0
174
     0
175
     0
176
     0
177
     0
178
     0
270
     7
271
     4
272
     4
273
     2
274
     2
340
B
275
     0
280
     0
281
     0
282
     0
283
     1
284
     0
285
     0
286
     0
287
     3
288
     0
  0
ENDTAB
  0
TABLE
  2
BLOCK_RECORD
  5
1
100
AcDbSymbolTable
 70
     3
  0
BLOCK_RECORD
  5
2
102
{ACAD_XDICTIONARY
360
97
102
}
100
AcDbSymbolTableRecord
100
AcDbBlockTableRecord
  2
*MODEL_SPACE
  0
BLOCK_RECORD
  5
9B
102
{ACAD_XDICTIONARY
360
9C
102
}
100
AcDbSymbolTableRecord
100
AcDbBlockTableRecord
  2
*PAPER_SPACE
  0
BLOCK_RECORD
  5
6
100
AcDbSymbolTableRecord
100
AcDbBlockTableRecord
  2
RSPT6_T
  0
BLOCK_RECORD
  5
47
100
AcDbSymbolTableRecord
100
AcDbBlockTableRecord
  2
RSPT6_S
  0
BLOCK_RECORD
  5
6D
100
AcDbSymbolTableRecord
100
AcDbBlockTableRecord
  2
RSPT6_F
  0
ENDTAB
  0
ENDSEC
  0
SECTION
  2
BLOCKS
  0
BLOCK
  5
99
100
AcDbEntity
  8
0
100
AcDbBlockBegin
  2
*MODEL_SPACE
 70
     0
 10
0.0
 20
0.0
 30
0.0
  3
*MODEL_SPACE
  1

  0
ENDBLK
  5
9A
100
AcDbEntity
  8
0
100
AcDbBlockEnd
  0
BLOCK
  5
9E
100
AcDbEntity
 67
     1
  8
0
100
AcDbBlockBegin
  2
*PAPER_SPACE
 70
     0
 10
0.0
 20
0.0
 30
0.0
  3
*PAPER_SPACE
  1

  0
ENDBLK
  5
9F
100
AcDbEntity
 67
     1
  8
0
100
AcDbBlockEnd
  0
BLOCK
  5
43
100
AcDbEntity
  8
0
100
AcDbBlockBegin
  2
RSPT6_T
 70
     0
 10
0.0
 20
0.0
 30
0.0
  3
RSPT6_T
  1

  0
TEXT
  5
7
100
AcDbEntity
  8
USP-TXT
100
AcDbText
 10
-1.187408851424857
 20
-0.9827401844293
 30
0.0
 40
0.25
  1
RSPT6 - TOP VIEW
 72
     1
 11
0.8125911485751426
 21
-0.9827401844293
 31
0.0
100
AcDbText
  0
LINE
  5
C
100
AcDbEntity
  8
USP-GEO
100
AcDbLine
 10
0.0400000000000072
 20
0.0399999999999992
 30
0.0
 11
0.5625911485751374
 21
0.0399999999999992
 31
0.0
  0
LINE
  5
10
100
AcDbEntity
  8
USP-GEO
100
AcDbLine
 10
0.5625911485751445
 20
0.0399999999999992
 30
0.0
 11
1.06259114857514
 21
0.0399999999999992
 31
0.0
  0
LINE
  5
11
100
AcDbEntity
  8
USP-GEO
100
AcDbLine
 10
1.062591148575144
 20
0.0399999999999992
 30
0.0
 11
1.585182297150275
 21
0.0399999999999992
 31
0.0
  0
LINE
  5
12
100
AcDbEntity
  8
USP-GEO
100
AcDbLine
 10
0.5625911485751445
 20
0.0399999999999992
 30
0.0
 11
0.5625911485751445
 21
0.0
 31
0.0
  0
LINE
  5
13
100
AcDbEntity
  8
USP-GEO
100
AcDbLine
 10
0.5625911485751445
 20
0.0
 30
0.0
 11
1.06259114857514
 21
0.0
 31
0.0
  0
LINE
  5
14
100
AcDbEntity
  8
USP-GEO
100
AcDbLine
 10
1.062591148575144
 20
0.0399999999999992
 30
0.0
 11
1.062591148575144
 21
0.0
 31
0.0
  0
LINE
  5
15
100
AcDbEntity
  8
USP-GEO
100
AcDbLine
 10
1.562591148571284
 20
0.0400000000000027
 30
0.0
 11
1.562591148571042
 21
0.2269469065229526
 31
0.0
  0
LINE
  5
16
100
AcDbEntity
  8
USP-GEO
100
AcDbLine
 10
1.562591148571051
 20
0.2269469065229508
 30
0.0
 11
1.312591148571053
 21
0.2269469065229508
 31
0.0
  0
LINE
  5
17
100
AcDbEntity
  8
USP-GEO
100
AcDbLine
 10
1.312591148571051
 20
0.2269469065229508
 30
0.0
 11
1.312591148574114
 21
0.0400000000000027
 31
0.0
  0
LINE
  5
18
100
AcDbEntity
  8
USP-GEO
100
AcDbLine
 10
0.3125911485710517
 20
0.2269469065229508
 30
0.0
 11
0.3125911485741106
 21
0.0400000000000027
 31
0.0
  0
LINE
  5
19
100
AcDbEntity
  8
USP-GEO
100
AcDbLine
 10
0.3125911485710517
 20
0.2269469065229508
 30
0.0
 11
0.0625911485710535
 21
0.2269469065229508
 31
0.0
  0
LINE
  5
1A
100
AcDbEntity
  8
USP-GEO
100
AcDbLine
 10
0.0625911485710518
 20
0.2269469065229508
 30
0.0
 11
0.0625911485751463
 21
0.0400000000000027
 31
0.0
  0
LINE
  5
1B
100
AcDbEntity
  8
USP-GEO
100
AcDbLine
 10
1.585182297150261
 20
0.0399999999999992
 30
0.0
 11
1.585182297150261
 21
0.0723263514248718
 31
0.0
  0
LINE
  5
1C
100
AcDbEntity
  8
USP-GEO
100
AcDbLine
 10
1.585182297150261
 20
0.0723263514248735
 30
0.0
 11
1.585182297150261
 21
0.2049088514248734
 31
0.0
  0
LINE
  5
1D
100
AcDbEntity
  8
USP-GEO
100
AcDbLine
 10
1.625182297150253
 20
0.0
 30
0.0
 11
1.625182297150253
 21
0.0723263514248718
 31
0.0
  0
LINE
  5
1E
100
AcDbEntity
  8
USP-GEO
100
AcDbLine
 10
1.585182297150261
 20
0.0723263514248735
 30
0.0
 11
1.62518229715026
 21
0.0723263514248735
 31
0.0
  0
LINE
  5
1F
100
AcDbEntity
  8
USP-GEO
100
AcDbLine
 10
1.062591148575144
 20
0.0
 30
0.0
 11
1.625182297150274
 21
0.0
 31
0.0
  0
LINE
  5
20
100
AcDbEntity
  8
USP-GEO
100
AcDbLine
 10
1.625182297150253
 20
0.0723263514248735
 30
0.0
 11
1.625182297150253
 21
0.2049088514248734
 31
0.0
  0
LINE
  5
21
100
AcDbEntity
  8
USP-GEO
100
AcDbLine
 10
1.585182297150261
 20
0.2049088514248716
 30
0.0
 11
1.62518229715026
 21
0.2049088514248716
 31
0.0
  0
LINE
  5
22
100
AcDbEntity
  8
USP-GEO
100
AcDbLine
 10
0.0399999999999992
 20
0.07232635142487
 30
0.0
 11
0.0399999999999992
 21
0.0399999999999992
 31
0.0
  0
LINE
  5
23
100
AcDbEntity
  8
USP-GEO
100
AcDbLine
 10
0.0399999999999992
 20
0.07232635142487
 30
0.0
 11
-0.0000000000000009
 21
0.07232635142487
 31
0.0
  0
LINE
  5
24
100
AcDbEntity
  8
USP-GEO
100
AcDbLine
 10
0.0000000000000071
 20
0.07232635142487
 30
0.0
 11
0.0000000000000071
 21
-0.0000000000000018
 31
0.0
  0
LINE
  5
25
100
AcDbEntity
  8
USP-GEO
100
AcDbLine
 10
0.5625911485751303
 20
0.0
 30
0.0
 11
0.0
 21
0.0
 31
0.0
  0
LINE
  5
26
100
AcDbEntity
  8
USP-GEO
100
AcDbLine
 10
0.0399999999999992
 20
0.2049088514248716
 30
0.0
 11
0.0399999999999992
 21
0.0723263514248718
 31
0.0
  0
LINE
  5
27
100
AcDbEntity
  8
USP-GEO
100
AcDbLine
 10
0.0399999999999992
 20
0.2049088514248716
 30
0.0
 11
-0.0000000000000009
 21
0.2049088514248716
 31
0.0
  0
LINE
  5
28
100
AcDbEntity
  8
USP-GEO
100
AcDbLine
 10
0.0000000000000071
 20
0.2049088514248716
 30
0.0
 11
0.0000000000000071
 21
0.0723263514248718
 31
0.0
  0
LINE
  5
29
100
AcDbEntity
  8
USP-HID
100
AcDbLine
 10
1.363341148575146
 20
0.0400000000000027
 30
0.0
 11
1.363341148575146
 21
0.0000000000000036
 31
0.0
  0
LINE
  5
2D
100
AcDbEntity
  8
USP-HID
100
AcDbLine
 10
1.199341148575141
 20
0.0400000000000027
 30
0.0
 11
1.199341148575141
 21
0.0000000000000036
 31
0.0
  0
LINE
  5
2E
100
AcDbEntity
  8
USP-HID
100
AcDbLine
 10
0.425841148575147
 20
0.0400000000000027
 30
0.0
 11
0.425841148575147
 21
0.0000000000000036
 31
0.0
  0
LINE
  5
2F
100
AcDbEntity
  8
USP-HID
100
AcDbLine
 10
0.261841148575142
 20
0.0400000000000027
 30
0.0
 11
0.261841148575142
 21
0.0000000000000036
 31
0.0
  0
LINE
  5
30
100
AcDbEntity
  8
USP-HID
100
AcDbLine
 10
1.282091148575133
 20
0.0399999999999992
 30
0.0
 11
1.282091148575133
 21
0.0
 31
0.0
  0
LINE
  5
31
100
AcDbEntity
  8
USP-HID
100
AcDbLine
 10
1.118091148575132
 20
0.0399999999999992
 30
0.0
 11
1.118091148575132
 21
0.0
 31
0.0
  0
LINE
  5
32
100
AcDbEntity
  8
USP-HID
100
AcDbLine
 10
0.50709114857513
 20
0.0399999999999992
 30
0.0
 11
0.50709114857513
 21
0.0
 31
0.0
  0
LINE
  5
33
100
AcDbEntity
  8
USP-HID
100
AcDbLine
 10
0.3430911485751249
 20
0.0399999999999992
 30
0.0
 11
0.3430911485751249
 21
0.0
 31
0.0
  0
LINE
  5
34
100
AcDbEntity
  8
USP-HID
100
AcDbLine
 10
0.769591148575147
 20
0.0399999999999992
 30
0.0
 11
0.769591148575147
 21
0.0
 31
0.0
  0
LINE
  5
35
100
AcDbEntity
  8
USP-HID
100
AcDbLine
 10
0.605591148575142
 20
0.0399999999999992
 30
0.0
 11
0.605591148575142
 21
0.0
 31
0.0
  0
LINE
  5
36
100
AcDbEntity
  8
USP-HID
100
AcDbLine
 10
1.019591148575145
 20
0.0399999999999992
 30
0.0
 11
1.019591148575145
 21
0.0
 31
0.0
  0
LINE
  5
37
100
AcDbEntity
  8
USP-HID
100
AcDbLine
 10
0.8555911485751437
 20
0.0399999999999992
 30
0.0
 11
0.8555911485751437
 21
0.0
 31
0.0
  0
LINE
  5
38
100
AcDbEntity
  8
USP-HID
100
AcDbLine
 10
0.738341148575147
 20
0.0400000000000027
 30
0.0
 11
0.738341148575147
 21
0.0000000000000036
 31
0.0
  0
LINE
  5
39
100
AcDbEntity
  8
USP-HID
100
AcDbLine
 10
0.574341148575142
 20
0.0400000000000027
 30
0.0
 11
0.574341148575142
 21
0.0000000000000036
 31
0.0
  0
LINE
  5
3A
100
AcDbEntity
  8
USP-HID
100
AcDbLine
 10
1.050841148575146
 20
0.0400000000000027
 30
0.0
 11
1.050841148575146
 21
0.0000000000000036
 31
0.0
  0
LINE
  5
3B
100
AcDbEntity
  8
USP-HID
100
AcDbLine
 10
0.8868411485751419
 20
0.0400000000000027
 30
0.0
 11
0.8868411485751419
 21
0.0000000000000036
 31
0.0
  0
LINE
  5
3C
100
AcDbEntity
  8
USP-HID
100
AcDbLine
 10
0.9285566606897148
 20
0.0400000000000027
 30
0.0
 11
0.9285566606897148
 21
0.0000000000000036
 31
0.0
  0
LINE
  5
3D
100
AcDbEntity
  8
USP-HID
100
AcDbLine
 10
0.6966256364605457
 20
0.0400000000000027
 30
0.0
 11
0.6966256364605457
 21
0.0000000000000036
 31
0.0
  0
LINE
  5
3E
100
AcDbEntity
  8
USP-HID
100
AcDbLine
 10
0.8125911485751444
 20
0.0400000000000027
 30
0.0
 11
0.8125911485751444
 21
0.0000000000000036
 31
0.0
  0
LINE
  5
3F
100
AcDbEntity
  8
USP-HID
100
AcDbLine
 10
1.312591148575144
 20
0.0400000000000027
 30
0.0
 11
1.312591148575144
 21
0.0000000000000036
 31
0.0
  0
LINE
  5
40
100
AcDbEntity
  8
USP-HID
100
AcDbLine
 10
0.3125911485751445
 20
0.0400000000000027
 30
0.0
 11
0.3125911485751445
 21
0.0000000000000036
 31
0.0
  0
LINE
  5
41
100
AcDbEntity
  8
USP-HID
100
AcDbLine
 10
1.562591148575144
 20
0.0400000000000027
 30
0.0
 11
1.562591148575144
 21
0.0000000000000036
 31
0.0
  0
LINE
  5
42
100
AcDbEntity
  8
USP-HID
100
AcDbLine
 10
0.0625911485751445
 20
0.0400000000000027
 30
0.0
 11
0.0625911485751445
 21
0.0000000000000036
 31
0.0
  0
ENDBLK
  5
45
100
AcDbEntity
  8
0
100
AcDbBlockEnd
  0
BLOCK
  5
6A
100
AcDbEntity
  8
0
100
AcDbBlockBegin
  2
RSPT6_S
 70
     0
 10
0.0
 20
0.0
 30
0.0
  3
RSPT6_S
  1

  0
TEXT
  5
48
100
AcDbEntity
  8
USP-TXT
100
AcDbText
 10
-1.96985988007186
 20
-0.9294278935994242
 30
0.0
 40
0.25
  1
RSPT6 - SIDE VIEW
 72
     1
 11
0.1134734532614741
 21
-0.9294278935994242
 31
0.0
100
AcDbText
  0
LINE
  5
49
100
AcDbEntity
  8
USP-GEO
100
AcDbLine
 10
0.1869469065229481
 20
0.04
 30
0.0
 11
0.1869469065229494
 21
3.038802507852339
 31
0.0
  0
LINE
  5
4A
100
AcDbEntity
  8
USP-GEO
100
AcDbLine
 10
0.0
 20
0.0
 30
0.0
 11
0.2269469065229481
 21
-0.0000000000000001
 31
0.0
  0
LINE
  5
4B
100
AcDbEntity
  8
USP-GEO
100
AcDbLine
 10
0.0
 20
0.0399999999999992
 30
0.0
 11
0.0
 21
-0.0000000000000009
 31
0.0
  0
LINE
  5
4C
100
AcDbEntity
  8
USP-GEO
100
AcDbLine
 10
0.0
 20
0.0399999999999992
 30
0.0
 11
0.1869469065229481
 21
0.039999999999999
 31
0.0
  0
LINE
  5
4D
100
AcDbEntity
  8
USP-GEO
100
AcDbLine
 10
0.226946906522949
 20
3.038802507852338
 30
0.0
 11
0.2269469065229472
 21
-0.0000000000000009
 31
0.0
  0
LINE
  5
4E
100
AcDbEntity
  8
USP-GEO
100
AcDbLine
 10
0.1546205550980808
 20
5.478053093476873
 30
0.0
 11
0.2269469065229521
 21
5.47805309347729
 31
0.0
  0
LINE
  5
4F
100
AcDbEntity
  8
USP-GEO
100
AcDbLine
 10
0.2269469065229472
 20
3.038802507856171
 30
0.0
 11
0.0220380550980761
 21
3.038802507852154
 31
0.0
  0
LINE
  5
50
100
AcDbEntity
  8
USP-GEO
100
AcDbLine
 10
0.0220380550980792
 20
3.038802507852153
 30
0.0
 11
0.0220380550980801
 21
5.345470593476861
 31
0.0
  0
LINE
  5
51
100
AcDbEntity
  8
USP-GEO
100
AcDbLine
 10
0.0220380550980792
 20
5.345470593476861
 30
0.0
 11
0.154620555098079
 21
5.478053093476871
 31
0.0
  0
LINE
  5
52
100
AcDbEntity
  8
USP-GEO
100
AcDbLine
 10
0.2269469065229481
 20
5.47805309347706
 30
0.0
 11
0.2269469065229472
 21
3.038802507852341
 31
0.0
  0
LINE
  5
53
100
AcDbEntity
  8
USP-HID
100
AcDbLine
 10
0.1869469065229481
 20
0.9663030934770571
 30
0.0
 11
0.2269469065229472
 21
0.9663030934770571
 31
0.0
  0
LINE
  5
54
100
AcDbEntity
  8
USP-HID
100
AcDbLine
 10
0.1869469065229481
 20
0.802303093477052
 30
0.0
 11
0.2269469065229472
 21
0.802303093477052
 31
0.0
  0
LINE
  5
55
100
AcDbEntity
  8
USP-HID
100
AcDbLine
 10
0.1869469065229481
 20
0.6850530934770532
 30
0.0
 11
0.2269469065229472
 21
0.6850530934770532
 31
0.0
  0
LINE
  5
56
100
AcDbEntity
  8
USP-HID
100
AcDbLine
 10
0.1869469065229481
 20
0.521053093477049
 30
0.0
 11
0.2269469065229472
 21
0.521053093477049
 31
0.0
  0
LINE
  5
57
100
AcDbEntity
  8
USP-HID
100
AcDbLine
 10
0.1869469065229516
 20
4.560053093477059
 30
0.0
 11
0.2269469065229508
 21
4.560053093477059
 31
0.0
  0
LINE
  5
58
100
AcDbEntity
  8
USP-HID
100
AcDbLine
 10
0.1869469065229516
 20
4.396053093477056
 30
0.0
 11
0.2269469065229508
 21
4.396053093477056
 31
0.0
  0
LINE
  5
59
100
AcDbEntity
  8
USP-HID
100
AcDbLine
 10
0.1869469065229516
 20
4.87255309347706
 30
0.0
 11
0.2269469065229508
 21
4.87255309347706
 31
0.0
  0
LINE
  5
5A
100
AcDbEntity
  8
USP-HID
100
AcDbLine
 10
0.1869469065229516
 20
4.708553093477055
 30
0.0
 11
0.2269469065229508
 21
4.708553093477055
 31
0.0
  0
LINE
  5
5B
100
AcDbEntity
  8
USP-HID
100
AcDbLine
 10
0.1869469065229516
 20
4.247553093477064
 30
0.0
 11
0.2269469065229508
 21
4.247553093477064
 31
0.0
  0
LINE
  5
5C
100
AcDbEntity
  8
USP-HID
100
AcDbLine
 10
0.1869469065229516
 20
4.083553093477059
 30
0.0
 11
0.2269469065229508
 21
4.083553093477059
 31
0.0
  0
LINE
  5
5D
100
AcDbEntity
  8
USP-HID
100
AcDbLine
 10
0.1869469065229516
 20
5.185053093477063
 30
0.0
 11
0.2269469065229508
 21
5.185053093477063
 31
0.0
  0
LINE
  5
5E
100
AcDbEntity
  8
USP-HID
100
AcDbLine
 10
0.1869469065229516
 20
5.02105309347706
 30
0.0
 11
0.2269469065229508
 21
5.02105309347706
 31
0.0
  0
LINE
  5
5F
100
AcDbEntity
  8
USP-HID
100
AcDbLine
 10
0.1869469065229481
 20
1.247553093477056
 30
0.0
 11
0.2269469065229472
 21
1.247553093477056
 31
0.0
  0
LINE
  5
60
100
AcDbEntity
  8
USP-HID
100
AcDbLine
 10
0.1869469065229481
 20
1.083553093477052
 30
0.0
 11
0.2269469065229472
 21
1.083553093477052
 31
0.0
  0
LINE
  5
61
100
AcDbEntity
  8
USP-HID
100
AcDbLine
 10
0.1869469065229481
 20
0.4038030934770536
 30
0.0
 11
0.2269469065229472
 21
0.4038030934770536
 31
0.0
  0
LINE
  5
62
100
AcDbEntity
  8
USP-HID
100
AcDbLine
 10
0.1869469065229481
 20
0.2398030934770485
 30
0.0
 11
0.2269469065229472
 21
0.2398030934770485
 31
0.0
  0
LINE
  5
63
100
AcDbEntity
  8
USP-HID
100
AcDbLine
 10
0.186946906522949
 20
5.478053093477059
 30
0.0
 11
0.1869469065229481
 21
3.038802507855388
 31
0.0
  0
LINE
  5
64
100
AcDbEntity
  8
USP-HID
100
AcDbLine
 10
0.1869469065229481
 20
2.172836995737746
 30
0.0
 11
0.2269469065229481
 21
2.172836995737746
 31
0.0
  0
LINE
  5
65
100
AcDbEntity
  8
USP-HID
100
AcDbLine
 10
0.1869469065229481
 20
2.288802507852338
 30
0.0
 11
0.2269469065229481
 21
2.288802507852338
 31
0.0
  0
LINE
  5
66
100
AcDbEntity
  8
USP-HID
100
AcDbLine
 10
0.1869469065229481
 20
2.404768019966933
 30
0.0
 11
0.2269469065229481
 21
2.404768019966933
 31
0.0
  0
LINE
  5
67
100
AcDbEntity
  8
USP-HID
100
AcDbLine
 10
0.1869469065229516
 20
5.428053093477053
 30
0.0
 11
0.2269469065229517
 21
5.428053093477053
 31
0.0
  0
LINE
  5
68
100
AcDbEntity
  8
USP-HID
100
AcDbLine
 10
0.1869469065229481
 20
0.0530530934770539
 30
0.0
 11
0.2269469065229481
 21
0.0530530934770539
 31
0.0
  0
LINE
  5
69
100
AcDbEntity
  8
USP-HID
100
AcDbLine
 10
0.1869469065229481
 20
0.103053093477051
 30
0.0
 11
0.2269469065229481
 21
0.103053093477051
 31
0.0
  0
ENDBLK
  5
6B
100
AcDbEntity
  8
0
100
AcDbBlockEnd
  0
BLOCK
  5
95
100
AcDbEntity
  8
0
100
AcDbBlockBegin
  2
RSPT6_F
 70
     0
 10
0.0
 20
0.0
 30
0.0
  3
RSPT6_F
  1

  0
TEXT
  5
6E
100
AcDbEntity
  8
USP-TXT
100
AcDbText
 10
-1.499999999999983
 20
-0.9294278935994242
 30
0.0
 40
0.25
  1
RSPT6 - FRONT VIEW
 72
     1
 11
0.750000000000016
 21
-0.9294278935994242
 31
0.0
100
AcDbText
  0
CIRCLE
  5
6F
100
AcDbEntity
  8
USP-GEO
100
AcDbCircle
 10
1.218750000000014
 20
0.8843030934770546
 30
0.0
 40
0.0820000000000025
  0
CIRCLE
  5
70
100
AcDbEntity
  8
USP-GEO
100
AcDbCircle
 10
0.2812500000000142
 20
0.6030530934770511
 30
0.0
 40
0.0820000000000021
  0
CIRCLE
  5
71
100
AcDbEntity
  8
USP-GEO
100
AcDbCircle
 10
1.137500000000002
 20
4.478053093477058
 30
0.0
 40
0.0820000000000016
  0
CIRCLE
  5
72
100
AcDbEntity
  8
USP-GEO
100
AcDbCircle
 10
0.3624999999999972
 20
4.790553093477058
 30
0.0
 40
0.0820000000000021
  0
LINE
  5
73
100
AcDbEntity
  8
USP-GEO
100
AcDbLine
 10
0.8659655121145934
 20
2.288802507852336
 30
0.0
 11
0.7500000000000018
 21
2.172836995737748
 31
0.0
  0
LINE
  5
74
100
AcDbEntity
  8
USP-GEO
100
AcDbLine
 10
0.7499999999999947
 20
2.172836995737747
 30
0.0
 11
0.6340344878853977
 21
2.288802507852335
 31
0.0
  0
LINE
  5
75
100
AcDbEntity
  8
USP-GEO
100
AcDbLine
 10
0.6340344878853977
 20
2.288802507852334
 30
0.0
 11
0.7499999999999929
 21
2.40476801996693
 31
0.0
  0
LINE
  5
76
100
AcDbEntity
  8
USP-GEO
100
AcDbLine
 10
0.7499999999999983
 20
2.404768019966932
 30
0.0
 11
0.8659655121145917
 21
2.288802507852336
 31
0.0
  0
CIRCLE
  5
77
100
AcDbEntity
  8
USP-GEO
100
AcDbCircle
 10
0.6250000000000142
 20
4.165553093477061
 30
0.0
 40
0.0820000000000025
  0
CIRCLE
  5
78
100
AcDbEntity
  8
USP-GEO
100
AcDbCircle
 10
0.8750000000000142
 20
5.103053093477061
 30
0.0
 40
0.0820000000000016
  0
CIRCLE
  5
79
100
AcDbEntity
  8
USP-GEO
100
AcDbCircle
 10
0.5937500000000142
 20
1.165553093477054
 30
0.0
 40
0.0820000000000021
  0
CIRCLE
  5
7A
100
AcDbEntity
  8
USP-GEO
100
AcDbCircle
 10
0.9062500000000142
 20
0.321803093477051
 30
0.0
 40
0.0820000000000025
  0
LINE
  5
7B
100
AcDbEntity
  8
USP-GEO
100
AcDbLine
 10
0.5000000000000142
 20
5.478053093477058
 30
0.0
 11
0.5000000000000142
 21
5.428053093477053
 31
0.0
  0
LINE
  5
7C
100
AcDbEntity
  8
USP-GEO
100
AcDbLine
 10
0.5000000000000142
 20
5.428053093477053
 30
0.0
 11
1.00000000000001
 21
5.428053093477053
 31
0.0
  0
LINE
  5
7D
100
AcDbEntity
  8
USP-GEO
100
AcDbLine
 10
1.000000000000014
 20
5.428053093477053
 30
0.0
 11
1.000000000000014
 21
5.478053093477058
 31
0.0
  0
LINE
  5
7E
100
AcDbEntity
  8
USP-GEO
100
AcDbLine
 10
1.250000000000014
 20
0.103053093477051
 30
0.0
 11
1.00000000000001
 21
0.103053093477051
 31
0.0
  0
LINE
  5
7F
100
AcDbEntity
  8
USP-GEO
100
AcDbLine
 10
1.000000000000014
 20
0.103053093477051
 30
0.0
 11
1.000000000000014
 21
0.0530530934770517
 31
0.0
  0
LINE
  5
80
100
AcDbEntity
  8
USP-GEO
100
AcDbLine
 10
1.000000000000014
 20
0.0530530934770539
 30
0.0
 11
0.5000000000000178
 21
0.0530530934770539
 31
0.0
  0
LINE
  5
81
100
AcDbEntity
  8
USP-GEO
100
AcDbLine
 10
0.5000000000000142
 20
0.0530530934770539
 30
0.0
 11
0.5000000000000142
 21
0.1030530934770533
 31
0.0
  0
LINE
  5
82
100
AcDbEntity
  8
USP-GEO
100
AcDbLine
 10
0.5000000000000142
 20
0.103053093477051
 30
0.0
 11
0.2500000000000107
 21
0.103053093477051
 31
0.0
  0
LINE
  5
83
100
AcDbEntity
  8
USP-GEO
100
AcDbLine
 10
1.500000000000014
 20
3.038802507852341
 30
0.0
 11
1.499999999996109
 21
0.0000000000000022
 31
0.0
  0
LINE
  5
84
100
AcDbEntity
  8
USP-GEO
100
AcDbLine
 10
1.249999999998983
 20
0.0
 30
0.0
 11
1.500000000000014
 21
0.0
 31
0.0
  0
LINE
  5
85
100
AcDbEntity
  8
USP-GEO
100
AcDbLine
 10
1.249999999998962
 20
0.1030530934770497
 30
0.0
 11
1.249999999998962
 21
-0.0000000000000009
 31
0.0
  0
LINE
  5
86
100
AcDbEntity
  8
USP-GEO
100
AcDbLine
 10
0.2499999999989626
 20
0.1030530934770506
 30
0.0
 11
0.2499999999989626
 21
0.0
 31
0.0
  0
LINE
  5
87
100
AcDbEntity
  8
USP-GEO
100
AcDbLine
 10
0.0
 20
0.0
 30
0.0
 11
0.2499999999989626
 21
0.0
 31
0.0
  0
LINE
  5
88
100
AcDbEntity
  8
USP-GEO
100
AcDbLine
 10
0.0000000000000142
 20
3.038802507852338
 30
0.0
 11
0.0000000000000142
 21
-0.0000000000000009
 31
0.0
  0
LINE
  5
89
100
AcDbEntity
  8
USP-GEO
100
AcDbLine
 10
1.500000000000001
 20
3.038802507853414
 30
0.0
 11
1.56259114857513
 21
3.038802507853414
 31
0.0
  0
LINE
  5
8A
100
AcDbEntity
  8
USP-GEO
100
AcDbLine
 10
1.000000000000014
 20
5.478053093477058
 30
0.0
 11
1.562591148575144
 21
5.478053093480333
 31
0.0
  0
LINE
  5
8B
100
AcDbEntity
  8
USP-GEO
100
AcDbLine
 10
1.562591148575123
 20
3.038802507853414
 30
0.0
 11
1.562591148575123
 21
5.478053093478133
 31
0.0
  0
LINE
  5
8C
100
AcDbEntity
  8
USP-GEO
100
AcDbLine
 10
0.5
 20
5.478053093477058
 30
0.0
 11
-0.0625911485751303
 21
5.478053093477058
 31
0.0
  0
LINE
  5
8D
100
AcDbEntity
  8
USP-GEO
100
AcDbLine
 10
0.0000000000000142
 20
3.038802507852341
 30
0.0
 11
-0.0625911485751187
 21
3.038802507851262
 31
0.0
  0
LINE
  5
8E
100
AcDbEntity
  8
USP-GEO
100
AcDbLine
 10
-0.0625911485751232
 20
5.47805309347706
 30
0.0
 11
-0.0625911485751232
 21
3.038802507852341
 31
0.0
  0
LINE
  5
8F
100
AcDbEntity
  8
USP-HID
100
AcDbLine
 10
-0.0225911485751311
 20
5.478053093477059
 30
0.0
 11
-0.0225911485751311
 21
3.038802507855388
 31
0.0
  0
LINE
  5
90
100
AcDbEntity
  8
USP-HID
100
AcDbLine
 10
1.522591148575131
 20
3.038802507853416
 30
0.0
 11
1.522591148575131
 21
5.478053093481175
 31
0.0
  0
LINE
  5
91
100
AcDbEntity
  8
USP-HID
100
AcDbLine
 10
1.249999999998978
 20
0.0399999999999992
 30
0.0
 11
1.499999999996155
 21
0.0399999999999992
 31
0.0
  0
LINE
  5
92
100
AcDbEntity
  8
USP-HID
100
AcDbLine
 10
0.0000000000000195
 20
0.0399999999999992
 30
0.0
 11
0.2499999999989821
 21
0.0399999999999992
 31
0.0
  0
LINE
  5
93
100
AcDbEntity
  8
USP-HID
100
AcDbLine
 10
1.522591148575131
 20
5.345470593481362
 30
0.0
 11
1.56259114857513
 21
5.345470593481362
 31
0.0
  0
LINE
  5
94
100
AcDbEntity
  8
USP-HID
100
AcDbLine
 10
-0.0225911485751311
 20
5.345470593476861
 30
0.0
 11
-0.0625911485751312
 21
5.345470593476861
 31
0.0
  0
ENDBLK
  5
96
100
AcDbEntity
  8
0
100
AcDbBlockEnd
  0
ENDSEC
  0
SECTION
  2
ENTITIES
  0
INSERT
  5
3
100
AcDbEntity
  8
USP
100
AcDbBlockReference
  2
RSPT6_T
 10
7.688556263255389
 20
10.26466384598488
 30
0.0
  0
INSERT
  5
46
100
AcDbEntity
  8
USP
100
AcDbBlockReference
  2
RSPT6_S
 10
2.54357715379027
 20
0.9299759420376734
 30
0.0
  0
INSERT
  5
6C
100
AcDbEntity
  8
USP
100
AcDbBlockReference
  2
RSPT6_F
 10
7.751147411830519
 20
0.9299759420376734
 30
0.0
  0
ENDSEC
  0
SECTION
  2
OBJECTS
  0
DICTIONARY
  5
AF
102
{ACAD_XDICTIONARY
360
B0
102
}
100
AcDbDictionary
  3
ACAD_GROUP
350
AD
  3
ACAD_MLINESTYLE
350
AE
  0
DICTIONARY
  5
E
100
AcDbDictionary
280
     1
  3
ACAD_XREC_ROUNDTRIP
360
F
  0
DICTIONARY
  5
9
100
AcDbDictionary
280
     1
  3
ACAD_XREC_ROUNDTRIP
360
A
  0
DICTIONARY
  5
2B
100
AcDbDictionary
280
     1
  3
ACAD_XREC_ROUNDTRIP
360
2C
  0
DICTIONARY
  5
B4
100
AcDbDictionary
280
     1
  3
ACAD_XREC_ROUNDTRIP
360
B5
  0
DICTIONARY
  5
97
100
AcDbDictionary
280
     1
  3
ACAD_LAYOUTSELFREF
360
98
  0
DICTIONARY
  5
9C
100
AcDbDictionary
280
     1
  3
ACAD_LAYOUTSELFREF
360
9D
  0
DICTIONARY
  5
B0
100
AcDbDictionary
280
     1
  3
ACAD_XREC_ROUNDTRIP
360
B1
  0
DICTIONARY
  5
AD
102
{ACAD_REACTORS
330
AF
102
}
100
AcDbDictionary
  0
DICTIONARY
  5
AE
102
{ACAD_REACTORS
330
AF
102
}
100
AcDbDictionary
  3
STANDARD
350
B2
  0
XRECORD
  5
F
102
{ACAD_REACTORS
330
E
102
}
100
AcDbXrecord
102
EXTNAMES
  1
USP-GEO
  2
USP-Geo
  0
XRECORD
  5
A
102
{ACAD_REACTORS
330
9
102
}
100
AcDbXrecord
102
EXTNAMES
  1
USP-TXT
  2
USP-Txt
  0
XRECORD
  5
2C
102
{ACAD_REACTORS
330
2B
102
}
100
AcDbXrecord
102
EXTNAMES
  1
USP-HID
  2
USP-Hid
  0
XRECORD
  5
B5
102
{ACAD_REACTORS
330
B4
102
}
100
AcDbXrecord
102
ACADR14ROUNDTRIP
1000
DSTYLE
1002
{
1070
   276
 70
     2
1070
   277
 70
     5
1002
}
  0
XRECORD
  5
98
102
{ACAD_REACTORS
330
97
102
}
100
AcDbXrecord
340
18
  0
XRECORD
  5
9D
102
{ACAD_REACTORS
330
9C
102
}
100
AcDbXrecord
340
15
  0
XRECORD
  5
B1
102
{ACAD_REACTORS
330
B0
102
}
100
AcDbXrecord
102
EXTNAMES
  1
ACADDIM
  2
AcadDim
  1
ACDBVARIABLEDICTIONARY
  2
AcDbVariableDictionary
  1
AUXHDRRNDTRIPDATA
  2
AuxHdrRndTripData
  0
MLINESTYLE
  5
B2
102
{ACAD_REACTORS
330
AE
102
}
100
AcDbMlineStyle
  2
STANDARD
 70
     0
  3

 62
     0
 51
90.0
 52
90.0
 71
     2
 49
0.5
 62
   256
  6
BYLAYER
 49
-0.5
 62
   256
  6
BYLAYER
  0
ENDSEC
  0
EOF
