  0
SECTION
  2
HEADER
  9
$ACADVER
  1
AC1014
  9
$ACADMAINTVER
 70
     9
  9
$DWGCODEPAGE
  3
ANSI_1252
  9
$INSBASE
 10
0.0
 20
0.0
 30
0.0
  9
$EXTMIN
 10
0.0506911388793121
 20
0.0009052094036228
 30
0.0
  9
$EXTMAX
 10
13.56013996277128
 20
15.92442180036161
 30
0.0
  9
$LIMMIN
 10
0.0
 20
0.0
  9
$LIMMAX
 10
12.0
 20
9.0
  9
$ORTHOMODE
 70
     1
  9
$REGENMODE
 70
     1
  9
$FILLMODE
 70
     1
  9
$QTEXTMODE
 70
     0
  9
$MIRRTEXT
 70
     0
  9
$DRAGMODE
 70
     2
  9
$LTSCALE
 40
1.5
  9
$OSMODE
 70
     0
  9
$ATTMODE
 70
     1
  9
$TEXTSIZE
 40
0.75
  9
$TRACEWID
 40
0.05
  9
$TEXTSTYLE
  7
STANDARD
  9
$CLAYER
  8
USP
  9
$CELTYPE
  6
BYLAYER
  9
$CECOLOR
 62
   256
  9
$CELTSCALE
 40
1.0
  9
$DELOBJ
 70
     1
  9
$DISPSILH
 70
     1
  9
$DIMSCALE
 40
3.0
  9
$DIMASZ
 40
0.125
  9
$DIMEXO
 40
0.0625
  9
$DIMDLI
 40
0.37890625
  9
$DIMRND
 40
0.0
  9
$DIMDLE
 40
0.0
  9
$DIMEXE
 40
0.09375
  9
$DIMTP
 40
0.0
  9
$DIMTM
 40
0.0
  9
$DIMTXT
 40
0.109375
  9
$DIMCEN
 40
0.0
  9
$DIMTSZ
 40
0.0
  9
$DIMTOL
 70
     0
  9
$DIMLIM
 70
     0
  9
$DIMTIH
 70
     1
  9
$DIMTOH
 70
     1
  9
$DIMSE1
 70
     0
  9
$DIMSE2
 70
     0
  9
$DIMTAD
 70
     0
  9
$DIMZIN
 70
     8
  9
$DIMBLK
  1

  9
$DIMASO
 70
     1
  9
$DIMSHO
 70
     1
  9
$DIMPOST
  1

  9
$DIMAPOST
  1

  9
$DIMALT
 70
     0
  9
$DIMALTD
 70
     2
  9
$DIMALTF
 40
25.4
  9
$DIMLFAC
 40
1.0
  9
$DIMTOFL
 70
     0
  9
$DIMTVP
 40
0.0
  9
$DIMTIX
 70
     0
  9
$DIMSOXD
 70
     0
  9
$DIMSAH
 70
     0
  9
$DIMBLK1
  1

  9
$DIMBLK2
  1

  9
$DIMSTYLE
  2
STANDARD
  9
$DIMCLRD
 70
     0
  9
$DIMCLRE
 70
     0
  9
$DIMCLRT
 70
   256
  9
$DIMTFAC
 40
1.0
  9
$DIMGAP
 40
0.08984375
  9
$DIMJUST
 70
     0
  9
$DIMSD1
 70
     0
  9
$DIMSD2
 70
     0
  9
$DIMTOLJ
 70
     1
  9
$DIMTZIN
 70
     0
  9
$DIMALTZ
 70
     0
  9
$DIMALTTZ
 70
     0
  9
$DIMFIT
 70
     3
  9
$DIMUPT
 70
     1
  9
$DIMUNIT
 70
     7
  9
$DIMDEC
 70
     4
  9
$DIMTDEC
 70
     4
  9
$DIMALTU
 70
     2
  9
$DIMALTTD
 70
     2
  9
$DIMTXSTY
  7
STANDARD
  9
$DIMAUNIT
 70
     0
  9
$LUNITS
 70
     5
  9
$LUPREC
 70
     6
  9
$SKETCHINC
 40
0.1
  9
$FILLETRAD
 40
0.0
  9
$AUNITS
 70
     0
  9
$AUPREC
 70
     1
  9
$MENU
  1
CUSTOM
  9
$ELEVATION
 40
0.0
  9
$PELEVATION
 40
0.0
  9
$THICKNESS
 40
0.0
  9
$LIMCHECK
 70
     0
  9
$BLIPMODE
 70
     0
  9
$CHAMFERA
 40
0.0
  9
$CHAMFERB
 40
0.0
  9
$CHAMFERC
 40
0.0
  9
$CHAMFERD
 40
0.0
  9
$SKPOLY
 70
     0
  9
$TDCREATE
 40
2451263.663231366
  9
$TDUPDATE
 40
2452768.667801458
  9
$TDINDWG
 40
0.6366670949
  9
$TDUSRTIMER
 40
0.6366670949
  9
$USRTIMER
 70
     1
  9
$ANGBASE
 50
0.0
  9
$ANGDIR
 70
     0
  9
$PDMODE
 70
     0
  9
$PDSIZE
 40
0.0
  9
$PLINEWID
 40
0.0
  9
$COORDS
 70
     2
  9
$SPLFRAME
 70
     0
  9
$SPLINETYPE
 70
     6
  9
$SPLINESEGS
 70
     8
  9
$ATTDIA
 70
     0
  9
$ATTREQ
 70
     0
  9
$HANDLING
 70
     1
  9
$HANDSEED
  5
BA
  9
$SURFTAB1
 70
     6
  9
$SURFTAB2
 70
     6
  9
$SURFTYPE
 70
     6
  9
$SURFU
 70
     6
  9
$SURFV
 70
     6
  9
$UCSNAME
  2

  9
$UCSORG
 10
0.0
 20
0.0
 30
0.0
  9
$UCSXDIR
 10
1.0
 20
0.0
 30
0.0
  9
$UCSYDIR
 10
0.0
 20
1.0
 30
0.0
  9
$PUCSNAME
  2

  9
$PUCSORG
 10
0.0
 20
0.0
 30
0.0
  9
$PUCSXDIR
 10
1.0
 20
0.0
 30
0.0
  9
$PUCSYDIR
 10
0.0
 20
1.0
 30
0.0
  9
$USERI1
 70
     0
  9
$USERI2
 70
     0
  9
$USERI3
 70
     0
  9
$USERI4
 70
     0
  9
$USERI5
 70
     0
  9
$USERR1
 40
0.0
  9
$USERR2
 40
0.0
  9
$USERR3
 40
0.0
  9
$USERR4
 40
0.0
  9
$USERR5
 40
0.0
  9
$WORLDVIEW
 70
     1
  9
$SHADEDGE
 70
     3
  9
$SHADEDIF
 70
    70
  9
$TILEMODE
 70
     1
  9
$MAXACTVP
 70
    16
  9
$PINSBASE
 10
0.0
 20
0.0
 30
0.0
  9
$PLIMCHECK
 70
     0
  9
$PEXTMIN
 10
1.000000000000000E+20
 20
1.000000000000000E+20
 30
1.000000000000000E+20
  9
$PEXTMAX
 10
-1.000000000000000E+20
 20
-1.000000000000000E+20
 30
-1.000000000000000E+20
  9
$PLIMMIN
 10
0.0
 20
0.0
  9
$PLIMMAX
 10
12.0
 20
9.0
  9
$UNITMODE
 70
     0
  9
$VISRETAIN
 70
     0
  9
$PLINEGEN
 70
     0
  9
$PSLTSCALE
 70
     0
  9
$TREEDEPTH
 70
  3020
  9
$PICKSTYLE
 70
     0
  9
$CMLSTYLE
  2
STANDARD
  9
$CMLJUST
 70
     0
  9
$CMLSCALE
 40
1.0
  9
$PROXYGRAPHICS
 70
     1
  9
$MEASUREMENT
 70
     0
  0
ENDSEC
  0
SECTION
  2
CLASSES
  0
CLASS
  1
ACDBDICTIONARYWDFLT
  2
AcDbDictionaryWithDefault
  3
AutoCAD 2000
 90
        0
280
     0
281
     0
  0
CLASS
  1
ACDBPLACEHOLDER
  2
AcDbPlaceHolder
  3
AutoCAD 2000
 90
        0
280
     0
281
     0
  0
CLASS
  1
LAYOUT
  2
AcDbLayout
  3
AutoCAD 2000
 90
        0
280
     0
281
     0
  0
CLASS
  1
DICTIONARYVAR
  2
AcDbDictionaryVar
  3
"AutoCAD"
 90
        0
280
     0
281
     0
  0
CLASS
  1
LONG_TRANSACTION
  2
AcDbLongTransaction
  3
AutoCAD 2000
 90
        0
280
     0
281
     0
  0
CLASS
  1
LWPOLYLINE
  2
AcDbPolyline
  3
"AutoCAD"
 90
        0
280
     0
281
     1
  0
CLASS
  1
HATCH
  2
AcDbHatch
  3
"ACAD_SEDONA"
 90
        0
280
     0
281
     1
  0
CLASS
  1
XRECORD
  2
AcDbXrecord
  3
"<Built In>"
 90
        0
280
     0
281
     0
  0
CLASS
  1
LONG_TRANSACTION
  2
AcDbLongTransaction
  3
AutoCAD 2000
 90
        0
280
     0
281
     0
  0
CLASS
  1
LWPOLYLINE
  2
AcDbPolyline
  3
"AutoCAD"
 90
        0
280
     0
281
     1
  0
CLASS
  1
HATCH
  2
AcDbHatch
  3
"ACAD_SEDONA"
 90
        0
280
     0
281
     1
  0
CLASS
  1
XRECORD
  2
AcDbXrecord
  3
"<Built In>"
 90
        0
280
     0
281
     0
  0
ENDSEC
  0
SECTION
  2
TABLES
  0
TABLE
  2
VPORT
  5
AA
100
AcDbSymbolTable
 70
     1
  0
VPORT
  5
AB
100
AcDbSymbolTableRecord
100
AcDbViewportTableRecord
  2
*ACTIVE
 70
     0
 10
0.0
 20
0.0
 11
1.0
 21
1.0
 12
-10.86847116871868
 22
0.4206967370232615
 13
0.0
 23
0.0
 14
1.0
 24
1.0
 15
0.0
 25
0.0
 16
0.0
 26
0.0
 36
1.0
 17
18.06596660309899
 27
8.119903606830565
 37
5.823974399722915
 40
24.11258270668688
 41
1.457627118644067
 42
50.0
 43
10.55307667737539
 44
10.55307667737539
 50
0.0
 51
0.0
 71
     0
 72
   100
 73
     1
 74
     1
 75
     0
 76
     0
 77
     0
 78
     0
  0
ENDTAB
  0
TABLE
  2
LTYPE
  5
A5
100
AcDbSymbolTable
 70
     1
  0
LTYPE
  5
A6
100
AcDbSymbolTableRecord
100
AcDbLinetypeTableRecord
  2
BYBLOCK
 70
     0
  3

 72
    65
 73
     0
 40
0.0
  0
LTYPE
  5
A7
100
AcDbSymbolTableRecord
100
AcDbLinetypeTableRecord
  2
BYLAYER
 70
     0
  3

 72
    65
 73
     0
 40
0.0
  0
LTYPE
  5
5
100
AcDbSymbolTableRecord
100
AcDbLinetypeTableRecord
  2
CONTINUOUS
 70
     0
  3
Solid line
 72
    65
 73
     0
 40
0.0
  0
ENDTAB
  0
TABLE
  2
LAYER
  5
A3
100
AcDbSymbolTable
 70
     4
  0
LAYER
  5
58
100
AcDbSymbolTableRecord
100
AcDbLayerTableRecord
  2
0
 70
     0
 62
     7
  6
CONTINUOUS
  0
LAYER
  5
D
102
{ACAD_XDICTIONARY
360
E
102
}
100
AcDbSymbolTableRecord
100
AcDbLayerTableRecord
  2
USP-GEO
 70
     0
 62
     7
  6
CONTINUOUS
  0
LAYER
  5
8
102
{ACAD_XDICTIONARY
360
9
102
}
100
AcDbSymbolTableRecord
100
AcDbLayerTableRecord
  2
USP-TXT
 70
     0
 62
     7
  6
CONTINUOUS
  0
LAYER
  5
4
100
AcDbSymbolTableRecord
100
AcDbLayerTableRecord
  2
USP
 70
     0
 62
     7
  6
CONTINUOUS
  0
ENDTAB
  0
TABLE
  2
STYLE
  5
A4
100
AcDbSymbolTable
 70
     1
  0
STYLE
  5
B
100
AcDbSymbolTableRecord
100
AcDbTextStyleTableRecord
  2
STANDARD
 70
     0
 40
0.0
 41
1.0
 50
0.0
 71
     0
 42
0.75
  3
txt
  4

  0
ENDTAB
  0
TABLE
  2
VIEW
  5
A8
100
AcDbSymbolTable
 70
     0
  0
ENDTAB
  0
TABLE
  2
UCS
  5
A9
100
AcDbSymbolTable
 70
     0
  0
ENDTAB
  0
TABLE
  2
APPID
  5
AC
100
AcDbSymbolTable
 70
     1
  0
APPID
  5
AD
100
AcDbSymbolTableRecord
100
AcDbRegAppTableRecord
  2
ACAD
 70
     0
  0
ENDTAB
  0
TABLE
  2
DIMSTYLE
  5
AE
100
AcDbSymbolTable
 70
     1
  0
DIMSTYLE
105
B6
100
AcDbSymbolTableRecord
100
AcDbDimStyleTableRecord
  2
STANDARD
 70
     0
  3

  4

  5

  6

  7

 40
1.0
 41
0.18
 42
0.0625
 43
0.38
 44
0.18
 45
0.0
 46
0.0
 47
0.0
 48
0.0
140
0.18
141
0.09
142
0.0
143
25.4
144
1.0
145
0.0
146
1.0
147
0.09
 71
     0
 72
     0
 73
     1
 74
     1
 75
     0
 76
     0
 77
     0
 78
     0
170
     0
171
     2
172
     0
173
     0
174
     0
175
     0
176
     0
177
     0
178
     0
270
     2
271
     4
272
     4
273
     2
274
     2
340
B
275
     0
280
     0
281
     0
282
     0
283
     1
284
     0
285
     0
286
     0
287
     3
288
     0
  0
ENDTAB
  0
TABLE
  2
BLOCK_RECORD
  5
1
100
AcDbSymbolTable
 70
     3
  0
BLOCK_RECORD
  5
2
102
{ACAD_XDICTIONARY
360
9A
102
}
100
AcDbSymbolTableRecord
100
AcDbBlockTableRecord
  2
*MODEL_SPACE
  0
BLOCK_RECORD
  5
9E
102
{ACAD_XDICTIONARY
360
9F
102
}
100
AcDbSymbolTableRecord
100
AcDbBlockTableRecord
  2
*PAPER_SPACE
  0
BLOCK_RECORD
  5
6
100
AcDbSymbolTableRecord
100
AcDbBlockTableRecord
  2
PAU46_T
  0
BLOCK_RECORD
  5
5B
100
AcDbSymbolTableRecord
100
AcDbBlockTableRecord
  2
PAU46_F
  0
BLOCK_RECORD
  5
77
100
AcDbSymbolTableRecord
100
AcDbBlockTableRecord
  2
PAU46_S
  0
ENDTAB
  0
ENDSEC
  0
SECTION
  2
BLOCKS
  0
BLOCK
  5
9C
100
AcDbEntity
  8
0
100
AcDbBlockBegin
  2
*MODEL_SPACE
 70
     0
 10
0.0
 20
0.0
 30
0.0
  3
*MODEL_SPACE
  1

  0
ENDBLK
  5
9D
100
AcDbEntity
  8
0
100
AcDbBlockEnd
  0
BLOCK
  5
A1
100
AcDbEntity
 67
     1
  8
0
100
AcDbBlockBegin
  2
*PAPER_SPACE
 70
     0
 10
0.0
 20
0.0
 30
0.0
  3
*PAPER_SPACE
  1

  0
ENDBLK
  5
A2
100
AcDbEntity
 67
     1
  8
0
100
AcDbBlockEnd
  0
BLOCK
  5
57
100
AcDbEntity
  8
0
100
AcDbBlockBegin
  2
PAU46_T
 70
     0
 10
0.0
 20
0.0
 30
0.0
  3
PAU46_T
  1

  0
TEXT
  5
7
100
AcDbEntity
  8
USP-TXT
100
AcDbText
 10
-0.4587475326234212
 20
-1.000881084773528
 30
0.0
 40
0.296875
  1
PAU46 - TOP VIEW
 72
     1
 11
1.916252467376578
 21
-1.000881084773528
 31
0.0
100
AcDbText
  0
LWPOLYLINE
  5
C
100
AcDbEntity
  8
USP-GEO
100
AcDbPolyline
 90
        8
 70
   128
 43
0.0
 10
0.7795329340644513
 20
1.463710157539978
 10
0.7795329340644513
 20
1.74977728930675
 10
0.7795329340644513
 20
2.035844421073521
 10
3.037079382257219
 20
2.035844421073521
 10
3.180112948140606
 20
1.98816656577906
 10
3.037079382257219
 20
1.74977728930675
 10
3.180112948140606
 20
1.511388012834441
 10
3.291361277161017
 20
1.606743723423365
  0
LWPOLYLINE
  5
10
100
AcDbEntity
  8
USP-GEO
100
AcDbPolyline
 90
        3
 70
   128
 43
0.0
 10
2.401374644997727
 20
0.5252510391606542
 10
1.431130289755428
 20
0.5252510391606542
 10
2.401374644997727
 20
0.5252510391606542
  0
LWPOLYLINE
  5
11
100
AcDbEntity
  8
USP-GEO
100
AcDbPolyline
 90
       13
 70
   128
 43
0.0
 10
0.2860671317667709
 20
0.0953557105889242
 10
0.2860671317667709
 20
0.0
 10
1.224526250146094
 20
0.0
 10
1.224526250146094
 20
0.5252510391606542
 10
1.240418868577582
 20
0.5729288944551172
 10
1.272204105440557
 20
0.6047141313180902
 10
1.319881960735018
 20
0.6206067497495785
 10
1.36755981602948
 20
0.6047141313180902
 10
1.415237671323942
 20
0.5729288944551172
 10
1.431130289755428
 20
0.5252510391606542
 10
1.431130289755428
 20
0.3973154607871834
 10
2.401374644997727
 20
0.3973154607871834
 10
2.401374644997727
 20
0.5252510391606542
  0
LWPOLYLINE
  5
12
100
AcDbEntity
  8
USP-GEO
100
AcDbPolyline
 90
       13
 70
   128
 43
0.0
 10
1.431130289755428
 20
0.5252510391606542
 10
1.431130289755428
 20
0.3973154607871834
 10
2.401374644997727
 20
0.3973154607871834
 10
2.401374644997727
 20
0.5252510391606542
 10
2.417267263429216
 20
0.5729288944551172
 10
2.44905250029219
 20
0.6047141313180902
 10
2.51262297401814
 20
0.6206067497495785
 10
2.560300829312601
 20
0.6047141313180902
 10
2.592086066175576
 20
0.5729288944551172
 10
2.607978684607062
 20
0.5252510391606542
 10
2.607978684607062
 20
0.0
 10
3.546437802986386
 20
0.0
 10
3.546437802986386
 20
0.0953557105889242
  0
LWPOLYLINE
  5
13
100
AcDbEntity
  8
USP-GEO
100
AcDbPolyline
 90
        8
 70
   128
 43
0.0
 10
3.323146514023991
 20
1.74977728930675
 10
3.291361277161017
 20
1.892810855190136
 10
3.037079382257219
 20
1.74977728930675
 10
3.037079382257219
 20
1.463710157539978
 10
0.7795329340644513
 20
1.463710157539978
 10
0.6515973556909787
 20
1.511388012834441
 10
0.5403490266705671
 20
1.606743723423365
 10
0.5085637898075932
 20
1.74977728930675
  0
LWPOLYLINE
  5
14
100
AcDbEntity
  8
USP-GEO
100
AcDbPolyline
 90
        6
 70
   128
 43
0.0
 10
1.288096723872044
 20
0.858996026221888
 10
1.256311487009069
 20
1.002029592105273
 10
1.288096723872044
 20
1.145063157988658
 10
1.399345052892455
 20
1.240418868577583
 10
1.542378618775841
 20
1.272998736362131
 10
2.290126315977317
 20
1.272998736362131
  0
LWPOLYLINE
  5
15
100
AcDbEntity
  8
USP-GEO
100
AcDbPolyline
 90
        7
 70
   128
 43
0.0
 10
1.256311487009069
 20
4.008912999342667
 10
1.288096723872044
 20
3.865879433459282
 10
1.399345052892455
 20
3.753836473517296
 10
1.542378618775841
 20
3.722051236654323
 10
2.290126315977317
 20
3.722051236654323
 10
2.433159881860702
 20
3.753836473517296
 10
2.528515592449626
 20
3.865879433459282
  0
LWPOLYLINE
  5
16
100
AcDbEntity
  8
USP-GEO
100
AcDbPolyline
 90
        5
 70
   128
 43
0.0
 10
1.383452434460967
 20
2.783592118274999
 10
1.447022908186917
 20
2.815377355137972
 10
1.510593381912866
 20
2.83126997356946
 10
1.574163855638814
 20
2.847162592000946
 10
1.892016224268561
 20
2.847162592000946
  0
LWPOLYLINE
  5
17
100
AcDbEntity
  8
USP-GEO
100
AcDbPolyline
 90
        5
 70
   128
 43
0.0
 10
1.542378618775841
 20
3.722051236654323
 10
1.542378618775841
 20
4.008912999342667
 10
1.542378618775841
 20
4.279087512677952
 10
2.290126315977317
 20
4.279087512677952
 10
2.433159881860702
 20
4.247302275814977
  0
LWPOLYLINE
  5
18
100
AcDbEntity
  8
USP-GEO
100
AcDbPolyline
 90
        2
 70
   129
 43
0.0
 10
1.431130289755428
 20
4.612832499739184
 10
2.401374644997727
 20
4.612832499739184
  0
LWPOLYLINE
  5
19
100
AcDbEntity
  8
USP-GEO
100
AcDbPolyline
 90
        2
 70
   129
 43
0.0
 10
2.401374644997727
 20
4.469798933855798
 10
1.431130289755428
 20
4.469798933855798
  0
LWPOLYLINE
  5
1A
100
AcDbEntity
  8
USP-GEO
100
AcDbPolyline
 90
       10
 70
   128
 43
0.0
 10
3.180112948140606
 20
3.4995545786135
 10
3.037079382257219
 20
3.531339815476474
 10
0.7795329340644513
 20
3.531339815476474
 10
0.6515973556909787
 20
3.4995545786135
 10
0.5403490266705671
 20
3.388306249593089
 10
0.5085637898075932
 20
3.245272683709703
 10
0.5403490266705671
 20
3.118131736257804
 10
0.6515973556909787
 20
3.006883407237394
 10
0.7795329340644513
 20
3.245272683709703
 10
0.6515973556909787
 20
3.4995545786135
  0
LWPOLYLINE
  5
1B
100
AcDbEntity
  8
USP-GEO
100
AcDbPolyline
 90
        5
 70
   128
 43
0.0
 10
3.037079382257219
 20
2.035844421073521
 10
3.037079382257219
 20
1.74977728930675
 10
0.7795329340644513
 20
1.74977728930675
 10
0.6515973556909787
 20
1.98816656577906
 10
0.5403490266705671
 20
1.892810855190136
  0
LWPOLYLINE
  5
1C
100
AcDbEntity
  8
USP-GEO
100
AcDbPolyline
 90
        6
 70
   128
 43
0.0
 10
1.399345052892455
 20
0.7477476972014774
 10
1.542378618775841
 20
0.7159624603385027
 10
2.290126315977317
 20
0.7159624603385027
 10
2.290126315977317
 20
1.002029592105273
 10
1.542378618775841
 20
1.002029592105273
 10
1.256311487009069
 20
1.002029592105273
  0
LWPOLYLINE
  5
1D
100
AcDbEntity
  8
USP-GEO
100
AcDbPolyline
 90
        5
 70
   128
 43
0.0
 10
2.290126315977317
 20
3.722051236654323
 10
2.290126315977317
 20
4.008912999342667
 10
1.542378618775841
 20
4.008912999342667
 10
1.399345052892455
 20
4.247302275814977
 10
1.288096723872044
 20
4.136053946794566
  0
LWPOLYLINE
  5
1E
100
AcDbEntity
  8
USP-GEO
100
AcDbPolyline
 90
        3
 70
   128
 43
0.0
 10
0.7795329340644513
 20
2.975098170374419
 10
2.194770605388394
 20
2.975098170374419
 10
2.33780417127178
 20
3.054561262531857
  0
LWPOLYLINE
  5
1F
100
AcDbEntity
  8
USP-GEO
100
AcDbPolyline
 90
        3
 70
   128
 43
0.0
 10
3.037079382257219
 20
2.975098170374419
 10
3.037079382257219
 20
3.245272683709703
 10
0.7795329340644513
 20
3.245272683709703
  0
LWPOLYLINE
  5
20
100
AcDbEntity
  8
USP-GEO
100
AcDbPolyline
 90
        9
 70
   128
 43
0.0
 10
0.7795329340644513
 20
2.211457854741455
 10
1.383452434460967
 20
2.211457854741455
 10
1.447022908186917
 20
2.17967261787848
 10
1.510593381912866
 20
2.163779999446994
 10
1.574163855638814
 20
2.163779999446994
 10
2.083522276367982
 20
2.163779999446994
 10
2.131200131662445
 20
2.163779999446994
 10
2.194770605388394
 20
2.17967261787848
 10
2.242448460682855
 20
2.195565236309969
  0
LWPOLYLINE
  5
21
100
AcDbEntity
  8
USP-GEO
100
AcDbPolyline
 90
        2
 70
   128
 43
0.0
 10
2.083522276367982
 20
2.163779999446994
 10
1.574163855638814
 20
2.163779999446994
  0
LWPOLYLINE
  5
22
100
AcDbEntity
  8
USP-GEO
100
AcDbPolyline
 90
       24
 70
   128
 43
0.0
 10
1.510593381912866
 20
2.83126997356946
 10
1.574163855638814
 20
2.847162592000946
 10
1.892016224268561
 20
2.847162592000946
 10
1.955586697994509
 20
2.847162592000946
 10
2.003264553288972
 20
2.863055210432435
 10
2.067629657936495
 20
2.894840447295409
 10
2.194770605388394
 20
2.975098170374419
 10
2.33780417127178
 20
3.054561262531857
 10
2.496730355586652
 20
3.102239117826318
 10
2.655656539901525
 20
3.070453880963343
 10
2.782797487353422
 20
2.975098170374419
 10
2.814582724216397
 20
2.910733065726896
 10
2.846367961079372
 20
2.847162592000946
 10
2.846367961079372
 20
2.783592118274999
 10
2.846367961079372
 20
2.672343789254586
 10
2.814582724216397
 20
2.576988078665664
 10
2.751012250490448
 20
2.497524986508228
 10
3.037079382257219
 20
2.497524986508228
 10
3.037079382257219
 20
2.211457854741455
 10
2.27423369754583
 20
2.211457854741455
 10
2.6874417767645
 20
2.449847131213765
 10
2.27423369754583
 20
2.211457854741455
 10
2.242448460682855
 20
2.195565236309969
 10
2.27423369754583
 20
2.211457854741455
  0
LWPOLYLINE
  5
23
100
AcDbEntity
  8
USP-GEO
100
AcDbPolyline
 90
        2
 70
   128
 43
0.0
 10
0.7795329340644513
 20
2.035844421073521
 10
0.6515973556909787
 20
1.98816656577906
  0
LWPOLYLINE
  5
24
100
AcDbEntity
  8
USP-GEO
100
AcDbPolyline
 90
        4
 70
   128
 43
0.0
 10
0.1271409474518981
 20
0.3655302239242069
 10
0.1271409474518981
 20
4.629519749092246
 10
0.0
 20
4.629519749092246
 10
0.0
 20
0.3655302239242069
  0
LWPOLYLINE
  5
25
100
AcDbEntity
  8
USP-GEO
100
AcDbPolyline
 90
        5
 70
   128
 43
0.0
 10
0.1271409474518981
 20
4.629519749092246
 10
0.1271409474518981
 20
4.995049973016454
 10
0.1271409474518981
 20
4.629519749092246
 10
0.1271409474518981
 20
0.3655302239242069
 10
0.1271409474518981
 20
0.0
  0
LWPOLYLINE
  5
26
100
AcDbEntity
  8
USP-GEO
100
AcDbPolyline
 90
        8
 70
   128
 43
0.0
 10
0.1271409474518981
 20
0.0
 10
0.0
 20
0.0
 10
0.0
 20
0.3655302239242069
 10
0.0
 20
4.629519749092246
 10
0.0
 20
4.995049973016454
 10
0.1271409474518981
 20
4.995049973016454
 10
0.0
 20
4.995049973016454
 10
0.0
 20
4.629519749092246
  0
LWPOLYLINE
  5
27
100
AcDbEntity
  8
USP-GEO
100
AcDbPolyline
 90
        4
 70
   128
 43
0.0
 10
0.5403490266705671
 20
1.892810855190136
 10
0.7795329340644513
 20
1.74977728930675
 10
0.5085637898075932
 20
1.74977728930675
 10
0.5403490266705671
 20
1.892810855190136
  0
LWPOLYLINE
  5
28
100
AcDbEntity
  8
USP-GEO
100
AcDbPolyline
 90
        3
 70
   128
 43
0.0
 10
0.6515973556909787
 20
1.511388012834441
 10
0.7795329340644513
 20
1.74977728930675
 10
0.5403490266705671
 20
1.606743723423365
  0
LWPOLYLINE
  5
29
100
AcDbEntity
  8
USP-GEO
100
AcDbPolyline
 90
        4
 70
   128
 43
0.0
 10
0.2860671317667709
 20
0.0953557105889242
 10
0.2860671317667709
 20
0.0
 10
1.224526250146094
 20
0.0
 10
1.224526250146094
 20
0.5252510391606542
  0
LWPOLYLINE
  5
2A
100
AcDbEntity
  8
USP-GEO
100
AcDbPolyline
 90
        2
 70
   129
 43
0.0
 10
0.2860671317667709
 20
0.0953557105889242
 10
0.1271409474518981
 20
0.0953557105889242
  0
LWPOLYLINE
  5
2B
100
AcDbEntity
  8
USP-GEO
100
AcDbPolyline
 90
        4
 70
   129
 43
0.0
 10
0.1271409474518981
 20
0.3655302239242069
 10
0.0
 20
0.3655302239242069
 10
0.0
 20
0.0
 10
0.1271409474518981
 20
0.0
  0
LWPOLYLINE
  5
2C
100
AcDbEntity
  8
USP-GEO
100
AcDbPolyline
 90
        6
 70
   128
 43
0.0
 10
1.399345052892455
 20
1.240418868577583
 10
1.542378618775841
 20
1.002029592105273
 10
1.399345052892455
 20
0.7477476972014774
 10
1.288096723872044
 20
0.858996026221888
 10
1.542378618775841
 20
1.002029592105273
 10
1.288096723872044
 20
1.145063157988658
  0
LWPOLYLINE
  5
2D
100
AcDbEntity
  8
USP-GEO
100
AcDbPolyline
 90
        3
 70
   128
 43
0.0
 10
1.542378618775841
 20
0.7159624603385027
 10
1.542378618775841
 20
1.002029592105273
 10
1.542378618775841
 20
1.272998736362131
  0
LWPOLYLINE
  5
2E
100
AcDbEntity
  8
USP-GEO
100
AcDbPolyline
 90
       12
 70
   128
 43
0.0
 10
1.431130289755428
 20
4.469798933855798
 10
1.431130289755428
 20
4.612832499739184
 10
1.431130289755428
 20
4.469798933855798
 10
1.415237671323942
 20
4.422121078561337
 10
1.36755981602948
 20
4.390335841698362
 10
1.319881960735018
 20
4.374443223266876
 10
1.272204105440557
 20
4.390335841698362
 10
1.240418868577582
 20
4.422121078561337
 10
1.224526250146094
 20
4.469798933855798
 10
1.224526250146094
 20
4.995049973016454
 10
0.2860671317667709
 20
4.995049973016454
 10
0.2860671317667709
 20
4.915586880859017
  0
LWPOLYLINE
  5
2F
100
AcDbEntity
  8
USP-GEO
100
AcDbPolyline
 90
        4
 70
   128
 43
0.0
 10
1.224526250146094
 20
4.469798933855798
 10
1.224526250146094
 20
4.995049973016454
 10
0.2860671317667709
 20
4.995049973016454
 10
0.2860671317667709
 20
4.915586880859017
  0
LWPOLYLINE
  5
30
100
AcDbEntity
  8
USP-GEO
100
AcDbPolyline
 90
        3
 70
   128
 43
0.0
 10
0.5403490266705671
 20
3.118131736257804
 10
0.7795329340644513
 20
3.245272683709703
 10
0.5403490266705671
 20
3.388306249593089
  0
LWPOLYLINE
  5
31
100
AcDbEntity
  8
USP-GEO
100
AcDbPolyline
 90
        4
 70
   128
 43
0.0
 10
0.6515973556909787
 20
3.006883407237394
 10
0.7795329340644513
 20
2.975098170374419
 10
0.7795329340644513
 20
3.245272683709703
 10
0.7795329340644513
 20
3.531339815476474
  0
LWPOLYLINE
  5
32
100
AcDbEntity
  8
USP-GEO
100
AcDbPolyline
 90
        9
 70
   128
 43
0.0
 10
0.5403490266705671
 20
2.354491420624841
 10
0.5085637898075932
 20
2.497524986508228
 10
0.5403490266705671
 20
2.640558552391613
 10
0.7795329340644513
 20
2.497524986508228
 10
0.6515973556909787
 20
2.259135710035916
 10
0.5403490266705671
 20
2.354491420624841
 10
0.7795329340644513
 20
2.497524986508228
 10
0.6515973556909787
 20
2.751806881412024
 10
0.5403490266705671
 20
2.640558552391613
  0
LWPOLYLINE
  5
33
100
AcDbEntity
  8
USP-GEO
100
AcDbPolyline
 90
        2
 70
   128
 43
0.0
 10
0.7795329340644513
 20
2.783592118274999
 10
0.6515973556909787
 20
2.751806881412024
  0
LWPOLYLINE
  5
34
100
AcDbEntity
  8
USP-GEO
100
AcDbPolyline
 90
        4
 70
   128
 43
0.0
 10
0.6515973556909787
 20
2.259135710035916
 10
0.7795329340644513
 20
2.211457854741455
 10
0.7795329340644513
 20
2.497524986508228
 10
1.240418868577582
 20
2.497524986508228
  0
LWPOLYLINE
  5
35
100
AcDbEntity
  8
USP-GEO
100
AcDbPolyline
 90
        9
 70
   128
 43
0.0
 10
0.7795329340644513
 20
2.497524986508228
 10
0.7795329340644513
 20
2.783592118274999
 10
1.383452434460967
 20
2.783592118274999
 10
1.303989342303531
 20
2.704129026117561
 10
1.256311487009069
 20
2.608773315528637
 10
1.240418868577582
 20
2.497524986508228
 10
1.256311487009069
 20
2.386276657487815
 10
1.303989342303531
 20
2.290920946898893
 10
1.383452434460967
 20
2.211457854741455
  0
LWPOLYLINE
  5
36
100
AcDbEntity
  8
USP-GEO
100
AcDbPolyline
 90
        3
 70
   128
 43
0.0
 10
1.399345052892455
 20
3.753836473517296
 10
1.542378618775841
 20
4.008912999342667
 10
1.288096723872044
 20
3.865879433459282
  0
LWPOLYLINE
  5
37
100
AcDbEntity
  8
USP-GEO
100
AcDbPolyline
 90
        3
 70
   129
 43
0.0
 10
1.288096723872044
 20
4.136053946794566
 10
1.542378618775841
 20
4.008912999342667
 10
1.256311487009069
 20
4.008912999342667
  0
LWPOLYLINE
  5
38
100
AcDbEntity
  8
USP-GEO
100
AcDbPolyline
 90
        2
 70
   128
 43
0.0
 10
1.542378618775841
 20
4.279087512677952
 10
1.399345052892455
 20
4.247302275814977
  0
LWPOLYLINE
  5
39
100
AcDbEntity
  8
USP-GEO
100
AcDbPolyline
 90
        2
 70
   129
 43
0.0
 10
0.1271409474518981
 20
4.915586880859017
 10
0.2860671317667709
 20
4.915586880859017
  0
LWPOLYLINE
  5
3A
100
AcDbEntity
  8
USP-GEO
100
AcDbPolyline
 90
        4
 70
   128
 43
0.0
 10
3.832504934753159
 20
0.3655302239242069
 10
3.832504934753159
 20
4.629519749092246
 10
3.689471368869772
 20
4.629519749092246
 10
3.689471368869772
 20
0.3655302239242069
  0
LWPOLYLINE
  5
3B
100
AcDbEntity
  8
USP-GEO
100
AcDbPolyline
 90
        4
 70
   128
 43
0.0
 10
3.832504934753159
 20
4.629519749092246
 10
3.832504934753159
 20
4.995049973016454
 10
3.832504934753159
 20
4.629519749092246
 10
3.832504934753159
 20
0.3655302239242069
  0
LWPOLYLINE
  5
3C
100
AcDbEntity
  8
USP-GEO
100
AcDbPolyline
 90
        9
 70
   128
 43
0.0
 10
3.832504934753159
 20
0.3655302239242069
 10
3.832504934753159
 20
0.0
 10
3.689471368869772
 20
0.0
 10
3.689471368869772
 20
0.3655302239242069
 10
3.689471368869772
 20
4.629519749092246
 10
3.689471368869772
 20
4.995049973016454
 10
3.832504934753159
 20
4.995049973016454
 10
3.689471368869772
 20
4.995049973016454
 10
3.689471368869772
 20
4.629519749092246
  0
LWPOLYLINE
  5
3D
100
AcDbEntity
  8
USP-GEO
100
AcDbPolyline
 90
        4
 70
   128
 43
0.0
 10
2.607978684607062
 20
0.5252510391606542
 10
2.607978684607062
 20
0.0
 10
3.546437802986386
 20
0.0
 10
3.546437802986386
 20
0.0953557105889242
  0
LWPOLYLINE
  5
3E
100
AcDbEntity
  8
USP-GEO
100
AcDbPolyline
 90
        6
 70
   128
 43
0.0
 10
2.528515592449626
 20
1.145063157988658
 10
2.433159881860702
 20
1.240418868577583
 10
2.290126315977317
 20
1.002029592105273
 10
2.528515592449626
 20
0.858996026221888
 10
2.433159881860702
 20
0.7477476972014774
 10
2.290126315977317
 20
0.7159624603385027
  0
LWPOLYLINE
  5
3F
100
AcDbEntity
  8
USP-GEO
100
AcDbPolyline
 90
        4
 70
   128
 43
0.0
 10
2.576193447744087
 20
1.002029592105273
 10
2.290126315977317
 20
1.002029592105273
 10
2.528515592449626
 20
1.145063157988658
 10
2.576193447744087
 20
1.002029592105273
  0
LWPOLYLINE
  5
40
100
AcDbEntity
  8
USP-GEO
100
AcDbPolyline
 90
        2
 70
   128
 43
0.0
 10
2.528515592449626
 20
0.858996026221888
 10
2.576193447744087
 20
1.002029592105273
  0
LWPOLYLINE
  5
41
100
AcDbEntity
  8
USP-GEO
100
AcDbPolyline
 90
        3
 70
   128
 43
0.0
 10
2.290126315977317
 20
1.002029592105273
 10
2.290126315977317
 20
1.272998736362131
 10
2.433159881860702
 20
1.240418868577583
  0
LWPOLYLINE
  5
42
100
AcDbEntity
  8
USP-GEO
100
AcDbPolyline
 90
        4
 70
   129
 43
0.0
 10
3.832504934753159
 20
0.3655302239242069
 10
3.689471368869772
 20
0.3655302239242069
 10
3.689471368869772
 20
0.0
 10
3.832504934753159
 20
0.0
  0
LWPOLYLINE
  5
43
100
AcDbEntity
  8
USP-GEO
100
AcDbPolyline
 90
        2
 70
   129
 43
0.0
 10
3.689471368869772
 20
0.0953557105889242
 10
3.546437802986386
 20
0.0953557105889242
  0
LWPOLYLINE
  5
44
100
AcDbEntity
  8
USP-GEO
100
AcDbPolyline
 90
        4
 70
   128
 43
0.0
 10
3.291361277161017
 20
1.606743723423365
 10
3.037079382257219
 20
1.74977728930675
 10
3.323146514023991
 20
1.74977728930675
 10
3.291361277161017
 20
1.606743723423365
  0
LWPOLYLINE
  5
45
100
AcDbEntity
  8
USP-GEO
100
AcDbPolyline
 90
        2
 70
   128
 43
0.0
 10
3.180112948140606
 20
1.511388012834441
 10
3.037079382257219
 20
1.463710157539978
  0
LWPOLYLINE
  5
46
100
AcDbEntity
  8
USP-GEO
100
AcDbPolyline
 90
        2
 70
   128
 43
0.0
 10
3.291361277161017
 20
1.892810855190136
 10
3.180112948140606
 20
1.98816656577906
  0
LWPOLYLINE
  5
47
100
AcDbEntity
  8
USP-GEO
100
AcDbPolyline
 90
       11
 70
   128
 43
0.0
 10
3.546437802986386
 20
4.915586880859017
 10
3.546437802986386
 20
4.995049973016454
 10
2.607978684607062
 20
4.995049973016454
 10
2.607978684607062
 20
4.469798933855798
 10
2.592086066175576
 20
4.422121078561337
 10
2.560300829312601
 20
4.390335841698362
 10
2.51262297401814
 20
4.374443223266876
 10
2.44905250029219
 20
4.390335841698362
 10
2.417267263429216
 20
4.422121078561337
 10
2.401374644997727
 20
4.469798933855798
 10
2.401374644997727
 20
4.612832499739184
  0
LWPOLYLINE
  5
48
100
AcDbEntity
  8
USP-GEO
100
AcDbPolyline
 90
        4
 70
   128
 43
0.0
 10
3.546437802986386
 20
4.915586880859017
 10
3.546437802986386
 20
4.995049973016454
 10
2.607978684607062
 20
4.995049973016454
 10
2.607978684607062
 20
4.469798933855798
  0
LWPOLYLINE
  5
49
100
AcDbEntity
  8
USP-GEO
100
AcDbPolyline
 90
        2
 70
   128
 43
0.0
 10
2.401374644997727
 20
4.469798933855798
 10
2.401374644997727
 20
4.612832499739184
  0
LWPOLYLINE
  5
4A
100
AcDbEntity
  8
USP-GEO
100
AcDbPolyline
 90
        4
 70
   128
 43
0.0
 10
2.782797487353422
 20
2.975098170374419
 10
3.037079382257219
 20
2.975098170374419
 10
3.180112948140606
 20
3.006883407237394
 10
3.291361277161017
 20
3.118131736257804
  0
LWPOLYLINE
  5
4B
100
AcDbEntity
  8
USP-GEO
100
AcDbPolyline
 90
        2
 70
   128
 43
0.0
 10
2.067629657936495
 20
2.894840447295409
 10
2.194770605388394
 20
2.975098170374419
  0
LWPOLYLINE
  5
4C
100
AcDbEntity
  8
USP-GEO
100
AcDbPolyline
 90
        4
 70
   128
 43
0.0
 10
2.751012250490448
 20
2.497524986508228
 10
2.719227013627473
 20
2.48163236807674
 10
2.703334395195986
 20
2.465739749645251
 10
2.6874417767645
 20
2.449847131213765
  0
LWPOLYLINE
  5
4D
100
AcDbEntity
  8
USP-GEO
100
AcDbPolyline
 90
        8
 70
   128
 43
0.0
 10
2.576193447744087
 20
4.008912999342667
 10
2.528515592449626
 20
4.136053946794566
 10
2.290126315977317
 20
4.008912999342667
 10
2.528515592449626
 20
3.865879433459282
 10
2.576193447744087
 20
4.008912999342667
 10
2.290126315977317
 20
4.008912999342667
 10
2.433159881860702
 20
4.247302275814977
 10
2.528515592449626
 20
4.136053946794566
  0
LWPOLYLINE
  5
4E
100
AcDbEntity
  8
USP-GEO
100
AcDbPolyline
 90
        2
 70
   128
 43
0.0
 10
2.290126315977317
 20
4.008912999342667
 10
2.290126315977317
 20
4.279087512677952
  0
LWPOLYLINE
  5
4F
100
AcDbEntity
  8
USP-GEO
100
AcDbPolyline
 90
        8
 70
   128
 43
0.0
 10
3.323146514023991
 20
3.245272683709703
 10
3.291361277161017
 20
3.388306249593089
 10
3.037079382257219
 20
3.245272683709703
 10
3.291361277161017
 20
3.118131736257804
 10
3.323146514023991
 20
3.245272683709703
 10
3.037079382257219
 20
3.245272683709703
 10
3.180112948140606
 20
3.4995545786135
 10
3.291361277161017
 20
3.388306249593089
  0
LWPOLYLINE
  5
50
100
AcDbEntity
  8
USP-GEO
100
AcDbPolyline
 90
        2
 70
   128
 43
0.0
 10
3.037079382257219
 20
3.245272683709703
 10
3.037079382257219
 20
3.531339815476474
  0
LWPOLYLINE
  5
51
100
AcDbEntity
  8
USP-GEO
100
AcDbPolyline
 90
        3
 70
   128
 43
0.0
 10
3.180112948140606
 20
2.751806881412024
 10
3.291361277161017
 20
2.640558552391613
 10
3.323146514023991
 20
2.497524986508228
  0
LWPOLYLINE
  5
52
100
AcDbEntity
  8
USP-GEO
100
AcDbPolyline
 90
        6
 70
   128
 43
0.0
 10
2.846367961079372
 20
2.783592118274999
 10
3.037079382257219
 20
2.783592118274999
 10
3.180112948140606
 20
2.751806881412024
 10
3.037079382257219
 20
2.497524986508228
 10
3.180112948140606
 20
2.259135710035916
 10
3.291361277161017
 20
2.354491420624841
  0
LWPOLYLINE
  5
53
100
AcDbEntity
  8
USP-GEO
100
AcDbPolyline
 90
        2
 70
   128
 43
0.0
 10
3.037079382257219
 20
2.497524986508228
 10
3.037079382257219
 20
2.783592118274999
  0
LWPOLYLINE
  5
54
100
AcDbEntity
  8
USP-GEO
100
AcDbPolyline
 90
        4
 70
   128
 43
0.0
 10
3.291361277161017
 20
2.354491420624841
 10
3.037079382257219
 20
2.497524986508228
 10
3.323146514023991
 20
2.497524986508228
 10
3.291361277161017
 20
2.354491420624841
  0
LWPOLYLINE
  5
55
100
AcDbEntity
  8
USP-GEO
100
AcDbPolyline
 90
        2
 70
   128
 43
0.0
 10
3.180112948140606
 20
2.259135710035916
 10
3.037079382257219
 20
2.211457854741455
  0
LWPOLYLINE
  5
56
100
AcDbEntity
  8
USP-GEO
100
AcDbPolyline
 90
        2
 70
   129
 43
0.0
 10
3.546437802986386
 20
4.915586880859017
 10
3.689471368869772
 20
4.915586880859017
  0
ENDBLK
  5
59
100
AcDbEntity
  8
0
100
AcDbBlockEnd
  0
BLOCK
  5
74
100
AcDbEntity
  8
0
100
AcDbBlockBegin
  2
PAU46_F
 70
     0
 10
0.0
 20
0.0
 30
0.0
  3
PAU46_F
  1

  0
TEXT
  5
5C
100
AcDbEntity
  8
USP-TXT
100
AcDbText
 10
-0.7556225326234208
 20
-1.113185474654986
 30
0.0
 40
0.296875
  1
PAU46 - FRONT VIEW
 72
     1
 11
1.916252467376578
 21
-1.113185474654986
 31
0.0
100
AcDbText
  0
LWPOLYLINE
  5
5D
100
AcDbEntity
  8
USP-GEO
100
AcDbPolyline
 90
       52
 70
   129
 43
0.0
 10
2.401374644997727
 20
0.7636403156329639
 10
2.401374644997727
 20
0.0
 10
2.417267263429216
 20
0.0
 10
2.44905250029219
 20
0.0
 10
2.51262297401814
 20
0.0
 10
2.560300829312601
 20
0.0
 10
2.592086066175576
 20
0.0
 10
2.607978684607062
 20
0.0
 10
2.607978684607062
 20
0.1438281968049608
 10
3.546437802986386
 20
0.1438281968049608
 10
3.546437802986386
 20
0.0
 10
3.832504934753159
 20
0.0
 10
3.832504934753159
 20
0.2868617626883463
 10
3.832504934753159
 20
5.74279767021793
 10
3.832504934753159
 20
6.109122525063712
 10
3.832504934753159
 20
5.74279767021793
 10
3.832504934753159
 20
0.2868617626883463
 10
3.832504934753159
 20
0.0
 10
3.546437802986386
 20
0.0
 10
2.607978684607062
 20
0.0
 10
2.592086066175576
 20
0.0
 10
2.560300829312601
 20
0.0
 10
2.51262297401814
 20
0.0
 10
2.44905250029219
 20
0.0
 10
2.417267263429216
 20
0.0
 10
2.401374644997727
 20
0.0
 10
1.431130289755428
 20
0.0
 10
1.415237671323942
 20
0.0
 10
1.36755981602948
 20
0.0
 10
1.319881960735018
 20
0.0
 10
1.272204105440557
 20
0.0
 10
1.240418868577582
 20
0.0
 10
1.224526250146094
 20
0.0
 10
0.2860671317667709
 20
0.0
 10
0.0
 20
0.0
 10
0.0
 20
0.2868617626883463
 10
0.0
 20
0.0
 10
0.2860671317667709
 20
0.0
 10
0.2860671317667709
 20
0.1438281968049608
 10
1.224526250146094
 20
0.1438281968049608
 10
1.224526250146094
 20
0.0
 10
1.240418868577582
 20
0.0
 10
1.272204105440557
 20
0.0
 10
1.319881960735018
 20
0.0
 10
1.36755981602948
 20
0.0
 10
1.415237671323942
 20
0.0
 10
1.431130289755428
 20
0.0
 10
1.431130289755428
 20
0.7636403156329639
 10
1.431130289755428
 20
0.0
 10
2.401374644997727
 20
0.0
 10
2.401374644997727
 20
0.7636403156329639
 10
1.431130289755428
 20
0.7636403156329639
  0
LWPOLYLINE
  5
5E
100
AcDbEntity
  8
USP-GEO
100
AcDbPolyline
 90
        5
 70
   128
 43
0.0
 10
0.1271409474518981
 20
5.74279767021793
 10
0.1271409474518981
 20
6.109122525063712
 10
0.1271409474518981
 20
5.74279767021793
 10
0.1271409474518981
 20
0.2868617626883463
 10
0.1271409474518981
 20
0.1438281968049608
  0
LWPOLYLINE
  5
5F
100
AcDbEntity
  8
USP-GEO
100
AcDbPolyline
 90
       10
 70
   128
 43
0.0
 10
0.1271409474518981
 20
0.1438281968049608
 10
0.1271409474518981
 20
0.2868617626883463
 10
0.1271409474518981
 20
5.74279767021793
 10
0.0
 20
5.74279767021793
 10
0.0
 20
0.2868617626883463
 10
0.0
 20
5.74279767021793
 10
0.0
 20
6.109122525063712
 10
0.1271409474518981
 20
6.109122525063712
 10
0.0
 20
6.109122525063712
 10
0.0
 20
5.74279767021793
  0
LWPOLYLINE
  5
60
100
AcDbEntity
  8
USP-GEO
100
AcDbPolyline
 90
        3
 70
   128
 43
0.0
 10
1.431130289755428
 20
0.270969144256858
 10
0.7795329340644513
 20
0.270969144256858
 10
0.5085637898075932
 20
0.1438281968049608
  0
LWPOLYLINE
  5
61
100
AcDbEntity
  8
USP-GEO
100
AcDbPolyline
 90
        3
 70
   128
 43
0.0
 10
0.6515973556909787
 20
0.1438281968049608
 10
0.7795329340644513
 20
0.270969144256858
 10
0.5403490266705671
 20
0.1438281968049608
  0
LWPOLYLINE
  5
62
100
AcDbEntity
  8
USP-GEO
100
AcDbPolyline
 90
       18
 70
   129
 43
0.0
 10
1.224526250146094
 20
0.0
 10
0.2860671317667709
 20
0.0
 10
0.2860671317667709
 20
0.1438281968049608
 10
0.1271409474518981
 20
0.1438281968049608
 10
0.2860671317667709
 20
0.1438281968049608
 10
1.224526250146094
 20
0.1438281968049608
 10
1.240418868577582
 20
0.1438281968049608
 10
1.272204105440557
 20
0.1438281968049608
 10
1.319881960735018
 20
0.1438281968049608
 10
1.36755981602948
 20
0.1438281968049608
 10
1.415237671323942
 20
0.1438281968049608
 10
1.431130289755428
 20
0.1438281968049608
 10
1.415237671323942
 20
0.1438281968049608
 10
1.36755981602948
 20
0.1438281968049608
 10
1.319881960735018
 20
0.1438281968049608
 10
1.272204105440557
 20
0.1438281968049608
 10
1.240418868577582
 20
0.1438281968049608
 10
1.224526250146094
 20
0.1438281968049608
  0
LWPOLYLINE
  5
63
100
AcDbEntity
  8
USP-GEO
100
AcDbPolyline
 90
        2
 70
   129
 43
0.0
 10
0.1271409474518981
 20
0.2868617626883463
 10
0.0
 20
0.2868617626883463
  0
LWPOLYLINE
  5
64
100
AcDbEntity
  8
USP-GEO
100
AcDbPolyline
 90
        2
 70
   128
 43
0.0
 10
0.7795329340644513
 20
0.1438281968049608
 10
0.7795329340644513
 20
0.270969144256858
  0
LWPOLYLINE
  5
65
100
AcDbEntity
  8
USP-GEO
100
AcDbPolyline
 90
        2
 70
   128
 43
0.0
 10
1.431130289755428
 20
0.2232912889623968
 10
1.256311487009069
 20
0.1438281968049608
  0
LWPOLYLINE
  5
66
100
AcDbEntity
  8
USP-GEO
100
AcDbPolyline
 90
        2
 70
   128
 43
0.0
 10
1.288096723872044
 20
0.1438281968049608
 10
1.431130289755428
 20
0.2073986705309085
  0
LWPOLYLINE
  5
67
100
AcDbEntity
  8
USP-GEO
100
AcDbPolyline
 90
        2
 70
   128
 43
0.0
 10
1.399345052892455
 20
0.1438281968049608
 10
1.431130289755428
 20
0.1597208152364473
  0
LWPOLYLINE
  5
68
100
AcDbEntity
  8
USP-GEO
100
AcDbPolyline
 90
        3
 70
   128
 43
0.0
 10
3.832504934753159
 20
5.74279767021793
 10
3.689471368869772
 20
5.74279767021793
 10
3.689471368869772
 20
0.2868617626883463
  0
LWPOLYLINE
  5
69
100
AcDbEntity
  8
USP-GEO
100
AcDbPolyline
 90
        4
 70
   128
 43
0.0
 10
3.689471368869772
 20
0.1438281968049608
 10
3.689471368869772
 20
0.2868617626883463
 10
3.689471368869772
 20
5.74279767021793
 10
3.689471368869772
 20
6.109122525063712
  0
LWPOLYLINE
  5
6A
100
AcDbEntity
  8
USP-GEO
100
AcDbPolyline
 90
       18
 70
   129
 43
0.0
 10
2.417267263429216
 20
0.1438281968049608
 10
2.44905250029219
 20
0.1438281968049608
 10
2.51262297401814
 20
0.1438281968049608
 10
2.560300829312601
 20
0.1438281968049608
 10
2.592086066175576
 20
0.1438281968049608
 10
2.607978684607062
 20
0.1438281968049608
 10
2.607978684607062
 20
0.0
 10
3.546437802986386
 20
0.0
 10
3.546437802986386
 20
0.1438281968049608
 10
3.689471368869772
 20
0.1438281968049608
 10
3.546437802986386
 20
0.1438281968049608
 10
2.607978684607062
 20
0.1438281968049608
 10
2.592086066175576
 20
0.1438281968049608
 10
2.560300829312601
 20
0.1438281968049608
 10
2.51262297401814
 20
0.1438281968049608
 10
2.44905250029219
 20
0.1438281968049608
 10
2.417267263429216
 20
0.1438281968049608
 10
2.401374644997727
 20
0.1438281968049608
  0
LWPOLYLINE
  5
6B
100
AcDbEntity
  8
USP-GEO
100
AcDbPolyline
 90
        2
 70
   128
 43
0.0
 10
3.037079382257219
 20
0.270969144256858
 10
2.401374644997727
 20
0.270969144256858
  0
LWPOLYLINE
  5
6C
100
AcDbEntity
  8
USP-GEO
100
AcDbPolyline
 90
        2
 70
   128
 43
0.0
 10
2.576193447744087
 20
0.1438281968049608
 10
2.401374644997727
 20
0.2232912889623968
  0
LWPOLYLINE
  5
6D
100
AcDbEntity
  8
USP-GEO
100
AcDbPolyline
 90
        2
 70
   128
 43
0.0
 10
2.528515592449626
 20
0.1438281968049608
 10
2.401374644997727
 20
0.2073986705309085
  0
LWPOLYLINE
  5
6E
100
AcDbEntity
  8
USP-GEO
100
AcDbPolyline
 90
        3
 70
   128
 43
0.0
 10
3.291361277161017
 20
0.1438281968049608
 10
3.037079382257219
 20
0.270969144256858
 10
3.323146514023991
 20
0.1438281968049608
  0
LWPOLYLINE
  5
6F
100
AcDbEntity
  8
USP-GEO
100
AcDbPolyline
 90
        3
 70
   128
 43
0.0
 10
3.037079382257219
 20
0.1438281968049608
 10
3.037079382257219
 20
0.270969144256858
 10
3.180112948140606
 20
0.1438281968049608
  0
LWPOLYLINE
  5
70
100
AcDbEntity
  8
USP-GEO
100
AcDbPolyline
 90
        2
 70
   129
 43
0.0
 10
3.832504934753159
 20
0.2868617626883463
 10
3.689471368869772
 20
0.2868617626883463
  0
LWPOLYLINE
  5
71
100
AcDbEntity
  8
USP-GEO
100
AcDbPolyline
 90
        2
 70
   128
 43
0.0
 10
3.689471368869772
 20
0.2868617626883463
 10
3.689471368869772
 20
0.1438281968049608
  0
LWPOLYLINE
  5
72
100
AcDbEntity
  8
USP-GEO
100
AcDbPolyline
 90
        2
 70
   128
 43
0.0
 10
3.689471368869772
 20
6.109122525063712
 10
3.689471368869772
 20
5.74279767021793
  0
LWPOLYLINE
  5
73
100
AcDbEntity
  8
USP-GEO
100
AcDbPolyline
 90
        2
 70
   129
 43
0.0
 10
3.689471368869772
 20
6.109122525063712
 10
3.832504934753159
 20
6.109122525063712
  0
ENDBLK
  5
75
100
AcDbEntity
  8
0
100
AcDbBlockEnd
  0
BLOCK
  5
98
100
AcDbEntity
  8
0
100
AcDbBlockBegin
  2
PAU46_S
 70
     0
 10
0.0
 20
0.0
 30
0.0
  3
PAU46_S
  1

  0
TEXT
  5
78
100
AcDbEntity
  8
USP-TXT
100
AcDbText
 10
0.0307183314690631
 20
-1.113185474654986
 30
0.0
 40
0.296875
  1
PAU46 - SIDE VIEW
 72
     1
 11
2.504676664802396
 21
-1.113185474654986
 31
0.0
100
AcDbText
  0
LWPOLYLINE
  5
79
100
AcDbEntity
  8
USP-GEO
100
AcDbPolyline
 90
       12
 70
   129
 43
0.0
 10
2.258341079114343
 20
3.213487446846729
 10
2.369589408134755
 20
3.118131736257804
 10
2.496730355586651
 20
3.070453880963343
 10
2.639763921470036
 20
3.118131736257804
 10
2.751012250490449
 20
3.213487446846729
 10
2.782797487353422
 20
3.356521012730114
 10
2.751012250490449
 20
3.500349209535075
 10
2.639763921470036
 20
3.595704920123997
 10
2.496730355586651
 20
3.64338277541846
 10
2.369589408134755
 20
3.595704920123997
 10
2.258341079114343
 20
3.500349209535075
 10
2.22655584225137
 20
3.356521012730114
  0
LWPOLYLINE
  5
7A
100
AcDbEntity
  8
USP-GEO
100
AcDbPolyline
 90
       12
 70
   129
 43
0.0
 10
2.258341079114343
 20
5.504408393745622
 10
2.369589408134755
 20
5.599764104334544
 10
2.496730355586651
 20
5.647441959629007
 10
2.639763921470036
 20
5.599764104334544
 10
2.751012250490449
 20
5.504408393745622
 10
2.782797487353422
 20
5.361374827862235
 10
2.751012250490449
 20
5.218341261978849
 10
2.639763921470036
 20
5.122190920468352
 10
2.496730355586651
 20
5.07451306517389
 10
2.369589408134755
 20
5.122190920468352
 10
2.258341079114343
 20
5.218341261978849
 10
2.22655584225137
 20
5.361374827862235
  0
LWPOLYLINE
  5
7B
100
AcDbEntity
  8
USP-GEO
100
AcDbPolyline
 90
       10
 70
   129
 43
0.0
 10
0.0
 20
0.2868617626883463
 10
0.0953557105889242
 20
0.2868617626883463
 10
0.0953557105889242
 20
0.0
 10
4.913997619015868
 20
0.0
 10
4.913997619015868
 20
0.2868617626883463
 10
5.009353329604794
 20
0.2868617626883463
 10
5.009353329604794
 20
5.74279767021793
 10
4.627135856327521
 20
6.109122525063712
 10
0.3814228423556951
 20
6.109122525063712
 10
0.0
 20
5.74279767021793
  0
LWPOLYLINE
  5
7C
100
AcDbEntity
  8
USP-GEO
100
AcDbPolyline
 90
       12
 70
   128
 43
0.0
 10
0.0
 20
0.1438281968049608
 10
0.0
 20
0.0
 10
0.0953557105889242
 20
0.0
 10
0.0953557105889242
 20
0.2868617626883463
 10
0.0
 20
0.2868617626883463
 10
0.0
 20
5.74279767021793
 10
0.3814228423556951
 20
6.109122525063712
 10
4.627135856327521
 20
6.109122525063712
 10
5.009353329604794
 20
5.74279767021793
 10
5.009353329604794
 20
0.2868617626883463
 10
4.913997619015868
 20
0.2868617626883463
 10
4.913997619015868
 20
0.0
  0
LWPOLYLINE
  5
7D
100
AcDbEntity
  8
USP-GEO
100
AcDbPolyline
 90
        4
 70
   128
 43
0.0
 10
0.0
 20
0.1438281968049608
 10
0.0
 20
0.0
 10
0.0953557105889242
 20
0.0
 10
4.913997619015868
 20
0.0
  0
LWPOLYLINE
  5
7E
100
AcDbEntity
  8
USP-GEO
100
AcDbPolyline
 90
        2
 70
   128
 43
0.0
 10
2.496730355586651
 20
0.270969144256858
 10
2.21066322381988
 20
0.1438281968049608
  0
LWPOLYLINE
  5
7F
100
AcDbEntity
  8
USP-GEO
100
AcDbPolyline
 90
        2
 70
   128
 43
0.0
 10
4.293390869266291
 20
0.1438281968049608
 10
0.7151678294169273
 20
0.1438281968049608
  0
LWPOLYLINE
  5
80
100
AcDbEntity
  8
USP-GEO
100
AcDbPolyline
 90
        2
 70
   128
 43
0.0
 10
0.7151678294169273
 20
0.1438281968049608
 10
0.0953557105889242
 20
0.1438281968049608
  0
LWPOLYLINE
  5
81
100
AcDbEntity
  8
USP-GEO
100
AcDbPolyline
 90
        2
 70
   129
 43
0.0
 10
0.0
 20
0.1438281968049608
 10
0.0953557105889242
 20
0.1438281968049608
  0
LWPOLYLINE
  5
82
100
AcDbEntity
  8
USP-GEO
100
AcDbPolyline
 90
        2
 70
   128
 43
0.0
 10
1.478808145049891
 20
0.1438281968049608
 10
1.288096723872044
 20
0.1438281968049608
  0
LWPOLYLINE
  5
83
100
AcDbEntity
  8
USP-GEO
100
AcDbPolyline
 90
        2
 70
   128
 43
0.0
 10
1.002029592105273
 20
0.270969144256858
 10
0.7151678294169273
 20
0.1438281968049608
  0
LWPOLYLINE
  5
84
100
AcDbEntity
  8
USP-GEO
100
AcDbPolyline
 90
        2
 70
   128
 43
0.0
 10
1.288096723872044
 20
0.1438281968049608
 10
1.002029592105273
 20
0.270969144256858
  0
LWPOLYLINE
  5
85
100
AcDbEntity
  8
USP-GEO
100
AcDbPolyline
 90
        2
 70
   128
 43
0.0
 10
2.035049790151946
 20
0.1438281968049608
 10
1.748982658385175
 20
0.270969144256858
  0
LWPOLYLINE
  5
86
100
AcDbEntity
  8
USP-GEO
100
AcDbPolyline
 90
        2
 70
   128
 43
0.0
 10
1.748982658385175
 20
0.270969144256858
 10
1.478808145049891
 20
0.1438281968049608
  0
LWPOLYLINE
  5
87
100
AcDbEntity
  8
USP-GEO
100
AcDbPolyline
 90
        2
 70
   128
 43
0.0
 10
2.21066322381988
 20
0.1438281968049608
 10
2.035049790151946
 20
0.1438281968049608
  0
LWPOLYLINE
  5
88
100
AcDbEntity
  8
USP-GEO
100
AcDbPolyline
 90
       12
 70
   129
 43
0.0
 10
1.733090039953689
 20
4.310872749540926
 10
1.717197421522202
 20
4.359345235756963
 10
1.733090039953689
 20
4.407023091051424
 10
1.764875276816662
 20
4.438808327914399
 10
1.796660513679638
 20
4.454700946345885
 10
1.844338368974097
 20
4.438808327914399
 10
1.876123605837074
 20
4.407023091051424
 10
1.89201622426856
 20
4.359345235756963
 10
1.876123605837074
 20
4.310872749540926
 10
1.844338368974097
 20
4.279087512677952
 10
1.796660513679638
 20
4.263194894246463
 10
1.764875276816662
 20
4.279087512677952
  0
LWPOLYLINE
  5
89
100
AcDbEntity
  8
USP-GEO
100
AcDbPolyline
 90
       12
 70
   129
 43
0.0
 10
0.4291006976501564
 20
3.070453880963343
 10
0.4132080792186699
 20
3.102239117826318
 10
0.4291006976501564
 20
3.149916973120779
 10
0.4608859345131311
 20
3.181702209983754
 10
0.5085637898075924
 20
3.197594828415242
 10
0.5562416451020554
 20
3.181702209983754
 10
0.5880268819650301
 20
3.149916973120779
 10
0.5880268819650301
 20
3.102239117826318
 10
0.5880268819650301
 20
3.070453880963343
 10
0.5562416451020554
 20
3.022776025668882
 10
0.5085637898075924
 20
3.022776025668882
 10
0.4608859345131311
 20
3.022776025668882
  0
LWPOLYLINE
  5
8A
100
AcDbEntity
  8
USP-GEO
100
AcDbPolyline
 90
       12
 70
   129
 43
0.0
 10
0.4291006976501564
 20
5.663334578060494
 10
0.4608859345131311
 20
5.695119814923469
 10
0.5085637898075924
 20
5.695119814923469
 10
0.5562416451020554
 20
5.695119814923469
 10
0.5880268819650301
 20
5.663334578060494
 10
0.5880268819650301
 20
5.615656722766033
 10
0.5880268819650301
 20
5.56797886747157
 10
0.5562416451020554
 20
5.536193630608595
 10
0.5085637898075924
 20
5.520301012177109
 10
0.4608859345131311
 20
5.536193630608595
 10
0.4291006976501564
 20
5.56797886747157
 10
0.4132080792186699
 20
5.615656722766033
  0
LWPOLYLINE
  5
8B
100
AcDbEntity
  8
USP-GEO
100
AcDbPolyline
 90
        2
 70
   128
 43
0.0
 10
4.913997619015868
 20
0.1438281968049608
 10
4.293390869266291
 20
0.1438281968049608
  0
LWPOLYLINE
  5
8C
100
AcDbEntity
  8
USP-GEO
100
AcDbPolyline
 90
        2
 70
   128
 43
0.0
 10
3.530545184554901
 20
0.1438281968049608
 10
3.259576040298041
 20
0.270969144256858
  0
LWPOLYLINE
  5
8D
100
AcDbEntity
  8
USP-GEO
100
AcDbPolyline
 90
        2
 70
   128
 43
0.0
 10
3.259576040298041
 20
0.270969144256858
 10
2.97350890853127
 20
0.1438281968049608
  0
LWPOLYLINE
  5
8E
100
AcDbEntity
  8
USP-GEO
100
AcDbPolyline
 90
        2
 70
   128
 43
0.0
 10
2.782797487353422
 20
0.1438281968049608
 10
2.496730355586651
 20
0.270969144256858
  0
LWPOLYLINE
  5
8F
100
AcDbEntity
  8
USP-GEO
100
AcDbPolyline
 90
        2
 70
   128
 43
0.0
 10
2.97350890853127
 20
0.1438281968049608
 10
2.782797487353422
 20
0.1438281968049608
  0
LWPOLYLINE
  5
90
100
AcDbEntity
  8
USP-GEO
100
AcDbPolyline
 90
        2
 70
   128
 43
0.0
 10
4.293390869266291
 20
0.1438281968049608
 10
4.00732373749952
 20
0.270969144256858
  0
LWPOLYLINE
  5
91
100
AcDbEntity
  8
USP-GEO
100
AcDbPolyline
 90
        2
 70
   128
 43
0.0
 10
4.00732373749952
 20
0.270969144256858
 10
3.721256605732749
 20
0.1438281968049608
  0
LWPOLYLINE
  5
92
100
AcDbEntity
  8
USP-GEO
100
AcDbPolyline
 90
        2
 70
   128
 43
0.0
 10
3.721256605732749
 20
0.1438281968049608
 10
3.530545184554901
 20
0.1438281968049608
  0
LWPOLYLINE
  5
93
100
AcDbEntity
  8
USP-GEO
100
AcDbPolyline
 90
        4
 70
   129
 43
0.0
 10
5.009353329604794
 20
0.1438281968049608
 10
5.009353329604794
 20
0.0
 10
5.009353329604794
 20
0.1438281968049608
 10
4.913997619015868
 20
0.1438281968049608
  0
LWPOLYLINE
  5
94
100
AcDbEntity
  8
USP-GEO
100
AcDbPolyline
 90
        2
 70
   129
 43
0.0
 10
5.009353329604794
 20
0.0
 10
4.913997619015868
 20
0.0
  0
LWPOLYLINE
  5
95
100
AcDbEntity
  8
USP-GEO
100
AcDbPolyline
 90
       12
 70
   129
 43
0.0
 10
4.420531816718186
 20
4.359345235756963
 10
4.420531816718186
 20
4.407023091051424
 10
4.452317053581163
 20
4.438808327914399
 10
4.499994908875626
 20
4.454700946345885
 10
4.547672764170085
 20
4.438808327914399
 10
4.579458001033062
 20
4.407023091051424
 10
4.595350619464548
 20
4.359345235756963
 10
4.579458001033062
 20
4.310872749540926
 10
4.547672764170085
 20
4.279087512677952
 10
4.499994908875626
 20
4.263194894246463
 10
4.452317053581163
 20
4.279087512677952
 10
4.420531816718186
 20
4.310872749540926
  0
LWPOLYLINE
  5
96
100
AcDbEntity
  8
USP-GEO
100
AcDbPolyline
 90
       12
 70
   129
 43
0.0
 10
3.132435092846142
 20
3.070453880963343
 10
3.116542474414655
 20
3.102239117826318
 10
3.132435092846142
 20
3.149916973120779
 10
3.164220329709118
 20
3.181702209983754
 10
3.211898185003581
 20
3.197594828415242
 10
3.243683421866554
 20
3.181702209983754
 10
3.275468658729527
 20
3.149916973120779
 10
3.291361277161017
 20
3.102239117826318
 10
3.275468658729527
 20
3.070453880963343
 10
3.243683421866554
 20
3.022776025668882
 10
3.211898185003581
 20
3.022776025668882
 10
3.164220329709118
 20
3.022776025668882
  0
LWPOLYLINE
  5
97
100
AcDbEntity
  8
USP-GEO
100
AcDbPolyline
 90
       12
 70
   129
 43
0.0
 10
3.164220329709118
 20
5.695119814923469
 10
3.211898185003581
 20
5.695119814923469
 10
3.243683421866554
 20
5.695119814923469
 10
3.275468658729527
 20
5.663334578060494
 10
3.291361277161017
 20
5.615656722766033
 10
3.275468658729527
 20
5.56797886747157
 10
3.243683421866554
 20
5.536193630608595
 10
3.211898185003581
 20
5.520301012177109
 10
3.164220329709118
 20
5.536193630608595
 10
3.132435092846142
 20
5.56797886747157
 10
3.116542474414655
 20
5.615656722766033
 10
3.132435092846142
 20
5.663334578060494
  0
ENDBLK
  5
99
100
AcDbEntity
  8
0
100
AcDbBlockEnd
  0
ENDSEC
  0
SECTION
  2
ENTITIES
  0
INSERT
  5
3
100
AcDbEntity
  8
USP
100
AcDbBlockReference
  2
PAU46_T
 10
0.8063136715027328
 20
10.92937182734515
 30
0.0
  0
INSERT
  5
5A
100
AcDbEntity
  8
USP
100
AcDbBlockReference
  2
PAU46_F
 10
0.8063136715027328
 20
1.114090684058609
 30
0.0
  0
INSERT
  5
76
100
AcDbEntity
  8
USP
100
AcDbBlockReference
  2
PAU46_S
 10
8.550786633166486
 20
1.114090684058609
 30
0.0
  0
ENDSEC
  0
SECTION
  2
OBJECTS
  0
DICTIONARY
  5
B2
102
{ACAD_XDICTIONARY
360
B3
102
}
100
AcDbDictionary
  3
ACAD_GROUP
350
B0
  3
ACAD_MLINESTYLE
350
B1
  0
DICTIONARY
  5
E
100
AcDbDictionary
280
     1
  3
ACAD_XREC_ROUNDTRIP
360
F
  0
DICTIONARY
  5
9
100
AcDbDictionary
280
     1
  3
ACAD_XREC_ROUNDTRIP
360
A
  0
DICTIONARY
  5
9A
100
AcDbDictionary
280
     1
  3
ACAD_LAYOUTSELFREF
360
9B
  0
DICTIONARY
  5
9F
100
AcDbDictionary
280
     1
  3
ACAD_LAYOUTSELFREF
360
A0
  0
DICTIONARY
  5
B3
100
AcDbDictionary
280
     1
  3
ACAD_XREC_ROUNDTRIP
360
B4
  0
DICTIONARY
  5
B0
102
{ACAD_REACTORS
330
B2
102
}
100
AcDbDictionary
  0
DICTIONARY
  5
B1
102
{ACAD_REACTORS
330
B2
102
}
100
AcDbDictionary
  3
STANDARD
350
B5
  0
XRECORD
  5
F
102
{ACAD_REACTORS
330
E
102
}
100
AcDbXrecord
102
EXTNAMES
  1
USP-GEO
  2
USP-Geo
  0
XRECORD
  5
A
102
{ACAD_REACTORS
330
9
102
}
100
AcDbXrecord
102
EXTNAMES
  1
USP-TXT
  2
USP-Txt
  0
XRECORD
  5
9B
102
{ACAD_REACTORS
330
9A
102
}
100
AcDbXrecord
340
18
  0
XRECORD
  5
A0
102
{ACAD_REACTORS
330
9F
102
}
100
AcDbXrecord
340
15
  0
XRECORD
  5
B4
102
{ACAD_REACTORS
330
B3
102
}
100
AcDbXrecord
102
EXTNAMES
  1
ACDBVARIABLEDICTIONARY
  2
AcDbVariableDictionary
  0
MLINESTYLE
  5
B5
102
{ACAD_REACTORS
330
B1
102
}
100
AcDbMlineStyle
  2
STANDARD
 70
     0
  3

 62
     0
 51
90.0
 52
90.0
 71
     2
 49
0.5
 62
   256
  6
BYLAYER
 49
-0.5
 62
   256
  6
BYLAYER
  0
ENDSEC
  0
EOF
