  0
SECTION
  2
HEADER
  9
$ACADVER
  1
AC1014
  9
$ACADMAINTVER
 70
     9
  9
$DWGCODEPAGE
  3
ANSI_1252
  9
$INSBASE
 10
0.0
 20
0.0
 30
0.0
  9
$EXTMIN
 10
0.0269766543460763
 20
0.0004189717508964
 30
0.0
  9
$EXTMAX
 10
12.70330391443953
 20
22.94637562200832
 30
4.196879291630274
  9
$LIMMIN
 10
0.0
 20
0.0
  9
$LIMMAX
 10
12.0
 20
9.0
  9
$ORTHOMODE
 70
     1
  9
$REGENMODE
 70
     1
  9
$FILLMODE
 70
     1
  9
$QTEXTMODE
 70
     0
  9
$MIRRTEXT
 70
     0
  9
$DRAGMODE
 70
     2
  9
$LTSCALE
 40
1.5
  9
$OSMODE
 70
     0
  9
$ATTMODE
 70
     1
  9
$TEXTSIZE
 40
0.75
  9
$TRACEWID
 40
0.05
  9
$TEXTSTYLE
  7
STANDARD
  9
$CLAYER
  8
USP
  9
$CELTYPE
  6
BYLAYER
  9
$CECOLOR
 62
   256
  9
$CELTSCALE
 40
1.0
  9
$DELOBJ
 70
     1
  9
$DISPSILH
 70
     1
  9
$DIMSCALE
 40
3.0
  9
$DIMASZ
 40
0.125
  9
$DIMEXO
 40
0.0625
  9
$DIMDLI
 40
0.37890625
  9
$DIMRND
 40
0.0
  9
$DIMDLE
 40
0.0
  9
$DIMEXE
 40
0.09375
  9
$DIMTP
 40
0.0
  9
$DIMTM
 40
0.0
  9
$DIMTXT
 40
0.109375
  9
$DIMCEN
 40
0.0
  9
$DIMTSZ
 40
0.0
  9
$DIMTOL
 70
     0
  9
$DIMLIM
 70
     0
  9
$DIMTIH
 70
     1
  9
$DIMTOH
 70
     1
  9
$DIMSE1
 70
     0
  9
$DIMSE2
 70
     0
  9
$DIMTAD
 70
     0
  9
$DIMZIN
 70
     8
  9
$DIMBLK
  1

  9
$DIMASO
 70
     1
  9
$DIMSHO
 70
     1
  9
$DIMPOST
  1

  9
$DIMAPOST
  1

  9
$DIMALT
 70
     0
  9
$DIMALTD
 70
     2
  9
$DIMALTF
 40
25.4
  9
$DIMLFAC
 40
1.0
  9
$DIMTOFL
 70
     0
  9
$DIMTVP
 40
0.0
  9
$DIMTIX
 70
     0
  9
$DIMSOXD
 70
     0
  9
$DIMSAH
 70
     0
  9
$DIMBLK1
  1

  9
$DIMBLK2
  1

  9
$DIMSTYLE
  2
STANDARD
  9
$DIMCLRD
 70
     0
  9
$DIMCLRE
 70
     0
  9
$DIMCLRT
 70
   256
  9
$DIMTFAC
 40
1.0
  9
$DIMGAP
 40
0.08984375
  9
$DIMJUST
 70
     0
  9
$DIMSD1
 70
     0
  9
$DIMSD2
 70
     0
  9
$DIMTOLJ
 70
     1
  9
$DIMTZIN
 70
     0
  9
$DIMALTZ
 70
     0
  9
$DIMALTTZ
 70
     0
  9
$DIMFIT
 70
     3
  9
$DIMUPT
 70
     1
  9
$DIMUNIT
 70
     7
  9
$DIMDEC
 70
     4
  9
$DIMTDEC
 70
     4
  9
$DIMALTU
 70
     2
  9
$DIMALTTD
 70
     2
  9
$DIMTXSTY
  7
STANDARD
  9
$DIMAUNIT
 70
     0
  9
$LUNITS
 70
     5
  9
$LUPREC
 70
     6
  9
$SKETCHINC
 40
0.1
  9
$FILLETRAD
 40
0.0
  9
$AUNITS
 70
     0
  9
$AUPREC
 70
     1
  9
$MENU
  1
CUSTOM
  9
$ELEVATION
 40
0.0
  9
$PELEVATION
 40
0.0
  9
$THICKNESS
 40
0.0
  9
$LIMCHECK
 70
     0
  9
$BLIPMODE
 70
     0
  9
$CHAMFERA
 40
0.0
  9
$CHAMFERB
 40
0.0
  9
$CHAMFERC
 40
0.0
  9
$CHAMFERD
 40
0.0
  9
$SKPOLY
 70
     0
  9
$TDCREATE
 40
2451263.663231366
  9
$TDUPDATE
 40
2452768.667267974
  9
$TDINDWG
 40
0.6366184606
  9
$TDUSRTIMER
 40
0.6366184606
  9
$USRTIMER
 70
     1
  9
$ANGBASE
 50
0.0
  9
$ANGDIR
 70
     0
  9
$PDMODE
 70
     0
  9
$PDSIZE
 40
0.0
  9
$PLINEWID
 40
0.0
  9
$COORDS
 70
     2
  9
$SPLFRAME
 70
     0
  9
$SPLINETYPE
 70
     6
  9
$SPLINESEGS
 70
     8
  9
$ATTDIA
 70
     0
  9
$ATTREQ
 70
     0
  9
$HANDLING
 70
     1
  9
$HANDSEED
  5
D2
  9
$SURFTAB1
 70
     6
  9
$SURFTAB2
 70
     6
  9
$SURFTYPE
 70
     6
  9
$SURFU
 70
     6
  9
$SURFV
 70
     6
  9
$UCSNAME
  2

  9
$UCSORG
 10
0.0
 20
0.0
 30
0.0
  9
$UCSXDIR
 10
1.0
 20
0.0
 30
0.0
  9
$UCSYDIR
 10
0.0
 20
1.0
 30
0.0
  9
$PUCSNAME
  2

  9
$PUCSORG
 10
0.0
 20
0.0
 30
0.0
  9
$PUCSXDIR
 10
1.0
 20
0.0
 30
0.0
  9
$PUCSYDIR
 10
0.0
 20
1.0
 30
0.0
  9
$USERI1
 70
     0
  9
$USERI2
 70
     0
  9
$USERI3
 70
     0
  9
$USERI4
 70
     0
  9
$USERI5
 70
     0
  9
$USERR1
 40
0.0
  9
$USERR2
 40
0.0
  9
$USERR3
 40
0.0
  9
$USERR4
 40
0.0
  9
$USERR5
 40
0.0
  9
$WORLDVIEW
 70
     1
  9
$SHADEDGE
 70
     3
  9
$SHADEDIF
 70
    70
  9
$TILEMODE
 70
     1
  9
$MAXACTVP
 70
    16
  9
$PINSBASE
 10
0.0
 20
0.0
 30
0.0
  9
$PLIMCHECK
 70
     0
  9
$PEXTMIN
 10
1.000000000000000E+20
 20
1.000000000000000E+20
 30
1.000000000000000E+20
  9
$PEXTMAX
 10
-1.000000000000000E+20
 20
-1.000000000000000E+20
 30
-1.000000000000000E+20
  9
$PLIMMIN
 10
0.0
 20
0.0
  9
$PLIMMAX
 10
12.0
 20
9.0
  9
$UNITMODE
 70
     0
  9
$VISRETAIN
 70
     0
  9
$PLINEGEN
 70
     0
  9
$PSLTSCALE
 70
     0
  9
$TREEDEPTH
 70
  3020
  9
$PICKSTYLE
 70
     0
  9
$CMLSTYLE
  2
STANDARD
  9
$CMLJUST
 70
     0
  9
$CMLSCALE
 40
1.0
  9
$PROXYGRAPHICS
 70
     1
  9
$MEASUREMENT
 70
     0
  0
ENDSEC
  0
SECTION
  2
CLASSES
  0
CLASS
  1
ACDBDICTIONARYWDFLT
  2
AcDbDictionaryWithDefault
  3
AutoCAD 2000
 90
        0
280
     0
281
     0
  0
CLASS
  1
ACDBPLACEHOLDER
  2
AcDbPlaceHolder
  3
AutoCAD 2000
 90
        0
280
     0
281
     0
  0
CLASS
  1
LAYOUT
  2
AcDbLayout
  3
AutoCAD 2000
 90
        0
280
     0
281
     0
  0
CLASS
  1
DICTIONARYVAR
  2
AcDbDictionaryVar
  3
"AutoCAD"
 90
        0
280
     0
281
     0
  0
CLASS
  1
LONG_TRANSACTION
  2
AcDbLongTransaction
  3
AutoCAD 2000
 90
        0
280
     0
281
     0
  0
CLASS
  1
LWPOLYLINE
  2
AcDbPolyline
  3
"AutoCAD"
 90
        0
280
     0
281
     1
  0
CLASS
  1
HATCH
  2
AcDbHatch
  3
"ACAD_SEDONA"
 90
        0
280
     0
281
     1
  0
CLASS
  1
XRECORD
  2
AcDbXrecord
  3
"<Built In>"
 90
        0
280
     0
281
     0
  0
CLASS
  1
LONG_TRANSACTION
  2
AcDbLongTransaction
  3
AutoCAD 2000
 90
        0
280
     0
281
     0
  0
CLASS
  1
LWPOLYLINE
  2
AcDbPolyline
  3
"AutoCAD"
 90
        0
280
     0
281
     1
  0
CLASS
  1
HATCH
  2
AcDbHatch
  3
"ACAD_SEDONA"
 90
        0
280
     0
281
     1
  0
CLASS
  1
XRECORD
  2
AcDbXrecord
  3
"<Built In>"
 90
        0
280
     0
281
     0
  0
ENDSEC
  0
SECTION
  2
TABLES
  0
TABLE
  2
VPORT
  5
C2
100
AcDbSymbolTable
 70
     1
  0
VPORT
  5
C3
100
AcDbSymbolTableRecord
100
AcDbViewportTableRecord
  2
*ACTIVE
 70
     0
 10
0.0
 20
0.0
 11
1.0
 21
1.0
 12
-9.752384437350077
 22
0.4276480445158839
 13
0.0
 23
0.0
 14
1.0
 24
1.0
 15
0.0
 25
0.0
 16
0.0
 26
0.0
 36
1.0
 17
18.06596660309899
 27
8.119903606830565
 37
5.823974399722915
 40
34.74430220769244
 41
1.457627118644067
 42
50.0
 43
10.55307667737539
 44
10.55307667737539
 50
0.0
 51
0.0
 71
     0
 72
   100
 73
     1
 74
     1
 75
     0
 76
     0
 77
     0
 78
     0
  0
ENDTAB
  0
TABLE
  2
LTYPE
  5
BD
100
AcDbSymbolTable
 70
     1
  0
LTYPE
  5
BE
100
AcDbSymbolTableRecord
100
AcDbLinetypeTableRecord
  2
BYBLOCK
 70
     0
  3

 72
    65
 73
     0
 40
0.0
  0
LTYPE
  5
BF
100
AcDbSymbolTableRecord
100
AcDbLinetypeTableRecord
  2
BYLAYER
 70
     0
  3

 72
    65
 73
     0
 40
0.0
  0
LTYPE
  5
5
100
AcDbSymbolTableRecord
100
AcDbLinetypeTableRecord
  2
CONTINUOUS
 70
     0
  3
Solid line
 72
    65
 73
     0
 40
0.0
  0
ENDTAB
  0
TABLE
  2
LAYER
  5
BB
100
AcDbSymbolTable
 70
     4
  0
LAYER
  5
3D
100
AcDbSymbolTableRecord
100
AcDbLayerTableRecord
  2
0
 70
     0
 62
     7
  6
CONTINUOUS
  0
LAYER
  5
8
102
{ACAD_XDICTIONARY
360
9
102
}
100
AcDbSymbolTableRecord
100
AcDbLayerTableRecord
  2
USP-GEO
 70
     0
 62
     7
  6
CONTINUOUS
  0
LAYER
  5
38
102
{ACAD_XDICTIONARY
360
39
102
}
100
AcDbSymbolTableRecord
100
AcDbLayerTableRecord
  2
USP-TXT
 70
     0
 62
     7
  6
CONTINUOUS
  0
LAYER
  5
4
100
AcDbSymbolTableRecord
100
AcDbLayerTableRecord
  2
USP
 70
     0
 62
     7
  6
CONTINUOUS
  0
ENDTAB
  0
TABLE
  2
STYLE
  5
BC
100
AcDbSymbolTable
 70
     1
  0
STYLE
  5
3B
100
AcDbSymbolTableRecord
100
AcDbTextStyleTableRecord
  2
STANDARD
 70
     0
 40
0.0
 41
1.0
 50
0.0
 71
     0
 42
0.75
  3
txt
  4

  0
ENDTAB
  0
TABLE
  2
VIEW
  5
C0
100
AcDbSymbolTable
 70
     0
  0
ENDTAB
  0
TABLE
  2
UCS
  5
C1
100
AcDbSymbolTable
 70
     0
  0
ENDTAB
  0
TABLE
  2
APPID
  5
C4
100
AcDbSymbolTable
 70
     1
  0
APPID
  5
C5
100
AcDbSymbolTableRecord
100
AcDbRegAppTableRecord
  2
ACAD
 70
     0
  0
ENDTAB
  0
TABLE
  2
DIMSTYLE
  5
C6
100
AcDbSymbolTable
 70
     1
  0
DIMSTYLE
105
CE
100
AcDbSymbolTableRecord
100
AcDbDimStyleTableRecord
  2
STANDARD
 70
     0
  3

  4

  5

  6

  7

 40
1.0
 41
0.18
 42
0.0625
 43
0.38
 44
0.18
 45
0.0
 46
0.0
 47
0.0
 48
0.0
140
0.18
141
0.09
142
0.0
143
25.4
144
1.0
145
0.0
146
1.0
147
0.09
 71
     0
 72
     0
 73
     1
 74
     1
 75
     0
 76
     0
 77
     0
 78
     0
170
     0
171
     2
172
     0
173
     0
174
     0
175
     0
176
     0
177
     0
178
     0
270
     2
271
     4
272
     4
273
     2
274
     2
340
3B
275
     0
280
     0
281
     0
282
     0
283
     1
284
     0
285
     0
286
     0
287
     3
288
     0
  0
ENDTAB
  0
TABLE
  2
BLOCK_RECORD
  5
1
100
AcDbSymbolTable
 70
     3
  0
BLOCK_RECORD
  5
2
102
{ACAD_XDICTIONARY
360
B2
102
}
100
AcDbSymbolTableRecord
100
AcDbBlockTableRecord
  2
*MODEL_SPACE
  0
BLOCK_RECORD
  5
B6
102
{ACAD_XDICTIONARY
360
B7
102
}
100
AcDbSymbolTableRecord
100
AcDbBlockTableRecord
  2
*PAPER_SPACE
  0
BLOCK_RECORD
  5
6
100
AcDbSymbolTableRecord
100
AcDbBlockTableRecord
  2
MUGT15_T
  0
BLOCK_RECORD
  5
40
100
AcDbSymbolTableRecord
100
AcDbBlockTableRecord
  2
MUGT15_F
  0
BLOCK_RECORD
  5
88
100
AcDbSymbolTableRecord
100
AcDbBlockTableRecord
  2
MUGT15_S
  0
ENDTAB
  0
ENDSEC
  0
SECTION
  2
BLOCKS
  0
BLOCK
  5
B4
100
AcDbEntity
  8
0
100
AcDbBlockBegin
  2
*MODEL_SPACE
 70
     0
 10
0.0
 20
0.0
 30
0.0
  3
*MODEL_SPACE
  1

  0
ENDBLK
  5
B5
100
AcDbEntity
  8
0
100
AcDbBlockEnd
  0
BLOCK
  5
B9
100
AcDbEntity
 67
     1
  8
0
100
AcDbBlockBegin
  2
*PAPER_SPACE
 70
     0
 10
0.0
 20
0.0
 30
0.0
  3
*PAPER_SPACE
  1

  0
ENDBLK
  5
BA
100
AcDbEntity
 67
     1
  8
0
100
AcDbBlockEnd
  0
BLOCK
  5
3C
100
AcDbEntity
  8
0
100
AcDbBlockBegin
  2
MUGT15_T
 70
     0
 10
0.0
 20
0.0
 30
0.0
  3
MUGT15_T
  1

  0
LWPOLYLINE
  5
7
100
AcDbEntity
  8
USP-GEO
100
AcDbPolyline
 90
        2
 70
   128
 43
0.0
 10
1.535444426262541
 20
0.8942446658546217
 10
1.489644443376262
 20
0.9400446487409013
  0
LWPOLYLINE
  5
B
100
AcDbEntity
  8
USP-GEO
100
AcDbPolyline
 90
        2
 70
   128
 43
0.0
 10
1.489644443376262
 20
1.352244494717421
 10
1.535444426262541
 20
1.420944469046844
  0
LWPOLYLINE
  5
C
100
AcDbEntity
  8
USP-GEO
100
AcDbPolyline
 90
       16
 70
   128
 43
0.0
 10
0.0469449824584363
 20
2.452589083560305
 10
0.0698449739015761
 20
2.452589083560305
 10
0.3217448797761175
 20
2.452589083560305
 10
1.718644357807662
 20
2.452589083560305
 10
0.3217448797761175
 20
2.452589083560305
 10
0.0698449739015761
 20
2.452589083560305
 10
0.0469449824584363
 20
2.452589083560305
 10
0.0
 20
2.452589083560305
 10
-0.1144999572157008
 20
2.452589083560305
 10
-0.1144999572157008
 20
2.360989117787742
 10
-0.1144999572157008
 20
1.787344332137084
 10
-0.1144999572157008
 20
0.0686999743294194
 10
-0.1144999572157008
 20
0.0228999914431398
 10
-0.1144999572157008
 20
0.0
 10
0.0
 20
0.0
 10
0.0
 20
0.0228999914431398
  0
LWPOLYLINE
  5
D
100
AcDbEntity
  8
USP-GEO
100
AcDbPolyline
 90
        5
 70
   128
 43
0.0
 10
1.718644357807662
 20
2.360989117787742
 10
0.3217448797761175
 20
2.360989117787742
 10
0.0698449739015761
 20
2.360989117787742
 10
0.0469449824584363
 20
2.360989117787742
 10
0.0
 20
2.360989117787742
  0
LWPOLYLINE
  5
E
100
AcDbEntity
  8
USP-GEO
100
AcDbPolyline
 90
        7
 70
   128
 43
0.0
 10
0.0480899820305929
 20
2.360989117787742
 10
0.0469449824584363
 20
2.360989117787742
 10
0.0698449739015761
 20
2.360989117787742
 10
0.0698449739015761
 20
2.452589083560305
 10
0.0698449739015761
 20
2.360989117787742
 10
0.3217448797761175
 20
2.360989117787742
 10
1.718644357807662
 20
2.360989117787742
  0
LWPOLYLINE
  5
F
100
AcDbEntity
  8
USP-GEO
100
AcDbPolyline
 90
        2
 70
   128
 43
0.0
 10
0.0
 20
0.0
 10
3.505988689944746
 20
0.0
  0
LWPOLYLINE
  5
10
100
AcDbEntity
  8
USP-GEO
100
AcDbPolyline
 90
        2
 70
   128
 43
0.0
 10
0.0
 20
0.0
 10
3.505988689944746
 20
0.0
  0
LWPOLYLINE
  5
11
100
AcDbEntity
  8
USP-GEO
100
AcDbPolyline
 90
        2
 70
   129
 43
0.0
 10
0.0
 20
2.315189134901462
 10
3.505988689944746
 20
2.315189134901462
  0
LWPOLYLINE
  5
12
100
AcDbEntity
  8
USP-GEO
100
AcDbPolyline
 90
       12
 70
   129
 43
0.0
 10
1.512544434819401
 20
1.398044477603704
 10
1.649944383478242
 20
1.489644443376263
 10
1.833144315023362
 20
1.489644443376263
 10
1.994589254697501
 20
1.398044477603704
 10
2.08618922047006
 20
1.237744537501722
 10
2.08618922047006
 20
1.0545446059566
 10
1.994589254697501
 20
0.9171446572977615
 10
1.833144315023362
 20
0.8255446915252022
 10
1.649944383478242
 20
0.8255446915252022
 10
1.512544434819401
 20
0.9171446572977615
 10
1.42094446904684
 20
1.0545446059566
 10
1.42094446904684
 20
1.237744537501722
  0
LWPOLYLINE
  5
13
100
AcDbEntity
  8
USP-GEO
100
AcDbPolyline
 90
        8
 70
   128
 43
0.0
 10
-0.1144999572157008
 20
0.0686999743294194
 10
-0.1144999572157008
 20
0.0228999914431398
 10
-0.1144999572157008
 20
0.0
 10
0.0
 20
0.0
 10
0.0
 20
0.0228999914431398
 10
0.0
 20
0.0686999743294194
 10
0.0
 20
1.787344332137084
 10
0.0
 20
2.360989117787742
  0
LWPOLYLINE
  5
14
100
AcDbEntity
  8
USP-GEO
100
AcDbPolyline
 90
        4
 70
   129
 43
0.0
 10
0.0
 20
1.787344332137084
 10
-0.1144999572157008
 20
1.787344332137084
 10
-0.1144999572157008
 20
0.0686999743294194
 10
0.0
 20
0.0686999743294194
  0
LWPOLYLINE
  5
15
100
AcDbEntity
  8
USP-GEO
100
AcDbPolyline
 90
        2
 70
   128
 43
0.0
 10
-0.1144999572157008
 20
0.0228999914431398
 10
-0.1133549576435442
 20
0.0228999914431398
  0
LWPOLYLINE
  5
16
100
AcDbEntity
  8
USP-GEO
100
AcDbPolyline
 90
        2
 70
   128
 43
0.0
 10
0.0
 20
0.0228999914431398
 10
0.0
 20
0.0686999743294194
  0
LWPOLYLINE
  5
17
100
AcDbEntity
  8
USP-GEO
100
AcDbPolyline
 90
        2
 70
   129
 43
0.0
 10
0.0011449995721566
 20
0.0228999914431398
 10
0.0
 20
0.0228999914431398
  0
LWPOLYLINE
  5
18
100
AcDbEntity
  8
USP-GEO
100
AcDbPolyline
 90
        2
 70
   129
 43
0.0
 10
0.0011449995721566
 20
0.0
 10
0.0
 20
0.0
  0
LWPOLYLINE
  5
19
100
AcDbEntity
  8
USP-GEO
100
AcDbPolyline
 90
        9
 70
   128
 43
0.0
 10
0.0
 20
1.398044477603704
 10
0.1156449567878575
 20
1.375144486160564
 10
0.1614449396741371
 20
1.329344503274281
 10
0.2072449225604167
 20
1.283544520388002
 10
0.2301449140035565
 20
1.169044563172302
 10
0.2072449225604167
 20
1.0545446059566
 10
0.1614449396741371
 20
1.00874462307032
 10
0.1156449567878575
 20
0.9629446401840411
 10
0.0
 20
0.9400446487409013
  0
LWPOLYLINE
  5
1A
100
AcDbEntity
  8
USP-GEO
100
AcDbPolyline
 90
        2
 70
   128
 43
0.0
 10
1.443844460489982
 20
1.03164461451346
 10
1.42094446904684
 20
1.100344588842883
  0
LWPOLYLINE
  5
1B
100
AcDbEntity
  8
USP-GEO
100
AcDbPolyline
 90
        2
 70
   128
 43
0.0
 10
1.42094446904684
 20
1.191944554615442
 10
1.443844460489982
 20
1.283544520388002
  0
LWPOLYLINE
  5
1C
100
AcDbEntity
  8
USP-GEO
100
AcDbPolyline
 90
        4
 70
   129
 43
0.0
 10
-0.1144999572157008
 20
2.360989117787742
 10
0.0
 20
2.360989117787742
 10
0.0
 20
1.787344332137084
 10
-0.1144999572157008
 20
1.787344332137084
  0
LWPOLYLINE
  5
1D
100
AcDbEntity
  8
USP-GEO
100
AcDbPolyline
 90
        7
 70
   128
 43
0.0
 10
0.0
 20
2.452589083560305
 10
0.0
 20
2.360989117787742
 10
0.0469449824584363
 20
2.360989117787742
 10
0.0469449824584363
 20
2.452589083560305
 10
0.0
 20
2.452589083560305
 10
-0.1144999572157008
 20
2.452589083560305
 10
-0.1144999572157008
 20
2.360989117787742
  0
LWPOLYLINE
  5
1E
100
AcDbEntity
  8
USP-GEO
100
AcDbPolyline
 90
        2
 70
   129
 43
0.0
 10
0.0480899820305929
 20
2.452589083560305
 10
0.0469449824584363
 20
2.452589083560305
  0
LWPOLYLINE
  5
1F
100
AcDbEntity
  8
USP-GEO
100
AcDbPolyline
 90
        2
 70
   128
 43
0.0
 10
0.3217448797761175
 20
2.360989117787742
 10
0.3217448797761175
 20
2.452589083560305
  0
LWPOLYLINE
  5
20
100
AcDbEntity
  8
USP-GEO
100
AcDbPolyline
 90
       26
 70
   128
 43
0.0
 10
3.597588655717306
 20
0.0228999914431398
 10
3.597588655717306
 20
0.0686999743294194
 10
3.597588655717306
 20
1.787344332137084
 10
3.597588655717306
 20
2.360989117787742
 10
3.597588655717306
 20
2.452589083560305
 10
3.505988689944746
 20
2.452589083560305
 10
3.460188707058465
 20
2.452589083560305
 10
3.460188707058465
 20
2.360989117787742
 10
3.505988689944746
 20
2.360989117787742
 10
3.460188707058465
 20
2.360989117787742
 10
3.437288715615325
 20
2.360989117787742
 10
3.185388809740786
 20
2.360989117787742
 10
1.764444340693943
 20
2.360989117787742
 10
1.764444340693943
 20
2.452589083560305
 10
3.185388809740786
 20
2.452589083560305
 10
3.437288715615325
 20
2.452589083560305
 10
3.437288715615325
 20
2.360989117787742
 10
3.185388809740786
 20
2.360989117787742
 10
1.764444340693943
 20
2.360989117787742
 10
1.764444340693943
 20
2.452589083560305
 10
3.185388809740786
 20
2.452589083560305
 10
3.437288715615325
 20
2.452589083560305
 10
3.460188707058465
 20
2.452589083560305
 10
3.505988689944746
 20
2.452589083560305
 10
3.597588655717306
 20
2.452589083560305
 10
3.597588655717306
 20
2.360989117787742
  0
LWPOLYLINE
  5
21
100
AcDbEntity
  8
USP-GEO
100
AcDbPolyline
 90
        4
 70
   128
 43
0.0
 10
3.597588655717306
 20
0.0686999743294194
 10
3.597588655717306
 20
1.787344332137084
 10
3.505988689944746
 20
1.787344332137084
 10
3.505988689944746
 20
0.0686999743294194
  0
LWPOLYLINE
  5
22
100
AcDbEntity
  8
USP-GEO
100
AcDbPolyline
 90
        6
 70
   128
 43
0.0
 10
3.505988689944746
 20
0.0
 10
3.505988689944746
 20
0.0228999914431398
 10
3.505988689944746
 20
0.0686999743294194
 10
3.505988689944746
 20
1.787344332137084
 10
3.505988689944746
 20
2.360989117787742
 10
3.505988689944746
 20
2.452589083560305
  0
LWPOLYLINE
  5
23
100
AcDbEntity
  8
USP-GEO
100
AcDbPolyline
 90
        2
 70
   128
 43
0.0
 10
1.695744366364522
 20
0.8255446915252022
 10
1.627044392035102
 20
0.848444682968342
  0
LWPOLYLINE
  5
24
100
AcDbEntity
  8
USP-GEO
100
AcDbPolyline
 90
        2
 70
   128
 43
0.0
 10
1.878944297909644
 20
0.848444682968342
 10
1.787344332137083
 20
0.8255446915252022
  0
LWPOLYLINE
  5
25
100
AcDbEntity
  8
USP-GEO
100
AcDbPolyline
 90
        2
 70
   128
 43
0.0
 10
1.627044392035102
 20
1.466744451933124
 10
1.695744366364522
 20
1.489644443376263
  0
LWPOLYLINE
  5
26
100
AcDbEntity
  8
USP-GEO
100
AcDbPolyline
 90
        2
 70
   128
 43
0.0
 10
2.017489246140641
 20
0.9400446487409013
 10
1.94878927181122
 20
0.8942446658546217
  0
LWPOLYLINE
  5
27
100
AcDbEntity
  8
USP-GEO
100
AcDbPolyline
 90
        2
 70
   128
 43
0.0
 10
1.787344332137083
 20
1.489644443376263
 10
1.878944297909644
 20
1.466744451933124
  0
LWPOLYLINE
  5
28
100
AcDbEntity
  8
USP-GEO
100
AcDbPolyline
 90
        2
 70
   128
 43
0.0
 10
1.94878927181122
 20
1.420944469046844
 10
2.017489246140641
 20
1.352244494717421
  0
LWPOLYLINE
  5
29
100
AcDbEntity
  8
USP-GEO
100
AcDbPolyline
 90
        2
 70
   128
 43
0.0
 10
2.08618922047006
 20
1.100344588842883
 10
2.063289229026921
 20
1.03164461451346
  0
LWPOLYLINE
  5
2A
100
AcDbEntity
  8
USP-GEO
100
AcDbPolyline
 90
        2
 70
   128
 43
0.0
 10
2.063289229026921
 20
1.283544520388002
 10
2.08618922047006
 20
1.191944554615442
  0
LWPOLYLINE
  5
2B
100
AcDbEntity
  8
USP-GEO
100
AcDbPolyline
 90
        6
 70
   129
 43
0.0
 10
3.597588655717306
 20
0.0228999914431398
 10
3.597588655717306
 20
0.0686999743294194
 10
3.505988689944746
 20
0.0686999743294194
 10
3.505988689944746
 20
0.0228999914431398
 10
3.505988689944746
 20
0.0
 10
3.597588655717306
 20
0.0
  0
LWPOLYLINE
  5
2C
100
AcDbEntity
  8
USP-GEO
100
AcDbPolyline
 90
        2
 70
   128
 43
0.0
 10
3.597588655717306
 20
0.0228999914431398
 10
3.598733655289464
 20
0.0228999914431398
  0
LWPOLYLINE
  5
2D
100
AcDbEntity
  8
USP-GEO
100
AcDbPolyline
 90
        3
 70
   128
 43
0.0
 10
3.505988689944746
 20
0.0
 10
3.597588655717306
 20
0.0
 10
3.597588655717306
 20
0.0228999914431398
  0
LWPOLYLINE
  5
2E
100
AcDbEntity
  8
USP-GEO
100
AcDbPolyline
 90
        2
 70
   128
 43
0.0
 10
3.505988689944746
 20
0.0228999914431398
 10
3.507133689516903
 20
0.0228999914431398
  0
LWPOLYLINE
  5
2F
100
AcDbEntity
  8
USP-GEO
100
AcDbPolyline
 90
        2
 70
   129
 43
0.0
 10
3.507133689516903
 20
0.0
 10
3.505988689944746
 20
0.0
  0
LWPOLYLINE
  5
30
100
AcDbEntity
  8
USP-GEO
100
AcDbPolyline
 90
        9
 70
   128
 43
0.0
 10
3.505988689944746
 20
1.398044477603704
 10
3.391488732729046
 20
1.375144486160564
 10
3.322788758399626
 20
1.329344503274281
 10
3.299888766956485
 20
1.283544520388002
 10
3.254088784070205
 20
1.169044563172302
 10
3.299888766956485
 20
1.0545446059566
 10
3.322788758399626
 20
1.00874462307032
 10
3.391488732729046
 20
0.9629446401840411
 10
3.505988689944746
 20
0.9400446487409013
  0
LWPOLYLINE
  5
31
100
AcDbEntity
  8
USP-GEO
100
AcDbPolyline
 90
        2
 70
   129
 43
0.0
 10
1.718644357807662
 20
2.452589083560305
 10
1.718644357807662
 20
2.360989117787742
  0
LWPOLYLINE
  5
32
100
AcDbEntity
  8
USP-GEO
100
AcDbPolyline
 90
        2
 70
   128
 43
0.0
 10
3.185388809740786
 20
2.360989117787742
 10
3.185388809740786
 20
2.452589083560305
  0
LWPOLYLINE
  5
33
100
AcDbEntity
  8
USP-GEO
100
AcDbPolyline
 90
        4
 70
   129
 43
0.0
 10
3.505988689944746
 20
1.787344332137084
 10
3.505988689944746
 20
2.360989117787742
 10
3.597588655717306
 20
2.360989117787742
 10
3.597588655717306
 20
1.787344332137084
  0
LWPOLYLINE
  5
34
100
AcDbEntity
  8
USP-GEO
100
AcDbPolyline
 90
        2
 70
   129
 43
0.0
 10
3.438433715187484
 20
2.452589083560305
 10
3.437288715615325
 20
2.452589083560305
  0
LWPOLYLINE
  5
35
100
AcDbEntity
  8
USP-GEO
100
AcDbPolyline
 90
        2
 70
   129
 43
0.0
 10
3.438433715187484
 20
2.360989117787742
 10
3.437288715615325
 20
2.360989117787742
  0
LWPOLYLINE
  5
36
100
AcDbEntity
  8
USP-GEO
100
AcDbPolyline
 90
        4
 70
   128
 43
0.0
 10
3.460188707058465
 20
2.360989117787742
 10
3.437288715615325
 20
2.360989117787742
 10
3.437288715615325
 20
2.452589083560305
 10
3.460188707058465
 20
2.452589083560305
  0
TEXT
  5
37
100
AcDbEntity
  8
USP-TXT
100
AcDbText
 10
-0.7209639883609587
 20
-1.667986892418536
 30
4.196879291630274
 40
0.296875
  1
MUGT15 - TOP VIEW
 72
     1
 11
1.752994344972373
 21
-1.667986892418536
 31
4.196879291630274
100
AcDbText
  0
ENDBLK
  5
3E
100
AcDbEntity
  8
0
100
AcDbBlockEnd
  0
BLOCK
  5
85
100
AcDbEntity
  8
0
100
AcDbBlockBegin
  2
MUGT15_F
 70
     0
 10
0.0
 20
0.0
 30
0.0
  3
MUGT15_F
  1

  0
LWPOLYLINE
  5
41
100
AcDbEntity
  8
USP-GEO
100
AcDbPolyline
 90
       18
 70
   128
 43
0.0
 10
0.1144999572157008
 20
0.6640997518510617
 10
0.1144999572157008
 20
2.956388895309384
 10
0.1144999572157008
 20
3.644533638175744
 10
0.1614449396741371
 20
3.690333621062023
 10
0.1614449396741371
 20
3.713233612505163
 10
0.1614449396741371
 20
3.736133603948303
 10
0.1843449311172769
 20
3.759033595391443
 10
0.1843449311172769
 20
14.37088963014256
 10
0.4362448369918184
 20
14.62393453558925
 10
1.833144315023362
 20
14.62393453558925
 10
1.833144315023362
 20
2.956388895309384
 10
0.1614449396741371
 20
0.7327997261804811
 10
0.1144999572157008
 20
0.7327997261804811
 10
0.2072449225604185
 20
0.7098997347373413
 10
0.2759448968898379
 20
0.6640997518510617
 10
0.3217448797761175
 20
0.5953997775216422
 10
0.3446448712192573
 20
0.5037998117490794
 10
0.3446448712192573
 20
0.4808998203059396
  0
LWPOLYLINE
  5
42
100
AcDbEntity
  8
USP-GEO
100
AcDbPolyline
 90
        6
 70
   128
 43
0.0
 10
0.1614449396741371
 20
0.7327997261804811
 10
1.833144315023362
 20
2.956388895309384
 10
1.833144315023362
 20
14.62393453558925
 10
0.4362448369918184
 20
14.62393453558925
 10
0.1843449311172769
 20
14.37088963014256
 10
0.1843449311172769
 20
3.759033595391443
  0
LWPOLYLINE
  5
43
100
AcDbEntity
  8
USP-GEO
100
AcDbPolyline
 90
       12
 70
   128
 43
0.0
 10
1.878944297909644
 20
2.956388895309384
 10
1.878944297909644
 20
14.62393453558925
 10
3.299888766956486
 20
14.62393453558925
 10
3.551788672831026
 20
14.37088963014256
 10
3.551788672831026
 20
3.759033595391443
 10
3.551788672831026
 20
3.736133603948303
 10
3.551788672831026
 20
3.713233612505163
 10
3.574688664274166
 20
3.690333621062023
 10
3.620488647160447
 20
3.644533638175744
 10
3.712088612933007
 20
3.644533638175744
 10
3.620488647160447
 20
3.644533638175744
 10
3.620488647160447
 20
2.956388895309384
  0
LWPOLYLINE
  5
44
100
AcDbEntity
  8
USP-GEO
100
AcDbPolyline
 90
        5
 70
   128
 43
0.0
 10
3.551788672831026
 20
3.759033595391443
 10
3.551788672831026
 20
14.37088963014256
 10
3.299888766956486
 20
14.62393453558925
 10
1.878944297909644
 20
14.62393453558925
 10
1.878944297909644
 20
2.956388895309384
  0
LWPOLYLINE
  5
45
100
AcDbEntity
  8
USP-GEO
100
AcDbPolyline
 90
        7
 70
   128
 43
0.0
 10
2.498389066446582
 20
0.114499957215699
 10
2.498389066446582
 20
0.0
 10
2.452589083560303
 20
0.0
 10
2.429689092117163
 20
0.0
 10
2.406789100674023
 20
0.0
 10
1.306444511831141
 20
0.0
 10
1.306444511831141
 20
0.114499957215699
  0
LWPOLYLINE
  5
46
100
AcDbEntity
  8
USP-GEO
100
AcDbPolyline
 90
       17
 70
   128
 43
0.0
 10
3.712088612933007
 20
0.5037998117490794
 10
3.712088612933007
 20
0.0
 10
2.818988946650543
 20
0.0
 10
2.796088955207403
 20
0.0
 10
2.773188963764264
 20
0.0
 10
2.727388980877984
 20
0.0
 10
2.498389066446582
 20
0.0
 10
2.452589083560303
 20
0.0
 10
2.429689092117163
 20
0.0
 10
2.406789100674023
 20
0.0
 10
1.306444511831141
 20
0.0
 10
1.260644528944862
 20
0.0
 10
1.21484454605858
 20
0.0
 10
1.00874462307032
 20
0.0
 10
0.9629446401840411
 20
0.0
 10
0.9171446572977597
 20
0.0
 10
0.9182896568699181
 20
0.0
  0
LWPOLYLINE
  5
47
100
AcDbEntity
  8
USP-GEO
100
AcDbPolyline
 90
        2
 70
   128
 43
0.0
 10
0.2072449225604185
 20
0.114499957215699
 10
3.505988689944746
 20
0.114499957215699
  0
LWPOLYLINE
  5
48
100
AcDbEntity
  8
USP-GEO
100
AcDbPolyline
 90
       11
 70
   128
 43
0.0
 10
0.1144999572157008
 20
0.2060999229882583
 10
0.1144999572157008
 20
0.4808998203059396
 10
0.1144999572157008
 20
0.2060999229882583
 10
0.1144999572157008
 20
0.1602999401019787
 10
0.1614449396741371
 20
0.1373999486588389
 10
0.2072449225604185
 20
0.114499957215699
 10
3.505988689944746
 20
0.114499957215699
 10
3.551788672831026
 20
0.1373999486588389
 10
3.597588655717308
 20
0.1602999401019787
 10
3.620488647160447
 20
0.2060999229882583
 10
3.620488647160447
 20
0.4808998203059396
  0
LWPOLYLINE
  5
49
100
AcDbEntity
  8
USP-GEO
100
AcDbPolyline
 90
        2
 70
   129
 43
0.0
 10
0.1144999572157008
 20
0.4808998203059396
 10
3.620488647160447
 20
0.4808998203059396
  0
LWPOLYLINE
  5
4A
100
AcDbEntity
  8
USP-GEO
100
AcDbPolyline
 90
        6
 70
   129
 43
0.0
 10
0.1144999572157008
 20
3.644533638175744
 10
0.1144999572157008
 20
2.956388895309384
 10
0.1144999572157008
 20
0.6640997518510617
 10
0.0
 20
0.6640997518510617
 10
0.0
 20
2.956388895309384
 10
0.0
 20
3.644533638175744
  0
LWPOLYLINE
  5
4B
100
AcDbEntity
  8
USP-GEO
100
AcDbPolyline
 90
       12
 70
   129
 43
0.0
 10
0.8713446744114801
 20
2.360989117787742
 10
0.8942446658546199
 20
2.383889109230882
 10
0.9400446487408995
 20
2.406789100674021
 10
0.9400446487408995
 20
2.452589083560301
 10
0.9400446487408995
 20
2.498389066446581
 10
0.8942446658546199
 20
2.52128905788972
 10
0.8713446744114801
 20
2.54418904933286
 10
0.8255446915252004
 20
2.52128905788972
 10
0.8026447000820606
 20
2.498389066446581
 10
0.7797447086389191
 20
2.452589083560301
 10
0.8026447000820606
 20
2.406789100674021
 10
0.8255446915252004
 20
2.383889109230882
  0
LWPOLYLINE
  5
4C
100
AcDbEntity
  8
USP-GEO
100
AcDbPolyline
 90
       11
 70
   128
 43
0.0
 10
0.1614449396741371
 20
3.690333621062023
 10
0.1144999572157008
 20
3.644533638175744
 10
0.0
 20
3.644533638175744
 10
0.0
 20
2.956388895309384
 10
0.0
 20
0.6640997518510617
 10
0.0
 20
0.5953997775216422
 10
0.0
 20
0.5495997946353591
 10
0.0
 20
0.5037998117490794
 10
0.0
 20
0.0
 10
0.9171446572977597
 20
0.0
 10
0.9171446572977597
 20
0.114499957215699
  0
LWPOLYLINE
  5
4D
100
AcDbEntity
  8
USP-GEO
100
AcDbPolyline
 90
        9
 70
   128
 43
0.0
 10
0.0
 20
0.6640997518510617
 10
0.0
 20
0.5953997775216422
 10
0.0
 20
0.5495997946353591
 10
0.0
 20
0.5037998117490794
 10
0.0
 20
0.0
 10
0.9171446572977597
 20
0.0
 10
0.9629446401840411
 20
0.0
 10
1.00874462307032
 20
0.0
 10
1.00874462307032
 20
0.114499957215699
  0
LWPOLYLINE
  5
4E
100
AcDbEntity
  8
USP-GEO
100
AcDbPolyline
 90
        4
 70
   128
 43
0.0
 10
0.1144999572157008
 20
0.6640997518510617
 10
0.1144999572157008
 20
0.5953997775216422
 10
0.1144999572157008
 20
0.5495997946353591
 10
0.1144999572157008
 20
0.5037998117490794
  0
LWPOLYLINE
  5
4F
100
AcDbEntity
  8
USP-GEO
100
AcDbPolyline
 90
        5
 70
   128
 43
0.0
 10
0.0
 20
0.5037998117490794
 10
0.1144999572157008
 20
0.5037998117490794
 10
0.1144999572157008
 20
0.5495997946353591
 10
0.1144999572157008
 20
0.5953997775216422
 10
0.1144999572157008
 20
0.6640997518510617
  0
LWPOLYLINE
  5
50
100
AcDbEntity
  8
USP-GEO
100
AcDbPolyline
 90
        2
 70
   129
 43
0.0
 10
0.1144999572157008
 20
0.2060999229882583
 10
0.1144999572157008
 20
0.114499957215699
  0
LWPOLYLINE
  5
51
100
AcDbEntity
  8
USP-GEO
100
AcDbPolyline
 90
        2
 70
   129
 43
0.0
 10
0.1144999572157008
 20
0.114499957215699
 10
0.2072449225604185
 20
0.114499957215699
  0
LWPOLYLINE
  5
52
100
AcDbEntity
  8
USP-GEO
100
AcDbPolyline
 90
        2
 70
   129
 43
0.0
 10
0.1144999572157008
 20
0.5037998117490794
 10
0.1144999572157008
 20
0.4808998203059396
  0
LWPOLYLINE
  5
53
100
AcDbEntity
  8
USP-GEO
100
AcDbPolyline
 90
        3
 70
   128
 43
0.0
 10
1.00874462307032
 20
0.0
 10
1.21484454605858
 20
0.0
 10
1.21484454605858
 20
0.114499957215699
  0
LWPOLYLINE
  5
54
100
AcDbEntity
  8
USP-GEO
100
AcDbPolyline
 90
        4
 70
   128
 43
0.0
 10
1.21484454605858
 20
0.0
 10
1.260644528944862
 20
0.0
 10
1.306444511831141
 20
0.0
 10
1.307589511403298
 20
0.0
  0
LWPOLYLINE
  5
55
100
AcDbEntity
  8
USP-GEO
100
AcDbPolyline
 90
        2
 70
   128
 43
0.0
 10
0.1144999572157008
 20
2.956388895309384
 10
0.0
 20
2.956388895309384
  0
LWPOLYLINE
  5
56
100
AcDbEntity
  8
USP-GEO
100
AcDbPolyline
 90
       12
 70
   129
 43
0.0
 10
1.352244494717421
 20
3.002188878195664
 10
1.398044477603702
 20
3.002188878195664
 10
1.443844460489982
 20
3.047988861081943
 10
1.443844460489982
 20
3.070888852525083
 10
1.443844460489982
 20
3.116688835411363
 10
1.398044477603702
 20
3.162488818297642
 10
1.352244494717421
 20
3.162488818297642
 10
1.329344503274281
 20
3.162488818297642
 10
1.283544520388002
 20
3.116688835411363
 10
1.283544520388002
 20
3.070888852525083
 10
1.283544520388002
 20
3.047988861081943
 10
1.329344503274281
 20
3.002188878195664
  0
LWPOLYLINE
  5
57
100
AcDbEntity
  8
USP-GEO
100
AcDbPolyline
 90
       12
 70
   129
 43
0.0
 10
0.8942446658546199
 20
4.446033338685644
 10
0.9171446572977597
 20
4.491833321571927
 10
0.9400446487408995
 20
4.514733313015067
 10
0.9858446316271809
 20
4.537633304458207
 10
1.03164461451346
 20
4.514733313015067
 10
1.0545446059566
 20
4.491833321571927
 10
1.07744459739974
 20
4.446033338685644
 10
1.0545446059566
 20
4.423133347242504
 10
1.03164461451346
 20
4.377333364356225
 10
0.9858446316271809
 20
4.377333364356225
 10
0.9400446487408995
 20
4.377333364356225
 10
0.9171446572977597
 20
4.423133347242504
  0
LWPOLYLINE
  5
58
100
AcDbEntity
  8
USP-GEO
100
AcDbPolyline
 90
       12
 70
   129
 43
0.0
 10
0.8942446658546199
 20
5.706677867630506
 10
0.9171446572977597
 20
5.752477850516788
 10
0.9400446487408995
 20
5.775377841959928
 10
0.9858446316271809
 20
5.798277833403068
 10
1.03164461451346
 20
5.775377841959928
 10
1.0545446059566
 20
5.752477850516788
 10
1.07744459739974
 20
5.706677867630506
 10
1.0545446059566
 20
5.660877884744227
 10
1.03164461451346
 20
5.637977893301087
 10
0.9858446316271809
 20
5.615077901857947
 10
0.9400446487408995
 20
5.637977893301087
 10
0.9171446572977597
 20
5.660877884744227
  0
LWPOLYLINE
  5
59
100
AcDbEntity
  8
USP-GEO
100
AcDbPolyline
 90
       12
 70
   129
 43
0.0
 10
0.482044819878098
 20
7.403567233567187
 10
0.5049448113212396
 20
7.449367216453468
 10
0.5507447942075192
 20
7.449367216453468
 10
0.5965447770937989
 20
7.449367216453468
 10
0.6194447685369387
 20
7.403567233567187
 10
0.6423447599800785
 20
7.380667242124047
 10
0.6194447685369387
 20
7.334867259237768
 10
0.5965447770937989
 20
7.289067276351488
 10
0.5507447942075192
 20
7.289067276351488
 10
0.5049448113212396
 20
7.289067276351488
 10
0.482044819878098
 20
7.334867259237768
 10
0.4591448284349582
 20
7.380667242124047
  0
LWPOLYLINE
  5
5A
100
AcDbEntity
  8
USP-GEO
100
AcDbPolyline
 90
       12
 70
   129
 43
0.0
 10
0.4591448284349582
 20
8.61841177962577
 10
0.482044819878098
 20
8.664211762512049
 10
0.5049448113212396
 20
8.687111753955189
 10
0.5507447942075192
 20
8.710011745398329
 10
0.5965447770937989
 20
8.687111753955189
 10
0.6194447685369387
 20
8.664211762512049
 10
0.6423447599800785
 20
8.61841177962577
 10
0.6194447685369387
 20
8.572611796739488
 10
0.5965447770937989
 20
8.549711805296348
 10
0.5507447942075192
 20
8.549711805296348
 10
0.5049448113212396
 20
8.549711805296348
 10
0.482044819878098
 20
8.572611796739488
  0
LWPOLYLINE
  5
5B
100
AcDbEntity
  8
USP-GEO
100
AcDbPolyline
 90
       12
 70
   129
 43
0.0
 10
1.398044477603702
 20
6.738322482143969
 10
1.420944469046842
 20
6.784122465030248
 10
1.443844460489982
 20
6.807022456473388
 10
1.489644443376262
 20
6.829922447916528
 10
1.535444426262541
 20
6.807022456473388
 10
1.558344417705683
 20
6.784122465030248
 10
1.558344417705683
 20
6.738322482143969
 10
1.558344417705683
 20
6.692522499257687
 10
1.535444426262541
 20
6.669622507814548
 10
1.489644443376262
 20
6.669622507814548
 10
1.443844460489982
 20
6.669622507814548
 10
1.420944469046842
 20
6.692522499257687
  0
LWPOLYLINE
  5
5C
100
AcDbEntity
  8
USP-GEO
100
AcDbPolyline
 90
       12
 70
   129
 43
0.0
 10
1.420944469046842
 20
7.95316702820255
 10
1.398044477603702
 20
7.998967011088829
 10
1.420944469046842
 20
8.044766993975111
 10
1.443844460489982
 20
8.067666985418251
 10
1.489644443376262
 20
8.067666985418251
 10
1.535444426262541
 20
8.067666985418251
 10
1.558344417705683
 20
8.044766993975111
 10
1.558344417705683
 20
7.998967011088829
 10
1.558344417705683
 20
7.95316702820255
 10
1.535444426262541
 20
7.93026703675941
 10
1.489644443376262
 20
7.90736704531627
 10
1.443844460489982
 20
7.93026703675941
  0
LWPOLYLINE
  5
5D
100
AcDbEntity
  8
USP-GEO
100
AcDbPolyline
 90
       12
 70
   129
 43
0.0
 10
1.420944469046842
 20
9.213811557147412
 10
1.398044477603702
 20
9.236711548590552
 10
1.420944469046842
 20
9.282511531476831
 10
1.443844460489982
 20
9.328311514363113
 10
1.489644443376262
 20
9.328311514363113
 10
1.535444426262541
 20
9.328311514363113
 10
1.558344417705683
 20
9.282511531476831
 10
1.558344417705683
 20
9.236711548590552
 10
1.558344417705683
 20
9.213811557147412
 10
1.535444426262541
 20
9.168011574261131
 10
1.489644443376262
 20
9.168011574261131
 10
1.443844460489982
 20
9.168011574261131
  0
LWPOLYLINE
  5
5E
100
AcDbEntity
  8
USP-GEO
100
AcDbPolyline
 90
        7
 70
   128
 43
0.0
 10
3.712088612933007
 20
2.956388895309384
 10
3.712088612933007
 20
0.6640997518510617
 10
3.712088612933007
 20
0.5953997775216422
 10
3.712088612933007
 20
0.5495997946353591
 10
3.712088612933007
 20
0.5037998117490794
 10
3.712088612933007
 20
0.0
 10
2.818988946650543
 20
0.0
  0
LWPOLYLINE
  5
5F
100
AcDbEntity
  8
USP-GEO
100
AcDbPolyline
 90
        2
 70
   128
 43
0.0
 10
3.712088612933007
 20
0.6640997518510617
 10
3.712088612933007
 20
2.956388895309384
  0
LWPOLYLINE
  5
60
100
AcDbEntity
  8
USP-GEO
100
AcDbPolyline
 90
        3
 70
   128
 43
0.0
 10
3.712088612933007
 20
2.956388895309384
 10
3.620488647160447
 20
2.956388895309384
 10
3.620488647160447
 20
0.6640997518510617
  0
LWPOLYLINE
  5
61
100
AcDbEntity
  8
USP-GEO
100
AcDbPolyline
 90
       12
 70
   129
 43
0.0
 10
2.796088955207403
 20
2.498389066446581
 10
2.818988946650543
 20
2.52128905788972
 10
2.864788929536825
 20
2.54418904933286
 10
2.910588912423104
 20
2.52128905788972
 10
2.933488903866244
 20
2.498389066446581
 10
2.933488903866244
 20
2.452589083560301
 10
2.933488903866244
 20
2.406789100674021
 10
2.910588912423104
 20
2.383889109230882
 10
2.864788929536825
 20
2.360989117787742
 10
2.818988946650543
 20
2.383889109230882
 10
2.796088955207403
 20
2.406789100674021
 10
2.773188963764264
 20
2.452589083560301
  0
LWPOLYLINE
  5
62
100
AcDbEntity
  8
USP-GEO
100
AcDbPolyline
 90
        2
 70
   129
 43
0.0
 10
3.574688664274166
 20
0.7327997261804811
 10
1.878944297909644
 20
2.956388895309384
  0
LWPOLYLINE
  5
63
100
AcDbEntity
  8
USP-GEO
100
AcDbPolyline
 90
        8
 70
   128
 43
0.0
 10
3.574688664274166
 20
3.690333621062023
 10
3.620488647160447
 20
3.644533638175744
 10
3.620488647160447
 20
2.956388895309384
 10
3.620488647160447
 20
0.6640997518510617
 10
3.620488647160447
 20
0.5953997775216422
 10
3.620488647160447
 20
0.5495997946353591
 10
3.620488647160447
 20
0.5037998117490794
 10
3.620488647160447
 20
0.4808998203059396
  0
LWPOLYLINE
  5
64
100
AcDbEntity
  8
USP-GEO
100
AcDbPolyline
 90
        3
 70
   128
 43
0.0
 10
2.498389066446582
 20
0.0
 10
2.727388980877984
 20
0.0
 10
2.727388980877984
 20
0.114499957215699
  0
LWPOLYLINE
  5
65
100
AcDbEntity
  8
USP-GEO
100
AcDbPolyline
 90
        2
 70
   128
 43
0.0
 10
2.406789100674023
 20
0.0
 10
2.406789100674023
 20
0.114499957215699
  0
LWPOLYLINE
  5
66
100
AcDbEntity
  8
USP-GEO
100
AcDbPolyline
 90
       11
 70
   128
 43
0.0
 10
3.620488647160447
 20
0.5037998117490794
 10
3.712088612933007
 20
0.5037998117490794
 10
3.712088612933007
 20
0.5495997946353591
 10
3.712088612933007
 20
0.5953997775216422
 10
3.712088612933007
 20
0.6640997518510617
 10
3.620488647160447
 20
0.6640997518510617
 10
3.620488647160447
 20
0.5953997775216422
 10
3.620488647160447
 20
0.5495997946353591
 10
3.620488647160447
 20
0.5037998117490794
 10
3.620488647160447
 20
0.4808998203059396
 10
3.620488647160447
 20
0.2060999229882583
  0
LWPOLYLINE
  5
67
100
AcDbEntity
  8
USP-GEO
100
AcDbPolyline
 90
        7
 70
   128
 43
0.0
 10
3.551788672831026
 20
0.7327997261804811
 10
3.620488647160447
 20
0.7327997261804811
 10
3.505988689944746
 20
0.7098997347373413
 10
3.437288715615327
 20
0.6640997518510617
 10
3.414388724172185
 20
0.5953997775216422
 10
3.368588741285906
 20
0.5037998117490794
 10
3.391488732729046
 20
0.4808998203059396
  0
LWPOLYLINE
  5
68
100
AcDbEntity
  8
USP-GEO
100
AcDbPolyline
 90
        5
 70
   128
 43
0.0
 10
2.727388980877984
 20
0.0
 10
2.773188963764264
 20
0.0
 10
2.796088955207403
 20
0.0
 10
2.818988946650543
 20
0.0
 10
2.818988946650543
 20
0.114499957215699
  0
LWPOLYLINE
  5
69
100
AcDbEntity
  8
USP-GEO
100
AcDbPolyline
 90
        2
 70
   129
 43
0.0
 10
3.620488647160447
 20
0.114499957215699
 10
3.620488647160447
 20
0.2060999229882583
  0
LWPOLYLINE
  5
6A
100
AcDbEntity
  8
USP-GEO
100
AcDbPolyline
 90
        2
 70
   129
 43
0.0
 10
3.505988689944746
 20
0.114499957215699
 10
3.620488647160447
 20
0.114499957215699
  0
LWPOLYLINE
  5
6B
100
AcDbEntity
  8
USP-GEO
100
AcDbPolyline
 90
       12
 70
   129
 43
0.0
 10
2.658689006548563
 20
4.423133347242504
 10
2.658689006548563
 20
4.446033338685644
 10
2.658689006548563
 20
4.491833321571927
 10
2.704488989434844
 20
4.514733313015067
 10
2.727388980877984
 20
4.537633304458207
 10
2.773188963764264
 20
4.514733313015067
 10
2.818988946650543
 20
4.491833321571927
 10
2.818988946650543
 20
4.446033338685644
 10
2.818988946650543
 20
4.423133347242504
 10
2.773188963764264
 20
4.377333364356225
 10
2.727388980877984
 20
4.377333364356225
 10
2.704488989434844
 20
4.377333364356225
  0
LWPOLYLINE
  5
6C
100
AcDbEntity
  8
USP-GEO
100
AcDbPolyline
 90
       12
 70
   129
 43
0.0
 10
2.658689006548563
 20
5.706677867630506
 10
2.658689006548563
 20
5.752477850516788
 10
2.704488989434844
 20
5.775377841959928
 10
2.727388980877984
 20
5.798277833403068
 10
2.773188963764264
 20
5.775377841959928
 10
2.818988946650543
 20
5.752477850516788
 10
2.818988946650543
 20
5.706677867630506
 10
2.818988946650543
 20
5.660877884744227
 10
2.773188963764264
 20
5.637977893301087
 10
2.727388980877984
 20
5.615077901857947
 10
2.704488989434844
 20
5.637977893301087
 10
2.658689006548563
 20
5.660877884744227
  0
LWPOLYLINE
  5
6D
100
AcDbEntity
  8
USP-GEO
100
AcDbPolyline
 90
       12
 70
   129
 43
0.0
 10
2.292289143458322
 20
3.116688835411363
 10
2.315189134901462
 20
3.162488818297642
 10
2.360989117787742
 20
3.162488818297642
 10
2.406789100674023
 20
3.162488818297642
 10
2.429689092117163
 20
3.116688835411363
 10
2.452589083560303
 20
3.070888852525083
 10
2.429689092117163
 20
3.047988861081943
 10
2.406789100674023
 20
3.002188878195664
 10
2.360989117787742
 20
3.002188878195664
 10
2.315189134901462
 20
3.002188878195664
 10
2.292289143458322
 20
3.047988861081943
 10
2.292289143458322
 20
3.070888852525083
  0
LWPOLYLINE
  5
6E
100
AcDbEntity
  8
USP-GEO
100
AcDbPolyline
 90
        2
 70
   129
 43
0.0
 10
3.712088612933007
 20
3.644533638175744
 10
3.712088612933007
 20
2.956388895309384
  0
LWPOLYLINE
  5
6F
100
AcDbEntity
  8
USP-GEO
100
AcDbPolyline
 90
       12
 70
   129
 43
0.0
 10
2.154889194799482
 20
7.380667242124047
 10
2.177789186242621
 20
7.403567233567187
 10
2.200689177685761
 20
7.449367216453468
 10
2.246489160572041
 20
7.449367216453468
 10
2.269389152015182
 20
7.449367216453468
 10
2.315189134901462
 20
7.403567233567187
 10
2.315189134901462
 20
7.380667242124047
 10
2.315189134901462
 20
7.334867259237768
 10
2.269389152015182
 20
7.289067276351488
 10
2.246489160572041
 20
7.289067276351488
 10
2.200689177685761
 20
7.289067276351488
 10
2.177789186242621
 20
7.334867259237768
  0
LWPOLYLINE
  5
70
100
AcDbEntity
  8
USP-GEO
100
AcDbPolyline
 90
       12
 70
   129
 43
0.0
 10
2.177789186242621
 20
8.572611796739488
 10
2.154889194799482
 20
8.61841177962577
 10
2.177789186242621
 20
8.664211762512049
 10
2.200689177685761
 20
8.687111753955189
 10
2.246489160572041
 20
8.710011745398329
 10
2.269389152015182
 20
8.687111753955189
 10
2.315189134901462
 20
8.664211762512049
 10
2.315189134901462
 20
8.61841177962577
 10
2.315189134901462
 20
8.572611796739488
 10
2.269389152015182
 20
8.549711805296348
 10
2.246489160572041
 20
8.549711805296348
 10
2.200689177685761
 20
8.549711805296348
  0
LWPOLYLINE
  5
71
100
AcDbEntity
  8
USP-GEO
100
AcDbPolyline
 90
       12
 70
   129
 43
0.0
 10
3.139588826854506
 20
6.669622507814548
 10
3.093788843968225
 20
6.692522499257687
 10
3.093788843968225
 20
6.738322482143969
 10
3.093788843968225
 20
6.784122465030248
 10
3.139588826854506
 20
6.807022456473388
 10
3.185388809740786
 20
6.829922447916528
 10
3.208288801183925
 20
6.807022456473388
 10
3.254088784070205
 20
6.784122465030248
 10
3.254088784070205
 20
6.738322482143969
 10
3.254088784070205
 20
6.692522499257687
 10
3.208288801183925
 20
6.669622507814548
 10
3.185388809740786
 20
6.669622507814548
  0
LWPOLYLINE
  5
72
100
AcDbEntity
  8
USP-GEO
100
AcDbPolyline
 90
       12
 70
   129
 43
0.0
 10
3.093788843968225
 20
7.998967011088829
 10
3.093788843968225
 20
8.044766993975111
 10
3.139588826854506
 20
8.067666985418251
 10
3.185388809740786
 20
8.067666985418251
 10
3.208288801183925
 20
8.067666985418251
 10
3.254088784070205
 20
8.044766993975111
 10
3.254088784070205
 20
7.998967011088829
 10
3.254088784070205
 20
7.95316702820255
 10
3.208288801183925
 20
7.93026703675941
 10
3.185388809740786
 20
7.90736704531627
 10
3.139588826854506
 20
7.93026703675941
 10
3.093788843968225
 20
7.95316702820255
  0
LWPOLYLINE
  5
73
100
AcDbEntity
  8
USP-GEO
100
AcDbPolyline
 90
       12
 70
   129
 43
0.0
 10
3.093788843968225
 20
9.213811557147412
 10
3.093788843968225
 20
9.236711548590552
 10
3.093788843968225
 20
9.282511531476831
 10
3.139588826854506
 20
9.328311514363113
 10
3.185388809740786
 20
9.328311514363113
 10
3.208288801183925
 20
9.328311514363113
 10
3.254088784070205
 20
9.282511531476831
 10
3.254088784070205
 20
9.236711548590552
 10
3.254088784070205
 20
9.213811557147412
 10
3.208288801183925
 20
9.168011574261131
 10
3.185388809740786
 20
9.168011574261131
 10
3.139588826854506
 20
9.168011574261131
  0
TEXT
  5
74
100
AcDbEntity
  8
USP-TXT
100
AcDbText
 10
-0.9142165270807494
 20
-1.927199504171301
 30
4.196879291630274
 40
0.296875
  1
MUGT15 - FRONT VIEW
 72
     1
 11
1.856616806252582
 21
-1.927199504171301
 31
4.196879291630274
100
AcDbText
  0
LWPOLYLINE
  5
75
100
AcDbEntity
  8
USP-GEO
100
AcDbPolyline
 90
       12
 70
   129
 43
0.0
 10
0.4591448284349582
 20
9.87905630857063
 10
0.482044819878098
 20
9.901956300013772
 10
0.5049448113212396
 20
9.947756282900051
 10
0.5507447942075192
 20
9.947756282900051
 10
0.5965447770937989
 20
9.947756282900051
 10
0.6194447685369387
 20
9.901956300013772
 10
0.6423447599800785
 20
9.87905630857063
 10
0.6194447685369387
 20
9.833256325684351
 10
0.5965447770937989
 20
9.810356334241211
 10
0.5507447942075192
 20
9.787456342798071
 10
0.5049448113212396
 20
9.810356334241211
 10
0.482044819878098
 20
9.833256325684351
  0
LWPOLYLINE
  5
76
100
AcDbEntity
  8
USP-GEO
100
AcDbPolyline
 90
       12
 70
   129
 43
0.0
 10
0.482044819878098
 20
11.07100086318607
 10
0.4591448284349582
 20
11.11680084607235
 10
0.482044819878098
 20
11.16260082895863
 10
0.5049448113212396
 20
11.18550082040177
 10
0.5507447942075192
 20
11.20840081184491
 10
0.5965447770937989
 20
11.18550082040177
 10
0.6194447685369387
 20
11.16260082895863
 10
0.6423447599800785
 20
11.11680084607235
 10
0.6194447685369387
 20
11.07100086318607
 10
0.5965447770937989
 20
11.04810087174293
 10
0.5507447942075192
 20
11.04810087174293
 10
0.5049448113212396
 20
11.04810087174293
  0
LWPOLYLINE
  5
77
100
AcDbEntity
  8
USP-GEO
100
AcDbPolyline
 90
       12
 70
   129
 43
0.0
 10
0.482044819878098
 20
12.33164539213093
 10
0.4591448284349582
 20
12.37744537501721
 10
0.482044819878098
 20
12.42324535790349
 10
0.5049448113212396
 20
12.44614534934663
 10
0.5507447942075192
 20
12.44614534934663
 10
0.5965447770937989
 20
12.44614534934663
 10
0.6194447685369387
 20
12.42324535790349
 10
0.6423447599800785
 20
12.37744537501721
 10
0.6194447685369387
 20
12.33164539213093
 10
0.5965447770937989
 20
12.30874540068779
 10
0.5507447942075192
 20
12.28584540924465
 10
0.5049448113212396
 20
12.30874540068779
  0
LWPOLYLINE
  5
78
100
AcDbEntity
  8
USP-GEO
100
AcDbPolyline
 90
       12
 70
   129
 43
0.0
 10
1.420944469046842
 20
10.45155609464913
 10
1.398044477603702
 20
10.49735607753541
 10
1.420944469046842
 20
10.54315606042169
 10
1.443844460489982
 20
10.56605605186483
 10
1.489644443376262
 20
10.58895604330797
 10
1.535444426262541
 20
10.56605605186483
 10
1.558344417705683
 20
10.54315606042169
 10
1.558344417705683
 20
10.49735607753541
 10
1.558344417705683
 20
10.45155609464913
 10
1.535444426262541
 20
10.42865610320599
 10
1.489644443376262
 20
10.40575611176285
 10
1.443844460489982
 20
10.42865610320599
  0
LWPOLYLINE
  5
79
100
AcDbEntity
  8
USP-GEO
100
AcDbPolyline
 90
       12
 70
   129
 43
0.0
 10
1.420944469046842
 20
11.71220062359399
 10
1.398044477603702
 20
11.75800060648027
 10
1.420944469046842
 20
11.78090059792341
 10
1.443844460489982
 20
11.82670058080969
 10
1.489644443376262
 20
11.82670058080969
 10
1.535444426262541
 20
11.82670058080969
 10
1.558344417705683
 20
11.78090059792341
 10
1.558344417705683
 20
11.75800060648027
 10
1.558344417705683
 20
11.71220062359399
 10
1.535444426262541
 20
11.66640064070771
 10
1.489644443376262
 20
11.66640064070771
 10
1.443844460489982
 20
11.66640064070771
  0
LWPOLYLINE
  5
7A
100
AcDbEntity
  8
USP-GEO
100
AcDbPolyline
 90
       12
 70
   129
 43
0.0
 10
1.420944469046842
 20
12.94994516109571
 10
1.398044477603702
 20
12.99574514398199
 10
1.420944469046842
 20
13.04154512686827
 10
1.443844460489982
 20
13.06444511831141
 10
1.489644443376262
 20
13.08734510975456
 10
1.535444426262541
 20
13.06444511831141
 10
1.558344417705683
 20
13.04154512686827
 10
1.558344417705683
 20
12.99574514398199
 10
1.558344417705683
 20
12.94994516109571
 10
1.535444426262541
 20
12.92704516965257
 10
1.489644443376262
 20
12.92704516965257
 10
1.443844460489982
 20
12.92704516965257
  0
LWPOLYLINE
  5
7B
100
AcDbEntity
  8
USP-GEO
100
AcDbPolyline
 90
       12
 70
   129
 43
0.0
 10
0.4591448284349582
 20
13.61518991251893
 10
0.482044819878098
 20
13.66098989540521
 10
0.5049448113212396
 20
13.70678987829149
 10
0.5507447942075192
 20
13.70678987829149
 10
0.5965447770937989
 20
13.70678987829149
 10
0.6194447685369387
 20
13.66098989540521
 10
0.6423447599800785
 20
13.61518991251893
 10
0.6194447685369387
 20
13.59228992107579
 10
0.5965447770937989
 20
13.54648993818951
 10
0.5507447942075192
 20
13.54648993818951
 10
0.5049448113212396
 20
13.54648993818951
 10
0.482044819878098
 20
13.59228992107579
  0
LWPOLYLINE
  5
7C
100
AcDbEntity
  8
USP-GEO
100
AcDbPolyline
 90
       12
 70
   129
 43
0.0
 10
1.398044477603702
 20
14.25638967292685
 10
1.420944469046842
 20
14.30218965581314
 10
1.443844460489982
 20
14.32508964725628
 10
1.489644443376262
 20
14.32508964725628
 10
1.535444426262541
 20
14.32508964725628
 10
1.558344417705683
 20
14.30218965581314
 10
1.558344417705683
 20
14.25638967292685
 10
1.558344417705683
 20
14.21058969004057
 10
1.535444426262541
 20
14.18768969859743
 10
1.489644443376262
 20
14.16478970715429
 10
1.443844460489982
 20
14.18768969859743
 10
1.420944469046842
 20
14.21058969004057
  0
LWPOLYLINE
  5
7D
100
AcDbEntity
  8
USP-GEO
100
AcDbPolyline
 90
       12
 70
   129
 43
0.0
 10
2.177789186242621
 20
9.833256325684351
 10
2.154889194799482
 20
9.87905630857063
 10
2.177789186242621
 20
9.901956300013772
 10
2.200689177685761
 20
9.947756282900051
 10
2.246489160572041
 20
9.947756282900051
 10
2.269389152015182
 20
9.947756282900051
 10
2.315189134901462
 20
9.901956300013772
 10
2.315189134901462
 20
9.87905630857063
 10
2.315189134901462
 20
9.833256325684351
 10
2.269389152015182
 20
9.810356334241211
 10
2.246489160572041
 20
9.787456342798071
 10
2.200689177685761
 20
9.810356334241211
  0
LWPOLYLINE
  5
7E
100
AcDbEntity
  8
USP-GEO
100
AcDbPolyline
 90
       12
 70
   129
 43
0.0
 10
2.177789186242621
 20
11.07100086318607
 10
2.154889194799482
 20
11.11680084607235
 10
2.177789186242621
 20
11.16260082895863
 10
2.200689177685761
 20
11.18550082040177
 10
2.246489160572041
 20
11.20840081184491
 10
2.269389152015182
 20
11.18550082040177
 10
2.315189134901462
 20
11.16260082895863
 10
2.315189134901462
 20
11.11680084607235
 10
2.315189134901462
 20
11.07100086318607
 10
2.269389152015182
 20
11.04810087174293
 10
2.246489160572041
 20
11.04810087174293
 10
2.200689177685761
 20
11.04810087174293
  0
LWPOLYLINE
  5
7F
100
AcDbEntity
  8
USP-GEO
100
AcDbPolyline
 90
       12
 70
   129
 43
0.0
 10
2.177789186242621
 20
12.33164539213093
 10
2.154889194799482
 20
12.37744537501721
 10
2.177789186242621
 20
12.42324535790349
 10
2.200689177685761
 20
12.44614534934663
 10
2.246489160572041
 20
12.44614534934663
 10
2.269389152015182
 20
12.44614534934663
 10
2.315189134901462
 20
12.42324535790349
 10
2.315189134901462
 20
12.37744537501721
 10
2.315189134901462
 20
12.33164539213093
 10
2.269389152015182
 20
12.30874540068779
 10
2.246489160572041
 20
12.28584540924465
 10
2.200689177685761
 20
12.30874540068779
  0
LWPOLYLINE
  5
80
100
AcDbEntity
  8
USP-GEO
100
AcDbPolyline
 90
       12
 70
   129
 43
0.0
 10
3.093788843968225
 20
10.45155609464913
 10
3.093788843968225
 20
10.49735607753541
 10
3.093788843968225
 20
10.54315606042169
 10
3.139588826854506
 20
10.56605605186483
 10
3.185388809740786
 20
10.58895604330797
 10
3.208288801183925
 20
10.56605605186483
 10
3.254088784070205
 20
10.54315606042169
 10
3.254088784070205
 20
10.49735607753541
 10
3.254088784070205
 20
10.45155609464913
 10
3.208288801183925
 20
10.42865610320599
 10
3.185388809740786
 20
10.40575611176285
 10
3.139588826854506
 20
10.42865610320599
  0
LWPOLYLINE
  5
81
100
AcDbEntity
  8
USP-GEO
100
AcDbPolyline
 90
       12
 70
   129
 43
0.0
 10
3.093788843968225
 20
11.71220062359399
 10
3.093788843968225
 20
11.75800060648027
 10
3.093788843968225
 20
11.78090059792341
 10
3.139588826854506
 20
11.82670058080969
 10
3.185388809740786
 20
11.82670058080969
 10
3.208288801183925
 20
11.82670058080969
 10
3.254088784070205
 20
11.78090059792341
 10
3.254088784070205
 20
11.75800060648027
 10
3.254088784070205
 20
11.71220062359399
 10
3.208288801183925
 20
11.66640064070771
 10
3.185388809740786
 20
11.66640064070771
 10
3.139588826854506
 20
11.66640064070771
  0
LWPOLYLINE
  5
82
100
AcDbEntity
  8
USP-GEO
100
AcDbPolyline
 90
       12
 70
   129
 43
0.0
 10
3.093788843968225
 20
12.99574514398199
 10
3.093788843968225
 20
13.04154512686827
 10
3.139588826854506
 20
13.06444511831141
 10
3.185388809740786
 20
13.08734510975456
 10
3.208288801183925
 20
13.06444511831141
 10
3.254088784070205
 20
13.04154512686827
 10
3.254088784070205
 20
12.99574514398199
 10
3.254088784070205
 20
12.94994516109571
 10
3.208288801183925
 20
12.92704516965257
 10
3.185388809740786
 20
12.92704516965257
 10
3.139588826854506
 20
12.92704516965257
 10
3.093788843968225
 20
12.94994516109571
  0
LWPOLYLINE
  5
83
100
AcDbEntity
  8
USP-GEO
100
AcDbPolyline
 90
       12
 70
   129
 43
0.0
 10
2.246489160572041
 20
13.70678987829149
 10
2.269389152015182
 20
13.70678987829149
 10
2.315189134901462
 20
13.66098989540521
 10
2.315189134901462
 20
13.61518991251893
 10
2.315189134901462
 20
13.59228992107579
 10
2.269389152015182
 20
13.54648993818951
 10
2.246489160572041
 20
13.54648993818951
 10
2.200689177685761
 20
13.54648993818951
 10
2.177789186242621
 20
13.59228992107579
 10
2.154889194799482
 20
13.61518991251893
 10
2.177789186242621
 20
13.66098989540521
 10
2.200689177685761
 20
13.70678987829149
  0
LWPOLYLINE
  5
84
100
AcDbEntity
  8
USP-GEO
100
AcDbPolyline
 90
       12
 70
   129
 43
0.0
 10
3.093788843968225
 20
14.25638967292685
 10
3.093788843968225
 20
14.30218965581314
 10
3.139588826854506
 20
14.32508964725628
 10
3.185388809740786
 20
14.32508964725628
 10
3.208288801183925
 20
14.32508964725628
 10
3.254088784070205
 20
14.30218965581314
 10
3.254088784070205
 20
14.25638967292685
 10
3.254088784070205
 20
14.21058969004057
 10
3.208288801183925
 20
14.18768969859743
 10
3.185388809740786
 20
14.16478970715429
 10
3.139588826854506
 20
14.18768969859743
 10
3.093788843968225
 20
14.21058969004057
  0
ENDBLK
  5
86
100
AcDbEntity
  8
0
100
AcDbBlockEnd
  0
BLOCK
  5
B0
100
AcDbEntity
  8
0
100
AcDbBlockBegin
  2
MUGT15_S
 70
     0
 10
0.0
 20
0.0
 30
0.0
  3
MUGT15_S
  1

  0
LWPOLYLINE
  5
89
100
AcDbEntity
  8
USP-GEO
100
AcDbPolyline
 90
       12
 70
   128
 43
0.0
 10
2.474344075431286
 20
14.25638967292686
 10
2.474344075431286
 20
14.50943457837355
 10
2.359844118215587
 20
14.50943457837355
 10
2.359844118215587
 20
14.25638967292686
 10
2.359844118215587
 20
3.644533638175744
 10
2.359844118215587
 20
3.621633646732604
 10
2.359844118215587
 20
3.598733655289464
 10
2.359844118215587
 20
3.575833663846324
 10
2.359844118215587
 20
3.530033680960045
 10
1.810244323580224
 20
2.796088955207405
 10
1.810244323580224
 20
2.841888938093685
 10
0.0686999743294194
 20
0.5495997946353626
  0
LWPOLYLINE
  5
8A
100
AcDbEntity
  8
USP-GEO
100
AcDbPolyline
 90
        8
 70
   128
 43
0.0
 10
2.474344075431286
 20
3.644533638175744
 10
2.474344075431286
 20
14.25638967292686
 10
2.359844118215587
 20
14.25638967292686
 10
2.359844118215587
 20
3.644533638175744
 10
2.474344075431286
 20
3.644533638175744
 10
2.474344075431286
 20
3.621633646732604
 10
2.474344075431286
 20
3.598733655289464
 10
2.474344075431286
 20
3.575833663846324
  0
LWPOLYLINE
  5
8B
100
AcDbEntity
  8
USP-GEO
100
AcDbPolyline
 90
       11
 70
   128
 43
0.0
 10
2.359844118215587
 20
0.5495997946353626
 10
2.474344075431286
 20
0.5495997946353626
 10
2.474344075431286
 20
3.530033680960045
 10
2.474344075431286
 20
3.575833663846324
 10
2.474344075431286
 20
3.598733655289464
 10
2.474344075431286
 20
3.621633646732604
 10
2.474344075431286
 20
3.644533638175744
 10
2.474344075431286
 20
14.25638967292686
 10
2.474344075431286
 20
14.50943457837355
 10
2.359844118215587
 20
14.50943457837355
 10
2.359844118215587
 20
14.25638967292686
  0
TEXT
  5
8C
100
AcDbEntity
  8
USP-TXT
100
AcDbText
 10
-12.37303641234331
 20
1.810136100197052
 30
-2.357710259759546
 40
0.5
  1
USP MUGT15
 72
     1
 11
-10.03970307900997
 21
1.810136100197052
 31
-2.357710259759546
210
-1.0
220
0.0
230
0.0000000000000001
100
AcDbText
  0
LWPOLYLINE
  5
8D
100
AcDbEntity
  8
USP-GEO
100
AcDbPolyline
 90
       12
 70
   128
 43
0.0
 10
2.359844118215587
 20
0.5495997946353626
 10
2.474344075431286
 20
0.5495997946353626
 10
2.474344075431286
 20
3.530033680960045
 10
2.359844118215587
 20
3.530033680960045
 10
1.810244323580224
 20
2.796088955207405
 10
1.810244323580224
 20
2.841888938093685
 10
0.0686999743294194
 20
0.5495997946353626
 10
0.0457999828862796
 20
0.4808998203059432
 10
0.0228999914431398
 20
0.43509983741966
 10
0.0228999914431398
 20
0.3892998545333803
 10
0.0228999914431398
 20
-0.114499957215699
 10
2.314044135329304
 20
-0.114499957215699
  0
LWPOLYLINE
  5
8E
100
AcDbEntity
  8
USP-GEO
100
AcDbPolyline
 90
        3
 70
   128
 43
0.0
 10
0.0228999914431398
 20
0.3892998545333803
 10
0.0228999914431398
 20
-0.114499957215699
 10
2.314044135329304
 20
-0.114499957215699
  0
LWPOLYLINE
  5
8F
100
AcDbEntity
  8
USP-GEO
100
AcDbPolyline
 90
        4
 70
   128
 43
0.0
 10
0.0
 20
0.0
 10
0.0
 20
0.0228999914431398
 10
0.0
 20
0.0457999828862796
 10
0.0
 20
0.0915999657725593
  0
LWPOLYLINE
  5
90
100
AcDbEntity
  8
USP-GEO
100
AcDbPolyline
 90
        5
 70
   128
 43
0.0
 10
0.0
 20
0.3663998630902405
 10
0.0
 20
0.0915999657725593
 10
0.0
 20
0.0457999828862796
 10
0.0
 20
0.0228999914431398
 10
0.0
 20
0.0
  0
LWPOLYLINE
  5
91
100
AcDbEntity
  8
USP-GEO
100
AcDbPolyline
 90
        2
 70
   129
 43
0.0
 10
0.0228999914431398
 20
0.0
 10
0.0
 20
0.0
  0
LWPOLYLINE
  5
92
100
AcDbEntity
  8
USP-GEO
100
AcDbPolyline
 90
        3
 70
   128
 43
0.0
 10
0.0228999914431398
 20
0.0915999657725593
 10
0.0
 20
0.0915999657725593
 10
0.0
 20
0.3663998630902405
  0
LWPOLYLINE
  5
93
100
AcDbEntity
  8
USP-GEO
100
AcDbPolyline
 90
        2
 70
   129
 43
0.0
 10
0.0
 20
0.3663998630902405
 10
0.0228999914431398
 20
0.3663998630902405
  0
LWPOLYLINE
  5
94
100
AcDbEntity
  8
USP-GEO
100
AcDbPolyline
 90
        4
 70
   128
 43
0.0
 10
1.122099580713864
 20
0.4808998203059432
 10
1.190799555043284
 20
0.503799811749083
 10
1.236599537929564
 20
0.4808998203059432
 10
1.259499529372703
 20
0.4579998288627998
  0
LWPOLYLINE
  5
95
100
AcDbEntity
  8
USP-GEO
100
AcDbPolyline
 90
        3
 70
   128
 43
0.0
 10
1.236599537929564
 20
0.4808998203059432
 10
1.282399520815843
 20
0.43509983741966
 10
1.305299512258983
 20
0.4121998459765202
  0
LWPOLYLINE
  5
96
100
AcDbEntity
  8
USP-GEO
100
AcDbPolyline
 90
       13
 70
   128
 43
0.0
 10
1.282399520815843
 20
0.43509983741966
 10
1.305299512258983
 20
0.3663998630902405
 10
1.282399520815843
 20
0.3205998802039609
 10
1.236599537929564
 20
0.2747998973176813
 10
1.190799555043284
 20
0.2518999058745415
 10
1.122099580713864
 20
0.2747998973176813
 10
1.076299597827585
 20
0.3205998802039609
 10
1.053399606384445
 20
0.3663998630902405
 10
1.076299597827585
 20
0.43509983741966
 10
1.122099580713864
 20
0.4808998203059432
 10
1.099199589270725
 20
0.4808998203059432
 10
1.122099580713864
 20
0.4579998288627998
 10
1.099199589270725
 20
0.4808998203059432
  0
LWPOLYLINE
  5
97
100
AcDbEntity
  8
USP-GEO
100
AcDbPolyline
 90
        3
 70
   128
 43
0.0
 10
1.305299512258983
 20
0.3892998545333803
 10
1.305299512258983
 20
0.3434998716471007
 10
1.282399520815843
 20
0.3205998802039609
  0
LWPOLYLINE
  5
98
100
AcDbEntity
  8
USP-GEO
100
AcDbPolyline
 90
        2
 70
   129
 43
0.0
 10
1.076299597827585
 20
0.3663998630902405
 10
1.282399520815843
 20
0.3663998630902405
  0
LWPOLYLINE
  5
99
100
AcDbEntity
  8
USP-GEO
100
AcDbPolyline
 90
        7
 70
   128
 43
0.0
 10
1.236599537929564
 20
0.3205998802039609
 10
1.259499529372703
 20
0.2976998887608211
 10
1.236599537929564
 20
0.2976998887608211
 10
1.122099580713864
 20
0.2976998887608211
 10
1.099199589270725
 20
0.3205998802039609
 10
1.076299597827585
 20
0.3434998716471007
 10
1.076299597827585
 20
0.3663998630902405
  0
LWPOLYLINE
  5
9A
100
AcDbEntity
  8
USP-GEO
100
AcDbPolyline
 90
        2
 70
   128
 43
0.0
 10
1.190799555043284
 20
0.3892998545333803
 10
1.144999572157004
 20
0.3663998630902405
  0
LWPOLYLINE
  5
9B
100
AcDbEntity
  8
USP-GEO
100
AcDbPolyline
 90
        2
 70
   128
 43
0.0
 10
1.076299597827585
 20
0.4121998459765202
 10
1.076299597827585
 20
0.43509983741966
  0
LWPOLYLINE
  5
9C
100
AcDbEntity
  8
USP-GEO
100
AcDbPolyline
 90
        2
 70
   128
 43
0.0
 10
1.053399606384445
 20
0.3663998630902405
 10
1.053399606384445
 20
0.3434998716471007
  0
LWPOLYLINE
  5
9D
100
AcDbEntity
  8
USP-GEO
100
AcDbPolyline
 90
        4
 70
   128
 43
0.0
 10
1.053399606384445
 20
0.3892998545333803
 10
1.076299597827585
 20
0.3434998716471007
 10
1.076299597827585
 20
0.3205998802039609
 10
1.076299597827585
 20
0.2976998887608211
  0
LWPOLYLINE
  5
9E
100
AcDbEntity
  8
USP-GEO
100
AcDbPolyline
 90
        2
 70
   128
 43
0.0
 10
1.122099580713864
 20
0.2976998887608211
 10
1.076299597827585
 20
0.3205998802039609
  0
LWPOLYLINE
  5
9F
100
AcDbEntity
  8
USP-GEO
100
AcDbPolyline
 90
        2
 70
   128
 43
0.0
 10
1.099199589270725
 20
0.2747998973176813
 10
1.122099580713864
 20
0.2518999058745415
  0
LWPOLYLINE
  5
A0
100
AcDbEntity
  8
USP-GEO
100
AcDbPolyline
 90
        3
 70
   129
 43
0.0
 10
1.236599537929564
 20
0.2976998887608211
 10
1.282399520815843
 20
0.3205998802039609
 10
1.259499529372703
 20
0.2976998887608211
  0
LWPOLYLINE
  5
A1
100
AcDbEntity
  8
USP-GEO
100
AcDbPolyline
 90
        2
 70
   128
 43
0.0
 10
1.167899563600144
 20
0.2518999058745415
 10
1.190799555043284
 20
0.2518999058745415
  0
LWPOLYLINE
  5
A2
100
AcDbEntity
  8
USP-GEO
100
AcDbPolyline
 90
        2
 70
   128
 43
0.0
 10
1.236599537929564
 20
0.2518999058745415
 10
1.259499529372703
 20
0.2747998973176813
  0
LWPOLYLINE
  5
A3
100
AcDbEntity
  8
USP-GEO
100
AcDbPolyline
 90
        2
 70
   128
 43
0.0
 10
1.282399520815843
 20
0.2976998887608211
 10
1.282399520815843
 20
0.3205998802039609
  0
LWPOLYLINE
  5
A4
100
AcDbEntity
  8
USP-GEO
100
AcDbPolyline
 90
        2
 70
   128
 43
0.0
 10
1.305299512258983
 20
0.3434998716471007
 10
1.305299512258983
 20
0.3663998630902405
  0
LWPOLYLINE
  5
A5
100
AcDbEntity
  8
USP-GEO
100
AcDbPolyline
 90
        4
 70
   128
 43
0.0
 10
2.314044135329304
 20
0.3892998545333803
 10
2.314044135329304
 20
0.43509983741966
 10
2.336944126772447
 20
0.4808998203059432
 10
2.359844118215587
 20
0.5495997946353626
  0
LWPOLYLINE
  5
A6
100
AcDbEntity
  8
USP-GEO
100
AcDbPolyline
 90
        2
 70
   128
 43
0.0
 10
2.314044135329304
 20
0.43509983741966
 10
2.336944126772447
 20
0.4808998203059432
  0
LWPOLYLINE
  5
A7
100
AcDbEntity
  8
USP-GEO
100
AcDbPolyline
 90
        2
 70
   129
 43
0.0
 10
2.314044135329304
 20
0.3892998545333803
 10
2.314044135329304
 20
-0.114499957215699
  0
LWPOLYLINE
  5
A8
100
AcDbEntity
  8
USP-GEO
100
AcDbPolyline
 90
        8
 70
   129
 43
0.0
 10
2.314044135329304
 20
0.3663998630902405
 10
2.314044135329304
 20
0.0915999657725593
 10
2.314044135329304
 20
0.0457999828862796
 10
2.314044135329304
 20
0.0228999914431398
 10
2.314044135329304
 20
0.0
 10
2.314044135329304
 20
0.0228999914431398
 10
2.314044135329304
 20
0.0457999828862796
 10
2.314044135329304
 20
0.0915999657725593
  0
LWPOLYLINE
  5
A9
100
AcDbEntity
  8
USP-GEO
100
AcDbPolyline
 90
        2
 70
   129
 43
0.0
 10
2.315189134901462
 20
0.0
 10
2.314044135329304
 20
0.0
  0
LWPOLYLINE
  5
AA
100
AcDbEntity
  8
USP-GEO
100
AcDbPolyline
 90
        2
 70
   128
 43
0.0
 10
2.314044135329304
 20
0.0915999657725593
 10
2.315189134901462
 20
0.0915999657725593
  0
LWPOLYLINE
  5
AB
100
AcDbEntity
  8
USP-GEO
100
AcDbPolyline
 90
        2
 70
   129
 43
0.0
 10
2.315189134901462
 20
0.3663998630902405
 10
2.314044135329304
 20
0.3663998630902405
  0
LWPOLYLINE
  5
AC
100
AcDbEntity
  8
USP-GEO
100
AcDbPolyline
 90
        2
 70
   129
 43
0.0
 10
2.360989117787742
 20
0.5495997946353626
 10
2.359844118215587
 20
0.5495997946353626
  0
LWPOLYLINE
  5
AD
100
AcDbEntity
  8
USP-GEO
100
AcDbPolyline
 90
        4
 70
   128
 43
0.0
 10
2.359844118215587
 20
3.575833663846324
 10
2.359844118215587
 20
3.598733655289464
 10
2.359844118215587
 20
3.621633646732604
 10
2.359844118215587
 20
3.644533638175744
  0
LWPOLYLINE
  5
AE
100
AcDbEntity
  8
USP-GEO
100
AcDbPolyline
 90
        4
 70
   129
 43
0.0
 10
2.474344075431286
 20
3.530033680960045
 10
2.359844118215587
 20
3.530033680960045
 10
2.359844118215587
 20
3.575833663846324
 10
2.474344075431286
 20
3.575833663846324
  0
TEXT
  5
AF
100
AcDbEntity
  8
USP-TXT
100
AcDbText
 10
-1.404444603280444
 20
-2.041699461387
 30
4.196879291630274
 40
0.296875
  1
MUGT15 - SIDE VIEW
 72
     1
 11
1.168472063386222
 21
-2.041699461387
 31
4.196879291630274
100
AcDbText
  0
ENDBLK
  5
B1
100
AcDbEntity
  8
0
100
AcDbBlockEnd
  0
ENDSEC
  0
SECTION
  2
ENTITIES
  0
INSERT
  5
3
100
AcDbEntity
  8
USP
100
AcDbBlockReference
  2
MUGT15_T
 10
1.055693138642526
 20
20.49378653844802
 30
0.0
  0
INSERT
  5
3F
100
AcDbEntity
  8
USP
100
AcDbBlockReference
  2
MUGT15_F
 10
0.9411931814268257
 20
1.927618475922198
 30
0.0
  0
INSERT
  5
87
100
AcDbEntity
  8
USP
100
AcDbBlockReference
  2
MUGT15_S
 10
8.96191518438664
 20
2.042118433137897
 30
0.0
  0
ENDSEC
  0
SECTION
  2
OBJECTS
  0
DICTIONARY
  5
CA
102
{ACAD_XDICTIONARY
360
CB
102
}
100
AcDbDictionary
  3
ACAD_GROUP
350
C8
  3
ACAD_MLINESTYLE
350
C9
  0
DICTIONARY
  5
9
100
AcDbDictionary
280
     1
  3
ACAD_XREC_ROUNDTRIP
360
A
  0
DICTIONARY
  5
39
100
AcDbDictionary
280
     1
  3
ACAD_XREC_ROUNDTRIP
360
3A
  0
DICTIONARY
  5
B2
100
AcDbDictionary
280
     1
  3
ACAD_LAYOUTSELFREF
360
B3
  0
DICTIONARY
  5
B7
100
AcDbDictionary
280
     1
  3
ACAD_LAYOUTSELFREF
360
B8
  0
DICTIONARY
  5
CB
100
AcDbDictionary
280
     1
  3
ACAD_XREC_ROUNDTRIP
360
CC
  0
DICTIONARY
  5
C8
102
{ACAD_REACTORS
330
CA
102
}
100
AcDbDictionary
  0
DICTIONARY
  5
C9
102
{ACAD_REACTORS
330
CA
102
}
100
AcDbDictionary
  3
STANDARD
350
CD
  0
XRECORD
  5
A
102
{ACAD_REACTORS
330
9
102
}
100
AcDbXrecord
102
EXTNAMES
  1
USP-GEO
  2
USP-Geo
  0
XRECORD
  5
3A
102
{ACAD_REACTORS
330
39
102
}
100
AcDbXrecord
102
EXTNAMES
  1
USP-TXT
  2
USP-Txt
  0
XRECORD
  5
B3
102
{ACAD_REACTORS
330
B2
102
}
100
AcDbXrecord
340
18
  0
XRECORD
  5
B8
102
{ACAD_REACTORS
330
B7
102
}
100
AcDbXrecord
340
15
  0
XRECORD
  5
CC
102
{ACAD_REACTORS
330
CB
102
}
100
AcDbXrecord
102
EXTNAMES
  1
ACDBVARIABLEDICTIONARY
  2
AcDbVariableDictionary
  0
MLINESTYLE
  5
CD
102
{ACAD_REACTORS
330
C9
102
}
100
AcDbMlineStyle
  2
STANDARD
 70
     0
  3

 62
     0
 51
90.0
 52
90.0
 71
     2
 49
0.5
 62
   256
  6
BYLAYER
 49
-0.5
 62
   256
  6
BYLAYER
  0
ENDSEC
  0
EOF
