  0
SECTION
  2
HEADER
  9
$ACADVER
  1
AC1014
  9
$ACADMAINTVER
 70
     9
  9
$DWGCODEPAGE
  3
ANSI_1252
  9
$INSBASE
 10
0.0
 20
0.0
 30
0.0
  9
$EXTMIN
 10
0.1827309846257332
 20
0.0030332219697087
 30
0.0
  9
$EXTMAX
 10
13.05020191317449
 20
13.96489596261631
 30
0.0
  9
$LIMMIN
 10
0.0
 20
0.0
  9
$LIMMAX
 10
12.0
 20
9.0
  9
$ORTHOMODE
 70
     1
  9
$REGENMODE
 70
     1
  9
$FILLMODE
 70
     1
  9
$QTEXTMODE
 70
     0
  9
$MIRRTEXT
 70
     0
  9
$DRAGMODE
 70
     2
  9
$LTSCALE
 40
1.5
  9
$OSMODE
 70
     0
  9
$ATTMODE
 70
     1
  9
$TEXTSIZE
 40
0.75
  9
$TRACEWID
 40
0.05
  9
$TEXTSTYLE
  7
STANDARD
  9
$CLAYER
  8
USP
  9
$CELTYPE
  6
BYLAYER
  9
$CECOLOR
 62
   256
  9
$CELTSCALE
 40
1.0
  9
$DELOBJ
 70
     1
  9
$DISPSILH
 70
     1
  9
$DIMSCALE
 40
7.0
  9
$DIMASZ
 40
0.125
  9
$DIMEXO
 40
0.0625
  9
$DIMDLI
 40
0.37890625
  9
$DIMRND
 40
0.0
  9
$DIMDLE
 40
0.0
  9
$DIMEXE
 40
0.09375
  9
$DIMTP
 40
0.0
  9
$DIMTM
 40
0.0
  9
$DIMTXT
 40
0.109375
  9
$DIMCEN
 40
0.0
  9
$DIMTSZ
 40
0.0
  9
$DIMTOL
 70
     0
  9
$DIMLIM
 70
     0
  9
$DIMTIH
 70
     1
  9
$DIMTOH
 70
     1
  9
$DIMSE1
 70
     0
  9
$DIMSE2
 70
     0
  9
$DIMTAD
 70
     0
  9
$DIMZIN
 70
     8
  9
$DIMBLK
  1

  9
$DIMASO
 70
     1
  9
$DIMSHO
 70
     1
  9
$DIMPOST
  1

  9
$DIMAPOST
  1

  9
$DIMALT
 70
     0
  9
$DIMALTD
 70
     2
  9
$DIMALTF
 40
25.4
  9
$DIMLFAC
 40
1.0
  9
$DIMTOFL
 70
     0
  9
$DIMTVP
 40
0.0
  9
$DIMTIX
 70
     0
  9
$DIMSOXD
 70
     0
  9
$DIMSAH
 70
     0
  9
$DIMBLK1
  1

  9
$DIMBLK2
  1

  9
$DIMSTYLE
  2
STANDARD
  9
$DIMCLRD
 70
     0
  9
$DIMCLRE
 70
     0
  9
$DIMCLRT
 70
   256
  9
$DIMTFAC
 40
1.0
  9
$DIMGAP
 40
0.08984375
  9
$DIMJUST
 70
     0
  9
$DIMSD1
 70
     0
  9
$DIMSD2
 70
     0
  9
$DIMTOLJ
 70
     1
  9
$DIMTZIN
 70
     0
  9
$DIMALTZ
 70
     0
  9
$DIMALTTZ
 70
     0
  9
$DIMFIT
 70
     3
  9
$DIMUPT
 70
     1
  9
$DIMUNIT
 70
     7
  9
$DIMDEC
 70
     4
  9
$DIMTDEC
 70
     4
  9
$DIMALTU
 70
     2
  9
$DIMALTTD
 70
     2
  9
$DIMTXSTY
  7
STANDARD
  9
$DIMAUNIT
 70
     0
  9
$LUNITS
 70
     5
  9
$LUPREC
 70
     6
  9
$SKETCHINC
 40
0.1
  9
$FILLETRAD
 40
0.0
  9
$AUNITS
 70
     0
  9
$AUPREC
 70
     1
  9
$MENU
  1
CUSTOM
  9
$ELEVATION
 40
0.0
  9
$PELEVATION
 40
0.0
  9
$THICKNESS
 40
0.0
  9
$LIMCHECK
 70
     0
  9
$BLIPMODE
 70
     0
  9
$CHAMFERA
 40
0.0
  9
$CHAMFERB
 40
0.0
  9
$CHAMFERC
 40
0.0
  9
$CHAMFERD
 40
0.0
  9
$SKPOLY
 70
     0
  9
$TDCREATE
 40
2451263.663231366
  9
$TDUPDATE
 40
2452759.746049074
  9
$TDINDWG
 40
0.4773726968
  9
$TDUSRTIMER
 40
0.4773726968
  9
$USRTIMER
 70
     1
  9
$ANGBASE
 50
0.0
  9
$ANGDIR
 70
     0
  9
$PDMODE
 70
     0
  9
$PDSIZE
 40
0.0
  9
$PLINEWID
 40
0.0
  9
$COORDS
 70
     2
  9
$SPLFRAME
 70
     0
  9
$SPLINETYPE
 70
     6
  9
$SPLINESEGS
 70
     8
  9
$ATTDIA
 70
     0
  9
$ATTREQ
 70
     0
  9
$HANDLING
 70
     1
  9
$HANDSEED
  5
205
  9
$SURFTAB1
 70
     6
  9
$SURFTAB2
 70
     6
  9
$SURFTYPE
 70
     6
  9
$SURFU
 70
     6
  9
$SURFV
 70
     6
  9
$UCSNAME
  2

  9
$UCSORG
 10
0.0
 20
0.0
 30
0.0
  9
$UCSXDIR
 10
1.0
 20
0.0
 30
0.0
  9
$UCSYDIR
 10
0.0
 20
1.0
 30
0.0
  9
$PUCSNAME
  2

  9
$PUCSORG
 10
0.0
 20
0.0
 30
0.0
  9
$PUCSXDIR
 10
1.0
 20
0.0
 30
0.0
  9
$PUCSYDIR
 10
0.0
 20
1.0
 30
0.0
  9
$USERI1
 70
     0
  9
$USERI2
 70
     0
  9
$USERI3
 70
     0
  9
$USERI4
 70
     0
  9
$USERI5
 70
     0
  9
$USERR1
 40
0.0
  9
$USERR2
 40
0.0
  9
$USERR3
 40
0.0
  9
$USERR4
 40
0.0
  9
$USERR5
 40
0.0
  9
$WORLDVIEW
 70
     1
  9
$SHADEDGE
 70
     3
  9
$SHADEDIF
 70
    70
  9
$TILEMODE
 70
     1
  9
$MAXACTVP
 70
    16
  9
$PINSBASE
 10
0.0
 20
0.0
 30
0.0
  9
$PLIMCHECK
 70
     0
  9
$PEXTMIN
 10
1.000000000000000E+20
 20
1.000000000000000E+20
 30
1.000000000000000E+20
  9
$PEXTMAX
 10
-1.000000000000000E+20
 20
-1.000000000000000E+20
 30
-1.000000000000000E+20
  9
$PLIMMIN
 10
0.0
 20
0.0
  9
$PLIMMAX
 10
12.0
 20
9.0
  9
$UNITMODE
 70
     0
  9
$VISRETAIN
 70
     0
  9
$PLINEGEN
 70
     0
  9
$PSLTSCALE
 70
     0
  9
$TREEDEPTH
 70
  3020
  9
$PICKSTYLE
 70
     1
  9
$CMLSTYLE
  2
STANDARD
  9
$CMLJUST
 70
     0
  9
$CMLSCALE
 40
1.0
  9
$PROXYGRAPHICS
 70
     1
  9
$MEASUREMENT
 70
     0
  0
ENDSEC
  0
SECTION
  2
CLASSES
  0
CLASS
  1
ACDBDICTIONARYWDFLT
  2
AcDbDictionaryWithDefault
  3
AutoCAD 2000
 90
        0
280
     1
281
     0
  0
CLASS
  1
ACDBPLACEHOLDER
  2
AcDbPlaceHolder
  3
AutoCAD 2000
 90
        0
280
     1
281
     0
  0
CLASS
  1
LAYOUT
  2
AcDbLayout
  3
AutoCAD 2000
 90
        0
280
     1
281
     0
  0
CLASS
  1
DICTIONARYVAR
  2
AcDbDictionaryVar
  3
"AutoCAD"
 90
        0
280
     1
281
     0
  0
CLASS
  1
LONG_TRANSACTION
  2
AcDbLongTransaction
  3
AutoCAD 2000
 90
        0
280
     1
281
     0
  0
CLASS
  1
LWPOLYLINE
  2
AcDbPolyline
  3
"AutoCAD"
 90
        0
280
     1
281
     1
  0
CLASS
  1
HATCH
  2
AcDbHatch
  3
"ACAD_SEDONA"
 90
        0
280
     1
281
     1
  0
CLASS
  1
XRECORD
  2
AcDbXrecord
  3
"<Built In>"
 90
        0
280
     0
281
     0
  0
CLASS
  1
LONG_TRANSACTION
  2
AcDbLongTransaction
  3
AutoCAD 2000
 90
        0
280
     1
281
     0
  0
CLASS
  1
LWPOLYLINE
  2
AcDbPolyline
  3
"AutoCAD"
 90
        0
280
     1
281
     1
  0
CLASS
  1
HATCH
  2
AcDbHatch
  3
"ACAD_SEDONA"
 90
        0
280
     1
281
     1
  0
CLASS
  1
XRECORD
  2
AcDbXrecord
  3
"<Built In>"
 90
        0
280
     0
281
     0
  0
ENDSEC
  0
SECTION
  2
TABLES
  0
TABLE
  2
VPORT
  5
1EF
100
AcDbSymbolTable
 70
     1
  0
VPORT
  5
201
100
AcDbSymbolTableRecord
100
AcDbViewportTableRecord
  2
*ACTIVE
 70
     0
 10
0.0
 20
0.0
 11
1.0
 21
1.0
 12
-12.31604453942044
 22
17.5433473451887
 13
0.0
 23
0.0
 14
1.0
 24
1.0
 15
0.0
 25
0.0
 16
0.0
 26
0.0
 36
1.0
 17
23.09603071721725
 27
-10.27010416511325
 37
-10.44050274849355
 40
14.54041991621147
 41
1.457627118644067
 42
50.0
 43
10.55307667737539
 44
10.55307667737539
 50
0.0
 51
0.0
 71
     0
 72
   100
 73
     1
 74
     1
 75
     0
 76
     0
 77
     0
 78
     0
  0
ENDTAB
  0
TABLE
  2
LTYPE
  5
1EB
100
AcDbSymbolTable
 70
     1
  0
LTYPE
  5
1EC
100
AcDbSymbolTableRecord
100
AcDbLinetypeTableRecord
  2
BYBLOCK
 70
     0
  3

 72
    65
 73
     0
 40
0.0
  0
LTYPE
  5
6
100
AcDbSymbolTableRecord
100
AcDbLinetypeTableRecord
  2
BYLAYER
 70
     0
  3

 72
    65
 73
     0
 40
0.0
  0
LTYPE
  5
5
100
AcDbSymbolTableRecord
100
AcDbLinetypeTableRecord
  2
CONTINUOUS
 70
     0
  3
Solid line
 72
    65
 73
     0
 40
0.0
  0
ENDTAB
  0
TABLE
  2
LAYER
  5
1E9
100
AcDbSymbolTable
 70
     5
  0
LAYER
  5
D6
100
AcDbSymbolTableRecord
100
AcDbLayerTableRecord
  2
0
 70
     0
 62
     7
  6
CONTINUOUS
  0
LAYER
  5
D
100
AcDbSymbolTableRecord
100
AcDbLayerTableRecord
  2
USP-GEO
 70
     0
 62
     7
  6
CONTINUOUS
  0
LAYER
  5
13
100
AcDbSymbolTableRecord
100
AcDbLayerTableRecord
  2
USP-TXT
 70
     0
 62
     7
  6
CONTINUOUS
  0
LAYER
  5
9
102
{ACAD_XDICTIONARY
360
A
102
}
100
AcDbSymbolTableRecord
100
AcDbLayerTableRecord
  2
USP-HID
 70
     0
 62
     7
  6
CONTINUOUS
  0
LAYER
  5
4
100
AcDbSymbolTableRecord
100
AcDbLayerTableRecord
  2
USP
 70
     0
 62
     7
  6
CONTINUOUS
  0
ENDTAB
  0
TABLE
  2
STYLE
  5
1EA
100
AcDbSymbolTable
 70
     1
  0
STYLE
  5
14
100
AcDbSymbolTableRecord
100
AcDbTextStyleTableRecord
  2
STANDARD
 70
     0
 40
0.0
 41
1.0
 50
0.0
 71
     0
 42
0.75
  3
txt
  4

  0
ENDTAB
  0
TABLE
  2
VIEW
  5
1ED
100
AcDbSymbolTable
 70
     0
  0
ENDTAB
  0
TABLE
  2
UCS
  5
1EE
100
AcDbSymbolTable
 70
     0
  0
ENDTAB
  0
TABLE
  2
APPID
  5
1F1
100
AcDbSymbolTable
 70
     1
  0
APPID
  5
B
100
AcDbSymbolTableRecord
100
AcDbRegAppTableRecord
  2
ACAD
 70
     0
  0
ENDTAB
  0
TABLE
  2
DIMSTYLE
  5
1F2
100
AcDbSymbolTable
 70
     1
  0
DIMSTYLE
105
1F9
100
AcDbSymbolTableRecord
100
AcDbDimStyleTableRecord
  2
STANDARD
 70
     0
  3

  4

  5

  6

  7

 40
1.0
 41
0.18
 42
0.0625
 43
0.38
 44
0.18
 45
0.0
 46
0.0
 47
0.0
 48
0.0
140
0.18
141
0.09
142
0.0
143
25.4
144
1.0
145
0.0
146
1.0
147
0.09
 71
     0
 72
     0
 73
     1
 74
     1
 75
     0
 76
     0
 77
     0
 78
     0
170
     0
171
     2
172
     0
173
     0
174
     0
175
     0
176
     0
177
     0
178
     0
270
     2
271
     4
272
     4
273
     2
274
     2
340
14
275
     0
280
     0
281
     0
282
     0
283
     1
284
     0
285
     0
286
     0
287
     3
288
     0
  0
ENDTAB
  0
TABLE
  2
BLOCK_RECORD
  5
1
100
AcDbSymbolTable
 70
     3
  0
BLOCK_RECORD
  5
2
102
{ACAD_XDICTIONARY
360
1E2
102
}
100
AcDbSymbolTableRecord
100
AcDbBlockTableRecord
  2
*MODEL_SPACE
  0
BLOCK_RECORD
  5
1E5
102
{ACAD_XDICTIONARY
360
1E6
102
}
100
AcDbSymbolTableRecord
100
AcDbBlockTableRecord
  2
*PAPER_SPACE
  0
BLOCK_RECORD
  5
7
100
AcDbSymbolTableRecord
100
AcDbBlockTableRecord
  2
MP9_S
  0
BLOCK_RECORD
  5
D9
100
AcDbSymbolTableRecord
100
AcDbBlockTableRecord
  2
MP9_T
  0
BLOCK_RECORD
  5
FE
100
AcDbSymbolTableRecord
100
AcDbBlockTableRecord
  2
MP9_F
  0
ENDTAB
  0
ENDSEC
  0
SECTION
  2
BLOCKS
  0
BLOCK
  5
1E3
100
AcDbEntity
  8
0
100
AcDbBlockBegin
  2
*MODEL_SPACE
 70
     0
 10
0.0
 20
0.0
 30
0.0
  3
*MODEL_SPACE
  1

  0
ENDBLK
  5
1E4
100
AcDbEntity
  8
0
100
AcDbBlockEnd
  0
BLOCK
  5
1E7
100
AcDbEntity
 67
     1
  8
0
100
AcDbBlockBegin
  2
*PAPER_SPACE
 70
     0
 10
0.0
 20
0.0
 30
0.0
  3
*PAPER_SPACE
  1

  0
ENDBLK
  5
1E8
100
AcDbEntity
 67
     1
  8
0
100
AcDbBlockEnd
  0
BLOCK
  5
D5
100
AcDbEntity
  8
0
100
AcDbBlockBegin
  2
MP9_S
 70
     0
 10
0.0
 20
0.0
 30
0.0
  3
MP9_S
  1

  0
LINE
  5
8
100
AcDbEntity
  8
USP-HID
100
AcDbLine
 10
2.230972008347581
 20
5.970388347648317
 30
0.0
 11
1.564477071761471
 21
5.293611652351678
 31
0.0
  0
LINE
  5
C
100
AcDbEntity
  8
USP-GEO
100
AcDbLine
 10
0.0520000000000014
 20
5.970388347648317
 30
0.0
 11
0.0520000000000012
 21
5.293611652351677
 31
0.0
  0
LINE
  5
E
100
AcDbEntity
  8
USP-GEO
100
AcDbLine
 10
0.0000000000000016
 20
5.293611652351677
 30
0.0
 11
0.0000000000000018
 21
5.970388347648317
 31
0.0
  0
LINE
  5
F
100
AcDbEntity
  8
USP-GEO
100
AcDbLine
 10
0.1437819319492011
 20
5.380500000011153
 30
0.0
 11
0.1437819319397793
 21
5.943502673807962
 31
0.0
  0
LINE
  5
10
100
AcDbEntity
  8
USP-GEO
100
AcDbLine
 10
0.1528116371878809
 20
5.380500000011153
 30
0.0
 11
0.1528116371784591
 21
5.943502673807962
 31
0.0
  0
LINE
  5
11
100
AcDbEntity
  8
USP-GEO
100
AcDbLine
 10
2.240001713586261
 20
5.970388347648317
 30
0.0
 11
1.573506777000151
 21
5.293611652351678
 31
0.0
  0
TEXT
  5
12
100
AcDbEntity
  8
USP-TXT
100
AcDbText
 10
-1.013054756996941
 20
-1.26632587095068
 30
0.0
 40
0.296875
  1
MP9 - SIDE VIEW
 72
     1
 11
1.164028576336392
 21
-1.26632587095068
 31
0.0
100
AcDbText
  0
ELLIPSE
  5
15
100
AcDbEntity
  8
USP-HID
100
AcDbEllipse
 10
1.255629885090565
 20
4.481999999999992
 30
0.0
 11
0.0
 21
0.082
 31
0.0
210
0.0
220
0.0
230
1.0
 40
0.9848077530122079
 41
0.0
 42
3.141592653589793
  0
LINE
  5
16
100
AcDbEntity
  8
USP-GEO
100
AcDbLine
 10
2.276057152672784
 20
-0.0000000000000711
 30
0.0
 11
0.0519999999999992
 21
-0.0000000000000286
 31
0.0
  0
LINE
  5
17
100
AcDbEntity
  8
USP-GEO
100
AcDbLine
 10
0.0519999999999996
 20
1.345388347648319
 30
0.0
 11
0.0519999999999996
 21
1.433776695296636
 31
0.0
  0
LINE
  5
18
100
AcDbEntity
  8
USP-GEO
100
AcDbLine
 10
0.0
 20
1.345388347648319
 30
0.0
 11
0.0
 21
1.433776695296636
 31
0.0
  0
ELLIPSE
  5
19
100
AcDbEntity
  8
USP-GEO
100
AcDbEllipse
 10
0.0517024070331438
 20
1.319501336898401
 30
0.0
 11
0.0
 21
-0.0935000000095601
 31
0.0
210
0.0
220
0.0
230
1.0
 40
0.9848077530122081
 41
1.570796326794896
 42
3.138360735471165
  0
ELLIPSE
  5
1A
100
AcDbEntity
  8
USP-GEO
100
AcDbEllipse
 10
0.0607321122718236
 20
1.319501336898401
 30
0.0
 11
0.0
 21
0.0935000000095601
 31
0.0
210
0.0
220
0.0
230
1.0
 40
0.9848077530122081
 41
-1.570796326794896
 42
-0.0000000000000002
  0
LINE
  5
1B
100
AcDbEntity
  8
USP-GEO
100
AcDbLine
 10
0.0519999999999996
 20
0.0
 30
0.0
 11
0.0519999999999996
 21
0.5802233047033596
 31
0.0
  0
LINE
  5
1C
100
AcDbEntity
  8
USP-GEO
100
AcDbLine
 10
0.0
 20
0.0
 30
0.0
 11
0.0
 21
0.5802233047033596
 31
0.0
  0
LINE
  5
1D
100
AcDbEntity
  8
USP-GEO
100
AcDbLine
 10
0.0519999999999996
 20
0.0
 30
0.0
 11
0.0000000000000053
 21
0.0
 31
0.0
  0
LINE
  5
1E
100
AcDbEntity
  8
USP-GEO
100
AcDbLine
 10
0.0519999999999996
 20
0.6686116523516788
 30
0.0
 11
0.0519999999999996
 21
1.34538834764832
 31
0.0
  0
LINE
  5
1F
100
AcDbEntity
  8
USP-GEO
100
AcDbLine
 10
0.0
 20
0.6686116523516788
 30
0.0
 11
0.0
 21
1.34538834764832
 31
0.0
  0
LINE
  5
20
100
AcDbEntity
  8
USP-GEO
100
AcDbLine
 10
0.1437819319397828
 20
0.7564986631015885
 30
0.0
 11
0.1437819319397759
 21
1.319501336898404
 31
0.0
  0
LINE
  5
21
100
AcDbEntity
  8
USP-GEO
100
AcDbLine
 10
0.1528116371784645
 20
0.7564986631015885
 30
0.0
 11
0.1528116371784576
 21
1.319501336898404
 31
0.0
  0
ELLIPSE
  5
22
100
AcDbEntity
  8
USP-GEO
100
AcDbEllipse
 10
0.0517024070331438
 20
0.7564986631015849
 30
0.0
 11
0.0
 21
-0.0935000000095601
 31
0.0
210
0.0
220
0.0
230
1.0
 40
0.9848077530122081
 41
0.0032319181186277
 42
1.570796326794896
  0
ELLIPSE
  5
23
100
AcDbEntity
  8
USP-GEO
100
AcDbEllipse
 10
0.0607321122718236
 20
0.7564986631015849
 30
0.0
 11
0.0
 21
0.0935000000095601
 31
0.0
210
0.0
220
0.0
230
1.0
 40
0.9848077530122081
 41
3.136245034520736
 42
4.712388980384746
  0
LINE
  5
24
100
AcDbEntity
  8
USP-HID
100
AcDbLine
 10
0.0519999999999996
 20
0.75
 30
0.0
 11
0.0
 21
0.75
 31
0.0
  0
LINE
  5
25
100
AcDbEntity
  8
USP-HID
100
AcDbLine
 10
0.0519999999999996
 20
0.6629999999999825
 30
0.0
 11
0.0
 21
0.6629999999999825
 31
0.0
  0
ELLIPSE
  5
26
100
AcDbEntity
  8
USP-HID
100
AcDbEllipse
 10
0.0517024070331438
 20
0.7564986631015849
 30
0.0
 11
0.0
 21
-0.0935000000095601
 31
0.0
210
0.0
220
0.0
230
1.0
 40
0.9848077530122081
 41
-0.0053476190690572
 42
0.0032319181186275
  0
LINE
  5
27
100
AcDbEntity
  8
USP-HID
100
AcDbLine
 10
0.0517024070331436
 20
0.6629986630920249
 30
0.0
 11
0.0607321122718236
 21
0.6629986630920249
 31
0.0
  0
LINE
  5
28
100
AcDbEntity
  8
USP-GEO
100
AcDbLine
 10
0.0519999999999996
 20
0.6686116523516781
 30
0.0
 11
0.0519999999999996
 21
0.5802233047033596
 31
0.0
  0
LINE
  5
29
100
AcDbEntity
  8
USP-GEO
100
AcDbLine
 10
0.0
 20
0.5802233047033596
 30
0.0
 11
0.0
 21
0.6686116523516781
 31
0.0
  0
LINE
  5
2A
100
AcDbEntity
  8
USP-GEO
100
AcDbLine
 10
0.0519999999999992
 20
0.662999999999979
 30
0.0
 11
0.0602397083954021
 21
0.6629999999999788
 31
0.0
  0
LINE
  5
2B
100
AcDbEntity
  8
USP-HID
100
AcDbLine
 10
0.0519999999999996
 20
0.9140000000000014
 30
0.0
 11
0.0
 21
0.9140000000000014
 31
0.0
  0
LINE
  5
2C
100
AcDbEntity
  8
USP-HID
100
AcDbLine
 10
0.0028356409098205
 20
4.036999999999999
 30
0.0
 11
0.0028356409098205
 21
3.475002673816135
 31
0.0
  0
LINE
  5
2D
100
AcDbEntity
  8
USP-GEO
100
AcDbLine
 10
0.0519999999999996
 20
2.808776695296636
 30
0.0
 11
0.0519999999999996
 21
3.830223304703359
 31
0.0
  0
LINE
  5
2E
100
AcDbEntity
  8
USP-GEO
100
AcDbLine
 10
0.0
 20
2.808776695296636
 30
0.0
 11
0.0
 21
3.830223304703359
 31
0.0
  0
LINE
  5
2F
100
AcDbEntity
  8
USP-GEO
100
AcDbLine
 10
0.0519999999999996
 20
2.72038834764832
 30
0.0
 11
0.0519999999999996
 21
2.043611652351679
 31
0.0
  0
LINE
  5
30
100
AcDbEntity
  8
USP-GEO
100
AcDbLine
 10
0.0
 20
2.04361165235168
 30
0.0
 11
0.0
 21
2.720388347648321
 31
0.0
  0
ELLIPSE
  5
31
100
AcDbEntity
  8
USP-GEO
100
AcDbEllipse
 10
0.0517024070331438
 20
2.350501336898407
 30
0.0
 11
0.0
 21
-0.0935000000095601
 31
0.0
210
0.0
220
0.0
230
1.0
 40
0.9848077530122081
 41
1.570796326811881
 42
3.138360735471165
  0
ELLIPSE
  5
32
100
AcDbEntity
  8
USP-GEO
100
AcDbEllipse
 10
0.0607321122718236
 20
2.350501336898407
 30
0.0
 11
0.0
 21
0.0935000000095601
 31
0.0
210
0.0
220
0.0
230
1.0
 40
0.9848077530122081
 41
-1.570796326777911
 42
-0.0000000000000002
  0
LINE
  5
33
100
AcDbEntity
  8
USP-GEO
100
AcDbLine
 10
0.0519999999999996
 20
1.955223304703359
 30
0.0
 11
0.0519999999999994
 21
1.433776695296636
 31
0.0
  0
LINE
  5
34
100
AcDbEntity
  8
USP-GEO
100
AcDbLine
 10
-0.0000000000000002
 20
1.433776695296636
 30
0.0
 11
0.0
 21
1.955223304703359
 31
0.0
  0
LINE
  5
35
100
AcDbEntity
  8
USP-GEO
100
AcDbLine
 10
0.1437819319491993
 20
1.787498663103178
 30
0.0
 11
0.1437819319397762
 21
2.350501336899995
 31
0.0
  0
LINE
  5
36
100
AcDbEntity
  8
USP-GEO
100
AcDbLine
 10
0.1528116371878809
 20
1.787498663103178
 30
0.0
 11
0.1528116371784578
 21
2.350501336899995
 31
0.0
  0
LINE
  5
37
100
AcDbEntity
  8
USP-HID
100
AcDbLine
 10
0.0028356409098222
 20
1.693998663092035
 30
0.0
 11
0.0028356409098222
 21
1.413001336907964
 31
0.0
  0
LINE
  5
38
100
AcDbEntity
  8
USP-HID
100
AcDbLine
 10
0.0519999999999996
 20
1.599999999999987
 30
0.0
 11
0.0
 21
1.599999999999987
 31
0.0
  0
LINE
  5
39
100
AcDbEntity
  8
USP-HID
100
AcDbLine
 10
0.0519999999999996
 20
1.413001336907967
 30
0.0
 11
0.0
 21
1.413001336907967
 31
0.0
  0
ELLIPSE
  5
3A
100
AcDbEntity
  8
USP-HID
100
AcDbEllipse
 10
0.0517024070331438
 20
1.319501336898401
 30
0.0
 11
0.0
 21
-0.0935000000095601
 31
0.0
210
0.0
220
0.0
230
1.0
 40
0.9848077530122081
 41
3.138360735471165
 42
3.141592653589793
  0
LINE
  5
3B
100
AcDbEntity
  8
USP-GEO
100
AcDbLine
 10
0.0607321122718236
 20
1.413001336907964
 30
0.0
 11
0.0519999999999994
 21
1.413001336907964
 31
0.0
  0
ELLIPSE
  5
3C
100
AcDbEntity
  8
USP-GEO
100
AcDbEllipse
 10
0.0517024070331438
 20
1.78749866310159
 30
0.0
 11
0.0
 21
-0.0935000000095601
 31
0.0
210
0.0
220
0.0
230
1.0
 40
0.9848077530122081
 41
0.0032319181185892
 42
1.570796326811881
  0
ELLIPSE
  5
3D
100
AcDbEntity
  8
USP-GEO
100
AcDbEllipse
 10
0.0607321122718236
 20
1.78749866310159
 30
0.0
 11
0.0
 21
0.0935000000095601
 31
0.0
210
0.0
220
0.0
230
1.0
 40
0.9848077530122081
 41
3.141592653589793
 42
4.712388980401731
  0
LINE
  5
3E
100
AcDbEntity
  8
USP-HID
100
AcDbLine
 10
0.0519999999999996
 20
1.763999999999995
 30
0.0
 11
0.0
 21
1.763999999999995
 31
0.0
  0
LINE
  5
3F
100
AcDbEntity
  8
USP-HID
100
AcDbLine
 10
0.0519999999999996
 20
1.693998663092035
 30
0.0
 11
0.0
 21
1.693998663092035
 31
0.0
  0
ELLIPSE
  5
40
100
AcDbEntity
  8
USP-HID
100
AcDbEllipse
 10
0.0517024070331438
 20
1.78749866310159
 30
0.0
 11
0.0
 21
-0.0935000000095601
 31
0.0
210
0.0
220
0.0
230
1.0
 40
0.9848077530122081
 41
0.0
 42
0.0032319181185892
  0
LINE
  5
41
100
AcDbEntity
  8
USP-GEO
100
AcDbLine
 10
0.0519999999999996
 20
1.693998663092031
 30
0.0
 11
0.0607321122718239
 21
1.693998663092031
 31
0.0
  0
LINE
  5
42
100
AcDbEntity
  8
USP-GEO
100
AcDbLine
 10
0.0519999999999996
 20
1.955223304703359
 30
0.0
 11
0.0519999999999996
 21
2.043611652351677
 31
0.0
  0
LINE
  5
43
100
AcDbEntity
  8
USP-GEO
100
AcDbLine
 10
0.0
 20
1.955223304703359
 30
0.0
 11
0.0
 21
2.043611652351677
 31
0.0
  0
LINE
  5
44
100
AcDbEntity
  8
USP-GEO
100
AcDbLine
 10
0.1437819319492011
 20
2.818500000011145
 30
0.0
 11
0.1437819319397715
 21
3.381502673808164
 31
0.0
  0
LINE
  5
45
100
AcDbEntity
  8
USP-GEO
100
AcDbLine
 10
0.1528116371878809
 20
2.818500000011145
 30
0.0
 11
0.1528116371784514
 21
3.381502673808164
 31
0.0
  0
LINE
  5
46
100
AcDbEntity
  8
USP-HID
100
AcDbLine
 10
0.0028356409098205
 20
2.724999999999997
 30
0.0
 11
0.0028356409098205
 21
2.44400133690797
 31
0.0
  0
LINE
  5
47
100
AcDbEntity
  8
USP-HID
100
AcDbLine
 10
0.0519999999999996
 20
2.444001336907973
 30
0.0
 11
0.0
 21
2.444001336907973
 31
0.0
  0
ELLIPSE
  5
48
100
AcDbEntity
  8
USP-HID
100
AcDbEllipse
 10
0.0517024070331438
 20
2.350501336898407
 30
0.0
 11
0.0
 21
-0.0935000000095601
 31
0.0
210
0.0
220
0.0
230
1.0
 40
0.9848077530122081
 41
3.138360735471165
 42
3.141592653589793
  0
LINE
  5
49
100
AcDbEntity
  8
USP-GEO
100
AcDbLine
 10
0.0607321122718236
 20
2.44400133690797
 30
0.0
 11
0.0519999999999994
 21
2.44400133690797
 31
0.0
  0
ELLIPSE
  5
4A
100
AcDbEntity
  8
USP-GEO
100
AcDbEllipse
 10
0.0517024070331438
 20
2.818500000009553
 30
0.0
 11
0.0
 21
-0.0935000000095601
 31
0.0
210
0.0
220
0.0
230
1.0
 40
0.9848077530122081
 41
0.0032319181186277
 42
1.570796326811919
  0
ELLIPSE
  5
4B
100
AcDbEntity
  8
USP-GEO
100
AcDbEllipse
 10
0.0607321122718236
 20
2.818500000009553
 30
0.0
 11
0.0
 21
0.0935000000095601
 31
0.0
210
0.0
220
0.0
230
1.0
 40
0.9848077530122081
 41
3.141592653589793
 42
4.712388980401769
  0
LINE
  5
4C
100
AcDbEntity
  8
USP-HID
100
AcDbLine
 10
0.0519999999999996
 20
2.724999999999997
 30
0.0
 11
0.0
 21
2.724999999999997
 31
0.0
  0
ELLIPSE
  5
4D
100
AcDbEntity
  8
USP-HID
100
AcDbEllipse
 10
0.0517024070331438
 20
2.818500000009553
 30
0.0
 11
0.0
 21
-0.0935000000095601
 31
0.0
210
0.0
220
0.0
230
1.0
 40
0.9848077530122081
 41
0.0
 42
0.0032319181186277
  0
LINE
  5
4E
100
AcDbEntity
  8
USP-GEO
100
AcDbLine
 10
0.0519999999999996
 20
2.808776695296636
 30
0.0
 11
0.0519999999999996
 21
2.720388347648319
 31
0.0
  0
LINE
  5
4F
100
AcDbEntity
  8
USP-GEO
100
AcDbLine
 10
0.0
 20
2.720388347648319
 30
0.0
 11
0.0
 21
2.808776695296636
 31
0.0
  0
LINE
  5
50
100
AcDbEntity
  8
USP-GEO
100
AcDbLine
 10
0.0607321122718236
 20
2.724999999999994
 30
0.0
 11
0.0519999999999994
 21
2.724999999999994
 31
0.0
  0
LINE
  5
51
100
AcDbEntity
  8
USP-HID
100
AcDbLine
 10
0.0519999999999996
 20
3.249999999999996
 30
0.0
 11
0.0
 21
3.249999999999996
 31
0.0
  0
ELLIPSE
  5
52
100
AcDbEntity
  8
USP-GEO
100
AcDbEllipse
 10
0.0517024070331438
 20
3.381502673806579
 30
0.0
 11
0.0
 21
-0.0935000000095601
 31
0.0
210
0.0
220
0.0
230
1.0
 40
0.9848077530122081
 41
1.570796326811843
 42
3.138360735471165
  0
ELLIPSE
  5
53
100
AcDbEntity
  8
USP-GEO
100
AcDbEllipse
 10
0.0607321122718236
 20
3.381502673806579
 30
0.0
 11
0.0
 21
0.0935000000095601
 31
0.0
210
0.0
220
0.0
230
1.0
 40
0.9848077530122081
 41
-1.570796326777949
 42
-0.0000000000000002
  0
LINE
  5
54
100
AcDbEntity
  8
USP-HID
100
AcDbLine
 10
0.0519999999999996
 20
3.413999999999994
 30
0.0
 11
0.0
 21
3.413999999999994
 31
0.0
  0
LINE
  5
55
100
AcDbEntity
  8
USP-HID
100
AcDbLine
 10
0.0519999999999996
 20
3.475002673816142
 30
0.0
 11
0.0
 21
3.475002673816142
 31
0.0
  0
ELLIPSE
  5
56
100
AcDbEntity
  8
USP-HID
100
AcDbEllipse
 10
0.0517024070331438
 20
3.381502673806579
 30
0.0
 11
0.0
 21
-0.0935000000095601
 31
0.0
210
0.0
220
0.0
230
1.0
 40
0.9848077530122081
 41
3.138360735471165
 42
3.141592653589793
  0
LINE
  5
57
100
AcDbEntity
  8
USP-GEO
100
AcDbLine
 10
0.0519999999999996
 20
3.475002673816135
 30
0.0
 11
0.0607321122718239
 21
3.475002673816136
 31
0.0
  0
ELLIPSE
  5
58
100
AcDbEntity
  8
USP-HID
100
AcDbEllipse
 10
0.9109471715362964
 20
1.831999999999997
 30
0.0
 11
0.0
 21
0.082
 31
0.0
210
0.0
220
0.0
230
1.0
 40
0.9848077530122079
 41
0.0
 42
3.141592653589793
  0
ELLIPSE
  5
59
100
AcDbEntity
  8
USP-GEO
100
AcDbEllipse
 10
0.9641267901989518
 20
1.832000000000011
 30
0.0
 11
0.0
 21
0.082
 31
0.0
210
0.0
220
0.0
230
1.0
 40
0.9848077530122079
 41
3.141592653589793
 42
6.283185307179641
  0
ELLIPSE
  5
5A
100
AcDbEntity
  8
USP-GEO
100
AcDbEllipse
 10
0.919976876774978
 20
1.831999999999997
 30
0.0
 11
0.0
 21
-0.082
 31
0.0
210
0.0
220
0.0
230
1.0
 40
0.9848077530122079
 41
3.141592653589793
 42
6.283185307179641
  0
ELLIPSE
  5
5B
100
AcDbEntity
  8
USP-GEO
100
AcDbEllipse
 10
0.9731564954376317
 20
1.832000000000011
 30
0.0
 11
0.0
 21
-0.082
 31
0.0
210
0.0
220
0.0
230
1.0
 40
0.9848077530122079
 41
0.0
 42
3.141592653589793
  0
LINE
  5
5C
100
AcDbEntity
  8
USP-GEO
100
AcDbLine
 10
0.919976876774978
 20
1.750000000000022
 30
0.0
 11
0.9731564954376317
 21
1.750000000000013
 31
0.0
  0
LINE
  5
5D
100
AcDbEntity
  8
USP-HID
100
AcDbLine
 10
0.919976876774978
 20
1.75
 30
0.0
 11
0.9109471715362978
 21
1.75
 31
0.0
  0
LINE
  5
5E
100
AcDbEntity
  8
USP-GEO
100
AcDbLine
 10
0.9731564954376317
 20
1.914000000000011
 30
0.0
 11
0.9199768767749784
 21
1.913999999999997
 31
0.0
  0
LINE
  5
5F
100
AcDbEntity
  8
USP-HID
100
AcDbLine
 10
0.919976876774978
 20
1.913999999999997
 30
0.0
 11
0.9109471715362978
 21
1.913999999999997
 31
0.0
  0
LINE
  5
60
100
AcDbEntity
  8
USP-GEO
100
AcDbLine
 10
0.0520000000000014
 20
4.595388347648303
 30
0.0
 11
0.0520000000000014
 21
4.683776695296621
 31
0.0
  0
LINE
  5
61
100
AcDbEntity
  8
USP-GEO
100
AcDbLine
 10
0.0
 20
4.595388347648303
 30
0.0
 11
0.0
 21
4.683776695296621
 31
0.0
  0
LINE
  5
62
100
AcDbEntity
  8
USP-GEO
100
AcDbLine
 10
0.1437819319492011
 20
4.130500000011139
 30
0.0
 11
0.1437819319397791
 21
4.693502673807955
 31
0.0
  0
LINE
  5
63
100
AcDbEntity
  8
USP-GEO
100
AcDbLine
 10
0.1528116371878809
 20
4.130500000011139
 30
0.0
 11
0.1528116371784589
 21
4.693502673807955
 31
0.0
  0
LINE
  5
64
100
AcDbEntity
  8
USP-GEO
100
AcDbLine
 10
0.0519999999999996
 20
3.918611652351678
 30
0.0
 11
0.0520000000000005
 21
4.595388347648303
 31
0.0
  0
LINE
  5
65
100
AcDbEntity
  8
USP-GEO
100
AcDbLine
 10
0.0
 20
3.918611652351678
 30
0.0
 11
0.0000000000000009
 21
4.595388347648303
 31
0.0
  0
ELLIPSE
  5
66
100
AcDbEntity
  8
USP-GEO
100
AcDbEllipse
 10
0.0517024070331438
 20
4.130500000009554
 30
0.0
 11
0.0
 21
-0.0935000000095601
 31
0.0
210
0.0
220
0.0
230
1.0
 40
0.9848077530122081
 41
0.0032319181186277
 42
1.570796326811843
  0
ELLIPSE
  5
67
100
AcDbEntity
  8
USP-GEO
100
AcDbEllipse
 10
0.0607321122718236
 20
4.130500000009554
 30
0.0
 11
0.0
 21
0.0935000000095601
 31
0.0
210
0.0
220
0.0
230
1.0
 40
0.9848077530122081
 41
3.141592653589793
 42
4.712388980401688
  0
LINE
  5
68
100
AcDbEntity
  8
USP-HID
100
AcDbLine
 10
0.0519999999999996
 20
4.036999999999999
 30
0.0
 11
0.0
 21
4.036999999999999
 31
0.0
  0
ELLIPSE
  5
69
100
AcDbEntity
  8
USP-HID
100
AcDbEllipse
 10
0.0517024070331438
 20
4.130500000009554
 30
0.0
 11
0.0
 21
-0.0935000000095601
 31
0.0
210
0.0
220
0.0
230
1.0
 40
0.9848077530122081
 41
0.0
 42
0.0032319181186277
  0
LINE
  5
6A
100
AcDbEntity
  8
USP-GEO
100
AcDbLine
 10
0.0519999999999996
 20
3.918611652351677
 30
0.0
 11
0.0519999999999996
 21
3.830223304703359
 31
0.0
  0
LINE
  5
6B
100
AcDbEntity
  8
USP-GEO
100
AcDbLine
 10
0.0
 20
3.830223304703359
 30
0.0
 11
0.0
 21
3.918611652351677
 31
0.0
  0
LINE
  5
6C
100
AcDbEntity
  8
USP-GEO
100
AcDbLine
 10
0.0607321122718236
 20
4.036999999999991
 30
0.0
 11
0.0519999999999994
 21
4.036999999999991
 31
0.0
  0
LINE
  5
6D
100
AcDbEntity
  8
USP-HID
100
AcDbLine
 10
0.0520000000000014
 20
4.54999999999999
 30
0.0
 11
0.0
 21
4.54999999999999
 31
0.0
  0
LINE
  5
6E
100
AcDbEntity
  8
USP-HID
100
AcDbLine
 10
0.0028356409098205
 20
5.287000000000013
 30
0.0
 11
0.0028356409098205
 21
4.787002673815926
 31
0.0
  0
LINE
  5
6F
100
AcDbEntity
  8
USP-GEO
100
AcDbLine
 10
0.0520000000000014
 20
4.683776695296621
 30
0.0
 11
0.0520000000000014
 21
5.205223304703359
 31
0.0
  0
LINE
  5
70
100
AcDbEntity
  8
USP-GEO
100
AcDbLine
 10
0.0
 20
4.683776695296621
 30
0.0
 11
0.0
 21
5.205223304703359
 31
0.0
  0
ELLIPSE
  5
71
100
AcDbEntity
  8
USP-GEO
100
AcDbEllipse
 10
0.0517024070331456
 20
4.693502673806371
 30
0.0
 11
0.0
 21
-0.0935000000095601
 31
0.0
210
0.0
220
0.0
230
1.0
 40
0.9848077530122081
 41
1.570796326811843
 42
3.138360735471165
  0
ELLIPSE
  5
72
100
AcDbEntity
  8
USP-GEO
100
AcDbEllipse
 10
0.0607321122718254
 20
4.693502673806371
 30
0.0
 11
0.0
 21
0.0935000000095601
 31
0.0
210
0.0
220
0.0
230
1.0
 40
0.9848077530122081
 41
-1.570796326777949
 42
-0.0000000000000002
  0
LINE
  5
73
100
AcDbEntity
  8
USP-HID
100
AcDbLine
 10
0.0520000000000014
 20
4.713999999999991
 30
0.0
 11
0.0
 21
4.713999999999991
 31
0.0
  0
LINE
  5
74
100
AcDbEntity
  8
USP-HID
100
AcDbLine
 10
0.0520000000000014
 20
4.787002673815933
 30
0.0
 11
0.0
 21
4.787002673815933
 31
0.0
  0
ELLIPSE
  5
75
100
AcDbEntity
  8
USP-HID
100
AcDbEllipse
 10
0.0517024070331456
 20
4.693502673806371
 30
0.0
 11
0.0
 21
-0.0935000000095601
 31
0.0
210
0.0
220
0.0
230
1.0
 40
0.9848077530122081
 41
3.138360735471165
 42
3.141592653589793
  0
LINE
  5
76
100
AcDbEntity
  8
USP-GEO
100
AcDbLine
 10
0.0607321122718254
 20
4.787002673815926
 30
0.0
 11
0.0520000000000012
 21
4.787002673815926
 31
0.0
  0
ELLIPSE
  5
77
100
AcDbEntity
  8
USP-GEO
100
AcDbEllipse
 10
0.0517024070331456
 20
5.380500000009568
 30
0.0
 11
0.0
 21
-0.0935000000095601
 31
0.0
210
0.0
220
0.0
230
1.0
 40
0.9848077530122081
 41
0.0032319181186277
 42
1.570796326811843
  0
ELLIPSE
  5
78
100
AcDbEntity
  8
USP-GEO
100
AcDbEllipse
 10
0.0607321122718254
 20
5.380500000009568
 30
0.0
 11
0.0
 21
0.0935000000095601
 31
0.0
210
0.0
220
0.0
230
1.0
 40
0.9848077530122081
 41
3.141592653589793
 42
4.712388980401688
  0
LINE
  5
79
100
AcDbEntity
  8
USP-HID
100
AcDbLine
 10
0.0520000000000014
 20
5.287000000000013
 30
0.0
 11
0.0
 21
5.287000000000013
 31
0.0
  0
ELLIPSE
  5
7A
100
AcDbEntity
  8
USP-HID
100
AcDbEllipse
 10
0.0517024070331456
 20
5.380500000009568
 30
0.0
 11
0.0
 21
-0.0935000000095601
 31
0.0
210
0.0
220
0.0
230
1.0
 40
0.9848077530122081
 41
0.0
 42
0.0032319181186277
  0
LINE
  5
7B
100
AcDbEntity
  8
USP-GEO
100
AcDbLine
 10
0.0520000000000014
 20
5.205223304703359
 30
0.0
 11
0.0520000000000014
 21
5.293611652351677
 31
0.0
  0
LINE
  5
7C
100
AcDbEntity
  8
USP-GEO
100
AcDbLine
 10
0.0
 20
5.205223304703359
 30
0.0
 11
0.0
 21
5.293611652351677
 31
0.0
  0
LINE
  5
7D
100
AcDbEntity
  8
USP-GEO
100
AcDbLine
 10
0.0607321122718254
 20
5.287000000000006
 30
0.0
 11
0.0520000000000012
 21
5.287000000000006
 31
0.0
  0
LINE
  5
7E
100
AcDbEntity
  8
USP-HID
100
AcDbLine
 10
0.0520000000000014
 20
5.699999999999988
 30
0.0
 11
0.0000000000000018
 21
5.699999999999988
 31
0.0
  0
ELLIPSE
  5
7F
100
AcDbEntity
  8
USP-HID
100
AcDbEllipse
 10
1.651522601801472
 20
1.433776695296632
 30
0.0
 11
0.0
 21
-0.125
 31
0.0
210
0.0
220
0.0
230
1.0
 40
0.9848077530122081
 41
-1.570796326794896
 42
-0.7853981633974671
  0
ELLIPSE
  5
80
100
AcDbEntity
  8
USP-GEO
100
AcDbEllipse
 10
1.660552307040152
 20
1.433776695296632
 30
0.0
 11
0.0
 21
0.125
 31
0.0
210
0.0
220
0.0
230
1.0
 40
0.9848077530122081
 41
1.570796326794896
 42
2.356194490192326
  0
LINE
  5
81
100
AcDbEntity
  8
USP-HID
100
AcDbLine
 10
1.56447707176147
 20
1.345388347648317
 30
0.0
 11
2.23097200834758
 21
0.6686116523516759
 31
0.0
  0
LINE
  5
82
100
AcDbEntity
  8
USP-GEO
100
AcDbLine
 10
2.240001713586261
 20
0.6686116523516752
 30
0.0
 11
1.57350677700015
 21
1.345388347648317
 31
0.0
  0
ELLIPSE
  5
83
100
AcDbEntity
  8
USP-GEO
100
AcDbEllipse
 10
1.842741741347406
 20
0.6820000000000058
 30
0.0
 11
0.0
 21
-0.082
 31
0.0
210
0.0
220
0.0
230
1.0
 40
0.9848077530122079
 41
0.0
 42
3.141592653589793
  0
LINE
  5
84
100
AcDbEntity
  8
USP-GEO
100
AcDbLine
 10
1.842741741347406
 20
0.7639999999999861
 30
0.0
 11
1.789562122684752
 21
0.7639999999999932
 31
0.0
  0
LINE
  5
85
100
AcDbEntity
  8
USP-GEO
100
AcDbLine
 10
1.789562122684753
 20
0.6000000000000086
 30
0.0
 11
1.842741741347406
 21
0.6000000000000086
 31
0.0
  0
ELLIPSE
  5
86
100
AcDbEntity
  8
USP-HID
100
AcDbEllipse
 10
1.780532417446071
 20
0.6819999999999915
 30
0.0
 11
0.0
 21
0.082
 31
0.0
210
0.0
220
0.0
230
1.0
 40
0.9848077530122079
 41
0.0
 42
3.141592653589793
  0
LINE
  5
87
100
AcDbEntity
  8
USP-HID
100
AcDbLine
 10
1.789562122684753
 20
0.7639999999999923
 30
0.0
 11
1.780532417446072
 21
0.7639999999999923
 31
0.0
  0
LINE
  5
88
100
AcDbEntity
  8
USP-HID
100
AcDbLine
 10
1.789562122684753
 20
0.5999999999999908
 30
0.0
 11
1.780532417446072
 21
0.5999999999999908
 31
0.0
  0
ELLIPSE
  5
89
100
AcDbEntity
  8
USP-GEO
100
AcDbEllipse
 10
1.789562122684753
 20
0.6819999999999915
 30
0.0
 11
0.0
 21
-0.082
 31
0.0
210
0.0
220
0.0
230
1.0
 40
0.9848077530122079
 41
3.141592653589793
 42
6.283185307179641
  0
ELLIPSE
  5
8A
100
AcDbEntity
  8
USP-GEO
100
AcDbEllipse
 10
1.833712036108725
 20
0.6820000000000058
 30
0.0
 11
0.0
 21
0.082
 31
0.0
210
0.0
220
0.0
230
1.0
 40
0.9848077530122079
 41
3.141592653589793
 42
6.283185307179641
  0
LINE
  5
8B
100
AcDbEntity
  8
USP-HID
100
AcDbLine
 10
2.267027447434103
 20
0.5802233047033561
 30
0.0
 11
2.267027447434103
 21
-0.0000000000000711
 31
0.0
  0
LINE
  5
8C
100
AcDbEntity
  8
USP-GEO
100
AcDbLine
 10
2.276057152672784
 20
-0.0000000000000711
 30
0.0
 11
2.276057152672784
 21
0.5802233047033561
 31
0.0
  0
ELLIPSE
  5
8D
100
AcDbEntity
  8
USP-HID
100
AcDbEllipse
 10
2.143926478307577
 20
0.5802233047033561
 30
0.0
 11
0.0
 21
0.125
 31
0.0
210
0.0
220
0.0
230
1.0
 40
0.9848077530122081
 41
-1.570796326794896
 42
-0.7853981633974487
  0
ELLIPSE
  5
8E
100
AcDbEntity
  8
USP-GEO
100
AcDbEllipse
 10
2.152956183546258
 20
0.5802233047033561
 30
0.0
 11
0.0
 21
0.125
 31
0.0
210
0.0
220
0.0
230
1.0
 40
0.9848077530122081
 41
-1.570796326794896
 42
-0.7853981633974487
  0
LINE
  5
8F
100
AcDbEntity
  8
USP-HID
100
AcDbLine
 10
2.267027447434103
 20
3.830223304703359
 30
0.0
 11
2.267027447434103
 21
2.808776695296632
 31
0.0
  0
LINE
  5
90
100
AcDbEntity
  8
USP-GEO
100
AcDbLine
 10
2.276057152672784
 20
2.808776695296632
 30
0.0
 11
2.276057152672784
 21
3.830223304703359
 31
0.0
  0
LINE
  5
91
100
AcDbEntity
  8
USP-HID
100
AcDbLine
 10
2.23097200834758
 20
2.720388347648316
 30
0.0
 11
1.564477071761469
 21
2.043611652351675
 31
0.0
  0
LINE
  5
92
100
AcDbEntity
  8
USP-GEO
100
AcDbLine
 10
2.240001713586261
 20
2.720388347648317
 30
0.0
 11
1.573506777000149
 21
2.043611652351675
 31
0.0
  0
LINE
  5
93
100
AcDbEntity
  8
USP-HID
100
AcDbLine
 10
1.528421632674946
 20
1.955223304703356
 30
0.0
 11
1.528421632674946
 21
1.433776695296632
 31
0.0
  0
LINE
  5
94
100
AcDbEntity
  8
USP-GEO
100
AcDbLine
 10
1.537451337913626
 20
1.955223304703356
 30
0.0
 11
1.537451337913626
 21
1.433776695296632
 31
0.0
  0
ELLIPSE
  5
95
100
AcDbEntity
  8
USP-HID
100
AcDbEllipse
 10
1.651522601801472
 20
1.955223304703356
 30
0.0
 11
0.0
 21
-0.125
 31
0.0
210
0.0
220
0.0
230
1.0
 40
0.9848077530122081
 41
-2.356194490192347
 42
-1.570796326794896
  0
ELLIPSE
  5
96
100
AcDbEntity
  8
USP-GEO
100
AcDbEllipse
 10
1.660552307040152
 20
1.955223304703356
 30
0.0
 11
0.0
 21
0.125
 31
0.0
210
0.0
220
0.0
230
1.0
 40
0.9848077530122081
 41
0.7853981633974443
 42
1.570796326794896
  0
ELLIPSE
  5
97
100
AcDbEntity
  8
USP-HID
100
AcDbEllipse
 10
1.748033761596667
 20
3.331999999999993
 30
0.0
 11
0.0
 21
0.082
 31
0.0
210
0.0
220
0.0
230
1.0
 40
0.9848077530122079
 41
0.0
 42
3.141592653589793
  0
ELLIPSE
  5
98
100
AcDbEntity
  8
USP-GEO
100
AcDbEllipse
 10
1.801213380259328
 20
3.332000000000007
 30
0.0
 11
0.0
 21
0.082
 31
0.0
210
0.0
220
0.0
230
1.0
 40
0.9848077530122079
 41
3.141592653589793
 42
6.283185307179641
  0
ELLIPSE
  5
99
100
AcDbEntity
  8
USP-GEO
100
AcDbEllipse
 10
1.757063466835347
 20
3.331999999999993
 30
0.0
 11
0.0
 21
-0.082
 31
0.0
210
0.0
220
0.0
230
1.0
 40
0.9848077530122079
 41
3.141592653589793
 42
6.283185307179641
  0
ELLIPSE
  5
9A
100
AcDbEntity
  8
USP-GEO
100
AcDbEllipse
 10
1.810243085498008
 20
3.332000000000007
 30
0.0
 11
0.0
 21
-0.082
 31
0.0
210
0.0
220
0.0
230
1.0
 40
0.9848077530122079
 41
0.0
 42
3.141592653589793
  0
LINE
  5
9B
100
AcDbEntity
  8
USP-GEO
100
AcDbLine
 10
1.757063466835347
 20
3.250000000000007
 30
0.0
 11
1.810243085498008
 21
3.250000000000007
 31
0.0
  0
LINE
  5
9C
100
AcDbEntity
  8
USP-HID
100
AcDbLine
 10
1.757063466835347
 20
3.249999999999989
 30
0.0
 11
1.748033761596667
 21
3.249999999999989
 31
0.0
  0
LINE
  5
9D
100
AcDbEntity
  8
USP-GEO
100
AcDbLine
 10
1.810243085498008
 20
3.413999999999994
 30
0.0
 11
1.757063466835347
 21
3.413999999999994
 31
0.0
  0
LINE
  5
9E
100
AcDbEntity
  8
USP-HID
100
AcDbLine
 10
1.757063466835347
 20
3.413999999999994
 30
0.0
 11
1.748033761596667
 21
3.413999999999994
 31
0.0
  0
ELLIPSE
  5
9F
100
AcDbEntity
  8
USP-HID
100
AcDbEllipse
 10
2.143926478307577
 20
2.808776695296632
 30
0.0
 11
0.0
 21
0.125
 31
0.0
210
0.0
220
0.0
230
1.0
 40
0.9848077530122081
 41
-2.356194490192323
 42
-1.570796326794896
  0
ELLIPSE
  5
A0
100
AcDbEntity
  8
USP-GEO
100
AcDbEllipse
 10
2.152956183546258
 20
2.808776695296632
 30
0.0
 11
0.0
 21
0.125
 31
0.0
210
0.0
220
0.0
230
1.0
 40
0.9848077530122081
 41
-2.356194490192326
 42
-1.570796326794896
  0
LINE
  5
A1
100
AcDbEntity
  8
USP-HID
100
AcDbLine
 10
1.564477071761471
 20
4.595388347648302
 30
0.0
 11
2.23097200834758
 21
3.918611652351679
 31
0.0
  0
LINE
  5
A2
100
AcDbEntity
  8
USP-GEO
100
AcDbLine
 10
2.240001713586261
 20
3.918611652351678
 30
0.0
 11
1.573506777000151
 21
4.595388347648302
 31
0.0
  0
ELLIPSE
  5
A3
100
AcDbEntity
  8
USP-HID
100
AcDbEllipse
 10
1.651522601801472
 20
4.683776695296621
 30
0.0
 11
0.0
 21
-0.125
 31
0.0
210
0.0
220
0.0
230
1.0
 40
0.9848077530122081
 41
-1.570796326794896
 42
-0.7853981633974405
  0
ELLIPSE
  5
A4
100
AcDbEntity
  8
USP-GEO
100
AcDbEllipse
 10
1.660552307040152
 20
4.683776695296621
 30
0.0
 11
0.0
 21
0.125
 31
0.0
210
0.0
220
0.0
230
1.0
 40
0.9848077530122081
 41
1.570796326794896
 42
2.356194490192354
  0
LINE
  5
A5
100
AcDbEntity
  8
USP-GEO
100
AcDbLine
 10
1.317839208991905
 20
4.563999999999996
 30
0.0
 11
1.264659590329244
 21
4.563999999999989
 31
0.0
  0
LINE
  5
A6
100
AcDbEntity
  8
USP-GEO
100
AcDbLine
 10
1.264659590329244
 20
4.400000000000005
 30
0.0
 11
1.317839208991905
 21
4.400000000000005
 31
0.0
  0
LINE
  5
A7
100
AcDbEntity
  8
USP-HID
100
AcDbLine
 10
1.264659590329245
 20
4.563999999999985
 30
0.0
 11
1.255629885090564
 21
4.563999999999985
 31
0.0
  0
LINE
  5
A8
100
AcDbEntity
  8
USP-HID
100
AcDbLine
 10
1.264659590329245
 20
4.399999999999991
 30
0.0
 11
1.255629885090564
 21
4.399999999999991
 31
0.0
  0
ELLIPSE
  5
A9
100
AcDbEntity
  8
USP-GEO
100
AcDbEllipse
 10
1.264659590329245
 20
4.481999999999992
 30
0.0
 11
0.0
 21
-0.082
 31
0.0
210
0.0
220
0.0
230
1.0
 40
0.9848077530122079
 41
3.141592653589793
 42
6.283185307179641
  0
ELLIPSE
  5
AA
100
AcDbEntity
  8
USP-GEO
100
AcDbEllipse
 10
1.308809503753224
 20
4.482000000000006
 30
0.0
 11
0.0
 21
0.082
 31
0.0
210
0.0
220
0.0
230
1.0
 40
0.9848077530122079
 41
3.141592653589793
 42
6.283185307179641
  0
ELLIPSE
  5
AB
100
AcDbEntity
  8
USP-GEO
100
AcDbEllipse
 10
1.317839208991905
 20
4.482000000000006
 30
0.0
 11
0.0
 21
-0.082
 31
0.0
210
0.0
220
0.0
230
1.0
 40
0.9848077530122079
 41
0.0
 42
3.141592653589793
  0
LINE
  5
AC
100
AcDbEntity
  8
USP-HID
100
AcDbLine
 10
1.528421632674948
 20
5.205223304703359
 30
0.0
 11
1.528421632674946
 21
4.683776695296621
 31
0.0
  0
LINE
  5
AD
100
AcDbEntity
  8
USP-GEO
100
AcDbLine
 10
1.537451337913626
 20
4.683776695296621
 30
0.0
 11
1.537451337913628
 21
5.205223304703359
 31
0.0
  0
ELLIPSE
  5
AE
100
AcDbEntity
  8
USP-HID
100
AcDbEllipse
 10
1.651522601801474
 20
5.205223304703359
 30
0.0
 11
0.0
 21
-0.125
 31
0.0
210
0.0
220
0.0
230
1.0
 40
0.9848077530122081
 41
-2.356194490192343
 42
-1.570796326794896
  0
ELLIPSE
  5
AF
100
AcDbEntity
  8
USP-GEO
100
AcDbEllipse
 10
1.660552307040154
 20
5.205223304703359
 30
0.0
 11
0.0
 21
0.125
 31
0.0
210
0.0
220
0.0
230
1.0
 40
0.9848077530122081
 41
0.7853981633974493
 42
1.570796326794896
  0
ELLIPSE
  5
B0
100
AcDbEntity
  8
USP-HID
100
AcDbEllipse
 10
2.143926478307577
 20
3.830223304703359
 30
0.0
 11
0.0
 21
0.125
 31
0.0
210
0.0
220
0.0
230
1.0
 40
0.9848077530122081
 41
-1.570796326794896
 42
-0.7853981633974493
  0
ELLIPSE
  5
B1
100
AcDbEntity
  8
USP-GEO
100
AcDbEllipse
 10
2.152956183546258
 20
3.830223304703359
 30
0.0
 11
0.0
 21
0.125
 31
0.0
210
0.0
220
0.0
230
1.0
 40
0.9848077530122081
 41
-1.570796326794896
 42
-0.7853981633974493
  0
LINE
  5
B2
100
AcDbEntity
  8
USP-GEO
100
AcDbLine
 10
2.276057152672905
 20
6.874999999999928
 30
0.0
 11
0.0520000000000014
 21
6.874999999999973
 31
0.0
  0
LINE
  5
B3
100
AcDbEntity
  8
USP-GEO
100
AcDbLine
 10
0.0520000000000014
 20
6.058776695296636
 30
0.0
 11
0.0520000000000014
 21
6.875
 31
0.0
  0
LINE
  5
B4
100
AcDbEntity
  8
USP-GEO
100
AcDbLine
 10
0.0000000000000018
 20
6.058776695296636
 30
0.0
 11
0.0000000000000018
 21
6.875
 31
0.0
  0
LINE
  5
B5
100
AcDbEntity
  8
USP-GEO
100
AcDbLine
 10
0.0520000000000014
 20
6.058776695296636
 30
0.0
 11
0.0520000000000014
 21
5.970388347648317
 31
0.0
  0
LINE
  5
B6
100
AcDbEntity
  8
USP-GEO
100
AcDbLine
 10
0.0000000000000018
 20
5.970388347648317
 30
0.0
 11
0.0000000000000018
 21
6.058776695296636
 31
0.0
  0
ELLIPSE
  5
B7
100
AcDbEntity
  8
USP-GEO
100
AcDbEllipse
 10
0.0517024070331456
 20
5.943502673806371
 30
0.0
 11
0.0
 21
-0.0935000000095601
 31
0.0
210
0.0
220
0.0
230
1.0
 40
0.9848077530122081
 41
1.570796326811919
 42
3.138360735471165
  0
ELLIPSE
  5
B8
100
AcDbEntity
  8
USP-GEO
100
AcDbEllipse
 10
0.0607321122718254
 20
5.943502673806371
 30
0.0
 11
0.0
 21
0.0935000000095601
 31
0.0
210
0.0
220
0.0
230
1.0
 40
0.9848077530122081
 41
-1.570796326777873
 42
0.0053476190732622
  0
LINE
  5
B9
100
AcDbEntity
  8
USP-HID
100
AcDbLine
 10
0.0520000000000014
 20
5.86399999999999
 30
0.0
 11
0.0000000000000018
 21
5.86399999999999
 31
0.0
  0
LINE
  5
BA
100
AcDbEntity
  8
USP-HID
100
AcDbLine
 10
0.0520000000000014
 20
6.037001336907977
 30
0.0
 11
0.0
 21
6.037001336907977
 31
0.0
  0
ELLIPSE
  5
BB
100
AcDbEntity
  8
USP-HID
100
AcDbEllipse
 10
0.0517024070331456
 20
5.943502673806371
 30
0.0
 11
0.0
 21
-0.0935000000095601
 31
0.0
210
0.0
220
0.0
230
1.0
 40
0.9848077530122081
 41
3.138360735471165
 42
3.146940272663107
  0
LINE
  5
BC
100
AcDbEntity
  8
USP-HID
100
AcDbLine
 10
0.0517024070331453
 20
6.037002673815931
 30
0.0
 11
0.0607321122718254
 21
6.037002673815931
 31
0.0
  0
LINE
  5
BD
100
AcDbEntity
  8
USP-GEO
100
AcDbLine
 10
0.0602397083950166
 20
6.037001336907977
 30
0.0
 11
0.0520000000000016
 21
6.037001336907977
 31
0.0
  0
LINE
  5
BE
100
AcDbEntity
  8
USP-HID
100
AcDbLine
 10
0.0520000000000014
 20
6.48899999999999
 30
0.0
 11
0.0000000000000018
 21
6.48899999999999
 31
0.0
  0
LINE
  5
BF
100
AcDbEntity
  8
USP-HID
100
AcDbLine
 10
0.0520000000000014
 20
6.652999999999991
 30
0.0
 11
0.0000000000000018
 21
6.652999999999991
 31
0.0
  0
LINE
  5
C0
100
AcDbEntity
  8
USP-GEO
100
AcDbLine
 10
0.0520000000000014
 20
6.875
 30
0.0
 11
0.0000000000000053
 21
6.875
 31
0.0
  0
ELLIPSE
  5
C1
100
AcDbEntity
  8
USP-HID
100
AcDbEllipse
 10
1.748033761596669
 20
6.596000000000046
 30
0.0
 11
0.0
 21
0.082
 31
0.0
210
0.0
220
0.0
230
1.0
 40
0.9848077530122079
 41
0.0
 42
3.141592653589793
  0
ELLIPSE
  5
C2
100
AcDbEntity
  8
USP-HID
100
AcDbEllipse
 10
1.748033761596669
 20
5.932000000000044
 30
0.0
 11
0.0
 21
0.082
 31
0.0
210
0.0
220
0.0
230
1.0
 40
0.9848077530122079
 41
0.0
 42
3.141592653589793
  0
ELLIPSE
  5
C3
100
AcDbEntity
  8
USP-GEO
100
AcDbEllipse
 10
1.80121338025933
 20
5.932000000000059
 30
0.0
 11
0.0
 21
0.082
 31
0.0
210
0.0
220
0.0
230
1.0
 40
0.9848077530122079
 41
3.141592653589793
 42
6.283185307179641
  0
ELLIPSE
  5
C4
100
AcDbEntity
  8
USP-GEO
100
AcDbEllipse
 10
1.810243085498012
 20
5.932000000000059
 30
0.0
 11
0.0
 21
-0.082
 31
0.0
210
0.0
220
0.0
230
1.0
 40
0.9848077530122079
 41
0.0
 42
3.141592653589793
  0
ELLIPSE
  5
C5
100
AcDbEntity
  8
USP-GEO
100
AcDbEllipse
 10
1.757063466835351
 20
5.932000000000044
 30
0.0
 11
0.0
 21
-0.082
 31
0.0
210
0.0
220
0.0
230
1.0
 40
0.9848077530122079
 41
3.141592653589793
 42
6.283185307179641
  0
LINE
  5
C6
100
AcDbEntity
  8
USP-GEO
100
AcDbLine
 10
1.757063466835351
 20
5.850000000000058
 30
0.0
 11
1.810243085498012
 21
5.850000000000058
 31
0.0
  0
LINE
  5
C7
100
AcDbEntity
  8
USP-HID
100
AcDbLine
 10
1.757063466835351
 20
5.850000000000044
 30
0.0
 11
1.748033761596671
 21
5.850000000000044
 31
0.0
  0
LINE
  5
C8
100
AcDbEntity
  8
USP-GEO
100
AcDbLine
 10
1.810243085498012
 20
6.014000000000045
 30
0.0
 11
1.757063466835351
 21
6.014000000000045
 31
0.0
  0
LINE
  5
C9
100
AcDbEntity
  8
USP-HID
100
AcDbLine
 10
1.757063466835351
 20
6.014000000000045
 30
0.0
 11
1.748033761596671
 21
6.014000000000045
 31
0.0
  0
ELLIPSE
  5
CA
100
AcDbEntity
  8
USP-GEO
100
AcDbEllipse
 10
1.80121338025933
 20
6.59600000000006
 30
0.0
 11
0.0
 21
0.082
 31
0.0
210
0.0
220
0.0
230
1.0
 40
0.9848077530122079
 41
3.141592653589793
 42
6.283185307179641
  0
ELLIPSE
  5
CB
100
AcDbEntity
  8
USP-GEO
100
AcDbEllipse
 10
1.757063466835351
 20
6.596000000000046
 30
0.0
 11
0.0
 21
-0.082
 31
0.0
210
0.0
220
0.0
230
1.0
 40
0.9848077530122079
 41
3.141592653589793
 42
6.283185307179641
  0
ELLIPSE
  5
CC
100
AcDbEntity
  8
USP-GEO
100
AcDbEllipse
 10
1.810243085498012
 20
6.59600000000006
 30
0.0
 11
0.0
 21
-0.082
 31
0.0
210
0.0
220
0.0
230
1.0
 40
0.9848077530122079
 41
0.0
 42
3.141592653589793
  0
LINE
  5
CD
100
AcDbEntity
  8
USP-GEO
100
AcDbLine
 10
1.757063466835351
 20
6.514000000000058
 30
0.0
 11
1.810243085498012
 21
6.514000000000057
 31
0.0
  0
LINE
  5
CE
100
AcDbEntity
  8
USP-HID
100
AcDbLine
 10
1.757063466835351
 20
6.514000000000045
 30
0.0
 11
1.748033761596671
 21
6.514000000000045
 31
0.0
  0
LINE
  5
CF
100
AcDbEntity
  8
USP-GEO
100
AcDbLine
 10
1.81024308549801
 20
6.678000000000047
 30
0.0
 11
1.757063466835351
 21
6.678000000000047
 31
0.0
  0
LINE
  5
D0
100
AcDbEntity
  8
USP-HID
100
AcDbLine
 10
1.757063466835351
 20
6.678000000000047
 30
0.0
 11
1.748033761596671
 21
6.678000000000047
 31
0.0
  0
LINE
  5
D1
100
AcDbEntity
  8
USP-HID
100
AcDbLine
 10
2.267027447434225
 20
6.874999999999928
 30
0.0
 11
2.267027447434105
 21
6.058776695296636
 31
0.0
  0
LINE
  5
D2
100
AcDbEntity
  8
USP-GEO
100
AcDbLine
 10
2.276057152672786
 20
6.058776695296636
 30
0.0
 11
2.276057152672906
 21
6.874999999999928
 31
0.0
  0
ELLIPSE
  5
D3
100
AcDbEntity
  8
USP-HID
100
AcDbEllipse
 10
2.143926478307578
 20
6.058776695296636
 30
0.0
 11
0.0
 21
0.125
 31
0.0
210
0.0
220
0.0
230
1.0
 40
0.9848077530122081
 41
-2.356194490192343
 42
-1.570796326794896
  0
ELLIPSE
  5
D4
100
AcDbEntity
  8
USP-GEO
100
AcDbEllipse
 10
2.152956183546258
 20
6.058776695296636
 30
0.0
 11
0.0
 21
0.125
 31
0.0
210
0.0
220
0.0
230
1.0
 40
0.9848077530122081
 41
-2.356194490192343
 42
-1.570796326794896
  0
ENDBLK
  5
D7
100
AcDbEntity
  8
0
100
AcDbBlockEnd
  0
BLOCK
  5
FB
100
AcDbEntity
  8
0
100
AcDbBlockBegin
  2
MP9_T
 70
     0
 10
0.0
 20
0.0
 30
0.0
  3
MP9_T
  1

  0
TEXT
  5
DA
100
AcDbEntity
  8
USP-TXT
100
AcDbText
 10
-0.7272559475053524
 20
-1.245056711912503
 30
0.0
 40
0.296875
  1
MP9 - TOP VIEW
 72
     1
 11
1.350869052494648
 21
-1.245056711912503
 31
0.0
100
AcDbText
  0
LINE
  5
DB
100
AcDbEntity
  8
USP-GEO
100
AcDbLine
 10
0.4433712858105139
 20
2.215027447434231
 30
0.0
 11
1.951738104989173
 21
2.215027447434231
 31
0.0
  0
LINE
  5
DC
100
AcDbEntity
  8
USP-GEO
100
AcDbLine
 10
1.951738104989173
 20
2.267027447434223
 30
0.0
 11
0.3997381049892965
 21
2.267027447434223
 31
0.0
  0
LINE
  5
DD
100
AcDbEntity
  8
USP-GEO
100
AcDbLine
 10
0.3997381049892947
 20
2.267027447434223
 30
0.0
 11
0.0000000000000036
 21
0.0000000000000071
 31
0.0
  0
LINE
  5
DE
100
AcDbEntity
  8
USP-GEO
100
AcDbLine
 10
0.0512100031566369
 20
-0.0090297052386816
 30
0.0
 11
0.4433712858105157
 21
2.215027447434231
 31
0.0
  0
LINE
  5
DF
100
AcDbEntity
  8
USP-GEO
100
AcDbLine
 10
0.0512100031566369
 20
-0.0090297052386816
 30
0.0
 11
0.0
 21
0.0
 31
0.0
  0
LINE
  5
E0
100
AcDbEntity
  8
USP-HID
100
AcDbLine
 10
0.1133760507614205
 20
0.3435314703398262
 30
0.0
 11
0.062166047604789
 21
0.3525611755785061
 31
0.0
  0
LINE
  5
E1
100
AcDbEntity
  8
USP-HID
100
AcDbLine
 10
0.119106440624428
 20
0.3760301261892138
 30
0.0
 11
0.0678964374677928
 21
0.3850598314278937
 31
0.0
  0
LINE
  5
E2
100
AcDbEntity
  8
USP-HID
100
AcDbLine
 10
0.1512313534928111
 20
0.5582195604964824
 30
0.0
 11
0.100021350336176
 21
0.5672492657351623
 31
0.0
  0
LINE
  5
E3
100
AcDbEntity
  8
USP-HID
100
AcDbLine
 10
0.1569617433558186
 20
0.5907182163458771
 30
0.0
 11
0.1057517401991834
 21
0.599747921584557
 31
0.0
  0
LINE
  5
E4
100
AcDbEntity
  8
USP-HID
100
AcDbLine
 10
0.1814461364068567
 20
0.7295761095206004
 30
0.0
 11
0.1302361332502198
 21
0.7386058147592803
 31
0.0
  0
LINE
  5
E5
100
AcDbEntity
  8
USP-HID
100
AcDbLine
 10
0.2437858321892854
 20
1.083122092851979
 30
0.0
 11
0.1925758290326467
 21
1.092151798090661
 31
0.0
  0
LINE
  5
E6
100
AcDbEntity
  8
USP-HID
100
AcDbLine
 10
0.2667073916413187
 20
1.213116716249594
 30
0.0
 11
0.2154973884846836
 21
1.222146421488274
 31
0.0
  0
LINE
  5
E7
100
AcDbEntity
  8
USP-HID
100
AcDbLine
 10
0.2059305294578948
 20
0.8684340026953236
 30
0.0
 11
0.1547205263012596
 21
0.8774637079340035
 31
0.0
  0
LINE
  5
E8
100
AcDbEntity
  8
USP-HID
100
AcDbLine
 10
0.3045626943727093
 20
1.427804806406257
 30
0.0
 11
0.2533526912160742
 21
1.436834511644937
 31
0.0
  0
LINE
  5
E9
100
AcDbEntity
  8
USP-HID
100
AcDbLine
 10
0.4255954742065598
 20
2.114215810255764
 30
0.0
 11
0.3743854710499228
 21
2.123245515494444
 31
0.0
  0
LINE
  5
EA
100
AcDbEntity
  8
USP-GEO
100
AcDbLine
 10
0.3997381049892965
 20
2.267027447434223
 30
0.0
 11
0.3992381049892941
 21
2.267027447434223
 31
0.0
  0
LINE
  5
EB
100
AcDbEntity
  8
USP-GEO
100
AcDbLine
 10
0.3992381049892941
 20
2.264191806524408
 30
0.0
 11
0.3992381049892941
 21
2.267027447434223
 31
0.0
  0
LINE
  5
EC
100
AcDbEntity
  8
USP-HID
100
AcDbLine
 10
0.5447381049892997
 20
2.215027447434231
 30
0.0
 11
0.5447381049892997
 21
2.267027447434223
 31
0.0
  0
LINE
  5
ED
100
AcDbEntity
  8
USP-GEO
100
AcDbLine
 10
1.951738104989296
 20
2.215027447434231
 30
0.0
 11
1.988349757340976
 21
2.215027447434231
 31
0.0
  0
LINE
  5
EE
100
AcDbEntity
  8
USP-GEO
100
AcDbLine
 10
1.988349757340976
 20
2.267027447434223
 30
0.0
 11
1.951738104989296
 21
2.267027447434223
 31
0.0
  0
LINE
  5
EF
100
AcDbEntity
  8
USP-HID
100
AcDbLine
 10
1.342738104989294
 20
2.215027447434231
 30
0.0
 11
1.342738104989294
 21
2.267027447434223
 31
0.0
  0
LINE
  5
F0
100
AcDbEntity
  8
USP-HID
100
AcDbLine
 10
1.560738104989297
 20
2.215027447434231
 30
0.0
 11
1.560738104989297
 21
2.267027447434223
 31
0.0
  0
LINE
  5
F1
100
AcDbEntity
  8
USP-HID
100
AcDbLine
 10
1.4927381049893
 20
2.215027447434231
 30
0.0
 11
1.4927381049893
 21
2.267027447434223
 31
0.0
  0
LINE
  5
F2
100
AcDbEntity
  8
USP-HID
100
AcDbLine
 10
1.710738104989296
 20
2.215027447434231
 30
0.0
 11
1.710738104989296
 21
2.267027447434223
 31
0.0
  0
LINE
  5
F3
100
AcDbEntity
  8
USP-GEO
100
AcDbLine
 10
1.951738104989173
 20
2.215027447434231
 30
0.0
 11
1.951738104989173
 21
2.267027447434223
 31
0.0
  0
LINE
  5
F4
100
AcDbEntity
  8
USP-GEO
100
AcDbLine
 10
1.988349757340978
 20
2.215027447434231
 30
0.0
 11
2.665126452637615
 21
2.215027447434231
 31
0.0
  0
LINE
  5
F5
100
AcDbEntity
  8
USP-GEO
100
AcDbLine
 10
2.665126452637615
 20
2.267027447434223
 30
0.0
 11
1.988349757340978
 21
2.267027447434223
 31
0.0
  0
LINE
  5
F6
100
AcDbEntity
  8
USP-HID
100
AcDbLine
 10
2.092738104989294
 20
2.215027447434231
 30
0.0
 11
2.092738104989294
 21
2.267027447434223
 31
0.0
  0
LINE
  5
F7
100
AcDbEntity
  8
USP-HID
100
AcDbLine
 10
2.310738104989297
 20
2.215027447434231
 30
0.0
 11
2.310738104989297
 21
2.267027447434223
 31
0.0
  0
LINE
  5
F8
100
AcDbEntity
  8
USP-GEO
100
AcDbLine
 10
2.701738104989296
 20
2.215027447434231
 30
0.0
 11
2.665126452637615
 21
2.215027447434231
 31
0.0
  0
LINE
  5
F9
100
AcDbEntity
  8
USP-GEO
100
AcDbLine
 10
2.701738104989296
 20
2.267027447434223
 30
0.0
 11
2.665126452637615
 21
2.267027447434223
 31
0.0
  0
LINE
  5
FA
100
AcDbEntity
  8
USP-GEO
100
AcDbLine
 10
2.701738104989296
 20
2.215027447434231
 30
0.0
 11
2.701738104989296
 21
2.267027447434223
 31
0.0
  0
ENDBLK
  5
FC
100
AcDbEntity
  8
0
100
AcDbBlockEnd
  0
BLOCK
  5
1E0
100
AcDbEntity
  8
0
100
AcDbBlockBegin
  2
MP9_F
 70
     0
 10
0.0
 20
0.0
 30
0.0
  3
MP9_F
  1

  0
LINE
  5
FF
100
AcDbEntity
  8
USP-HID
100
AcDbLine
 10
0.3743854710482424
 20
5.380500000011224
 30
0.0
 11
0.3743854710499033
 21
5.943502673808033
 31
0.0
  0
LINE
  5
100
100
AcDbEntity
  8
USP-GEO
100
AcDbLine
 10
1.988349757340955
 20
5.970388347648388
 30
0.0
 11
2.665126452637592
 21
5.293611652351748
 31
0.0
  0
LINE
  5
101
100
AcDbEntity
  8
USP-GEO
100
AcDbLine
 10
0.5447381049988316
 20
5.380500000009639
 30
0.0
 11
0.5447381049892784
 21
5.943502673806442
 31
0.0
  0
ARC
  5
102
100
AcDbEntity
  8
USP-GEO
100
AcDbCircle
 10
1.628738104989274
 20
5.78200000000006
 30
0.0
 40
0.082
100
AcDbArc
 50
270.0
 51
90.0
  0
ARC
  5
103
100
AcDbEntity
  8
USP-GEO
100
AcDbCircle
 10
1.574738104989279
 20
5.782000000000074
 30
0.0
 40
0.082
100
AcDbArc
 50
90.0
 51
270.0
  0
LINE
  5
104
100
AcDbEntity
  8
USP-GEO
100
AcDbLine
 10
0.0063575467122483
 20
5.970388347648388
 30
0.0
 11
0.1238785865379572
 21
5.293611652351749
 31
0.0
  0
LINE
  5
105
100
AcDbEntity
  8
USP-GEO
100
AcDbLine
 10
0.4255954742048776
 20
5.380500000011224
 30
0.0
 11
0.4255954742065385
 21
5.943502673808033
 31
0.0
  0
LINE
  5
106
100
AcDbEntity
  8
USP-GEO
100
AcDbLine
 10
0.0575675498688817
 20
5.970388347648388
 30
0.0
 11
0.1750885896945906
 21
5.293611652351749
 31
0.0
  0
TEXT
  5
107
100
AcDbEntity
  8
USP-TXT
100
AcDbText
 10
-0.9985259459270437
 20
-1.266325870950609
 30
0.0
 40
0.296875
  1
MP9 - FRONT VIEW
 72
     1
 11
1.376474054072955
 21
-1.266325870950609
 31
0.0
100
AcDbText
  0
TEXT
  5
108
100
AcDbEntity
  8
USP-TXT
100
AcDbText
 10
0.8871339674334848
 20
1.811717313685655
 30
0.0
 40
0.1875
  1
NER
100
AcDbText
  0
TEXT
  5
109
100
AcDbEntity
  8
USP-TXT
100
AcDbText
 10
0.8871339674334848
 20
1.499217313685655
 30
0.0
 40
0.1875
  1
530
100
AcDbText
  0
TEXT
  5
10A
100
AcDbEntity
  8
USP-TXT
100
AcDbText
 10
0.8871339674334848
 20
2.436717313685655
 30
0.0
 40
0.1875
  1
USP
100
AcDbText
  0
LINE
  5
10B
100
AcDbEntity
  8
USP-GEO
100
AcDbLine
 10
0.4433712858104944
 20
0.0000000000000435
 30
0.0
 11
1.951738104989274
 21
0.0000000000000719
 31
0.0
  0
ELLIPSE
  5
10C
100
AcDbEntity
  8
USP-HID
100
AcDbEllipse
 10
0.3906215756617612
 20
1.319501336898472
 30
0.0
 11
0.0
 21
-0.0935000000095601
 31
0.0
210
0.0
220
0.0
230
1.0
 40
0.17364817766693
 41
3.141592653589793
 42
4.712388980384746
  0
ARC
  5
10D
100
AcDbEntity
  8
USP-GEO
100
AcDbCircle
 10
0.4512381049892725
 20
1.319501336898476
 30
0.0
 40
0.0935000000095601
100
AcDbArc
 50
0.0
 51
90.0
  0
ELLIPSE
  5
10E
100
AcDbEntity
  8
USP-GEO
100
AcDbEllipse
 10
0.1085301110418335
 20
1.433776695296703
 30
0.0
 11
0.0
 21
-0.125
 31
0.0
210
0.0
220
0.0
230
1.0
 40
0.17364817766693
 41
0.7853981633974707
 42
1.570796326794896
  0
ELLIPSE
  5
10F
100
AcDbEntity
  8
USP-GEO
100
AcDbEllipse
 10
0.1597401141984687
 20
1.433776695296703
 30
0.0
 11
0.0
 21
0.125
 31
0.0
210
0.0
220
0.0
230
1.0
 40
0.17364817766693
 41
-2.356194490192324
 42
-1.570796326794896
  0
ELLIPSE
  5
110
100
AcDbEntity
  8
USP-GEO
100
AcDbEllipse
 10
0.4418315788183947
 20
1.319501336898472
 30
0.0
 11
0.0
 21
0.0935000000095601
 31
0.0
210
0.0
220
0.0
230
1.0
 40
0.17364817766693
 41
0.0
 42
1.570796326794896
  0
LINE
  5
111
100
AcDbEntity
  8
USP-HID
100
AcDbLine
 10
0.3997381049892752
 20
0.0000000000000426
 30
0.0
 11
0.3997381049892752
 21
0.66300000000005
 31
0.0
  0
LINE
  5
112
100
AcDbEntity
  8
USP-GEO
100
AcDbLine
 10
0.4433712858104962
 20
0.0000000000000426
 30
0.0
 11
0.4433712858104944
 21
0.6630000000000536
 31
0.0
  0
LINE
  5
113
100
AcDbEntity
  8
USP-GEO
100
AcDbLine
 10
0.0000000000000036
 20
0.5802233047034271
 30
0.0
 11
0.0000000000000036
 21
0.0
 31
0.0
  0
LINE
  5
114
100
AcDbEntity
  8
USP-GEO
100
AcDbLine
 10
0.0512100031566369
 20
0.0
 30
0.0
 11
0.0512100031566369
 21
0.5802233047034271
 31
0.0
  0
LINE
  5
115
100
AcDbEntity
  8
USP-GEO
100
AcDbLine
 10
0.0512100031566369
 20
0.0
 30
0.0
 11
0.4433712858104926
 21
0.0000000000000424
 31
0.0
  0
LINE
  5
116
100
AcDbEntity
  8
USP-GEO
100
AcDbLine
 10
0.0512100031566369
 20
0.0
 30
0.0
 11
0.0
 21
0.0
 31
0.0
  0
ARC
  5
117
100
AcDbEntity
  8
USP-GEO
100
AcDbCircle
 10
0.4512381049892725
 20
0.7564986631016595
 30
0.0
 40
0.0935000000095601
100
AcDbArc
 50
270.3063960031546
 51
0.0
  0
LINE
  5
118
100
AcDbEntity
  8
USP-HID
100
AcDbLine
 10
0.3743854710499015
 20
0.7564986631016595
 30
0.0
 11
0.3743854710499033
 21
1.319501336898476
 31
0.0
  0
LINE
  5
119
100
AcDbEntity
  8
USP-GEO
100
AcDbLine
 10
0.1238785865379572
 20
1.345388347648388
 30
0.0
 11
0.0063575467122483
 21
0.6686116523517465
 31
0.0
  0
LINE
  5
11A
100
AcDbEntity
  8
USP-GEO
100
AcDbLine
 10
0.0575675498688817
 20
0.6686116523517463
 30
0.0
 11
0.1750885896945906
 21
1.345388347648388
 31
0.0
  0
LINE
  5
11B
100
AcDbEntity
  8
USP-GEO
100
AcDbLine
 10
0.4255954742065385
 20
0.7564986631016595
 30
0.0
 11
0.4255954742065402
 21
1.319501336898476
 31
0.0
  0
LINE
  5
11C
100
AcDbEntity
  8
USP-HID
100
AcDbLine
 10
0.1276152013300873
 20
0.7640000000000562
 30
0.0
 11
0.0764051981734522
 21
0.7640000000000562
 31
0.0
  0
LINE
  5
11D
100
AcDbEntity
  8
USP-HID
100
AcDbLine
 10
0.1276152013300873
 20
0.6000000000000761
 30
0.0
 11
0.0764051981734522
 21
0.6000000000000761
 31
0.0
  0
ELLIPSE
  5
11E
100
AcDbEntity
  8
USP-HID
100
AcDbEllipse
 10
0.0764051981734522
 20
0.6820000000000768
 30
0.0
 11
0.0
 21
0.082
 31
0.0
210
0.0
220
0.0
230
1.0
 40
0.17364817766693
 41
0.0
 42
3.141592653589793
  0
ELLIPSE
  5
11F
100
AcDbEntity
  8
USP-HID
100
AcDbEllipse
 10
0.0857821997674648
 20
0.6820000000000626
 30
0.0
 11
0.0
 21
0.082
 31
0.0
210
0.0
220
0.0
230
1.0
 40
0.17364817766693
 41
3.141592653589793
 42
6.283185307179642
  0
ELLIPSE
  5
120
100
AcDbEntity
  8
USP-GEO
100
AcDbEllipse
 10
0.0217060222083703
 20
0.5802233047034271
 30
0.0
 11
0.0
 21
0.125
 31
0.0
210
0.0
220
0.0
230
1.0
 40
0.17364817766693
 41
0.7853981633974591
 42
1.570796326794896
  0
ELLIPSE
  5
121
100
AcDbEntity
  8
USP-GEO
100
AcDbEllipse
 10
0.0729160253650036
 20
0.5802233047034271
 30
0.0
 11
0.0
 21
0.125
 31
0.0
210
0.0
220
0.0
230
1.0
 40
0.17364817766693
 41
0.7853981633974593
 42
1.570796326794896
  0
LINE
  5
122
100
AcDbEntity
  8
USP-GEO
100
AcDbLine
 10
0.1276152013300873
 20
0.7640000000000571
 30
0.0
 11
0.1369922029241
 21
0.7640000000000642
 31
0.0
  0
ELLIPSE
  5
123
100
AcDbEntity
  8
USP-GEO
100
AcDbEllipse
 10
0.1276152013300873
 20
0.6820000000000768
 30
0.0
 11
0.0
 21
-0.082
 31
0.0
210
0.0
220
0.0
230
1.0
 40
0.17364817766693
 41
3.141592653589793
 42
6.283185307179641
  0
LINE
  5
124
100
AcDbEntity
  8
USP-GEO
100
AcDbLine
 10
0.1369922029241017
 20
0.6000000000000796
 30
0.0
 11
0.1276152013300891
 21
0.6000000000000796
 31
0.0
  0
ELLIPSE
  5
125
100
AcDbEntity
  8
USP-GEO
100
AcDbEllipse
 10
0.1369922029241017
 20
0.6820000000000626
 30
0.0
 11
0.0
 21
-0.082
 31
0.0
210
0.0
220
0.0
230
1.0
 40
0.17364817766693
 41
0.0
 42
3.141592653589793
  0
LINE
  5
126
100
AcDbEntity
  8
USP-HID
100
AcDbLine
 10
0.4417447547295375
 20
0.66300000000005
 30
0.0
 11
0.3907083997505793
 21
0.66300000000005
 31
0.0
  0
ELLIPSE
  5
127
100
AcDbEntity
  8
USP-HID
100
AcDbEllipse
 10
0.3906215756617612
 20
0.756498663101656
 30
0.0
 11
0.0
 21
-0.0935000000095601
 31
0.0
210
0.0
220
0.0
230
1.0
 40
0.17364817766693
 41
-1.570796326794896
 42
0.0053476190690287
  0
LINE
  5
128
100
AcDbEntity
  8
USP-HID
100
AcDbLine
 10
0.4418315788183947
 20
0.6629986630920959
 30
0.0
 11
0.3906215756617612
 21
0.6629986630920959
 31
0.0
  0
LINE
  5
129
100
AcDbEntity
  8
USP-GEO
100
AcDbLine
 10
0.4517381049892748
 20
0.6630000000000536
 30
0.0
 11
0.4433712858104944
 21
0.6630000000000536
 31
0.0
  0
LINE
  5
12A
100
AcDbEntity
  8
USP-GEO
100
AcDbLine
 10
0.4419184029072128
 20
0.66300000000005
 30
0.0
 11
0.4417447547295375
 21
0.66300000000005
 31
0.0
  0
LINE
  5
12B
100
AcDbEntity
  8
USP-GEO
100
AcDbLine
 10
0.4433712858104926
 20
0.66300000000005
 30
0.0
 11
0.4419184029072128
 21
0.6630000000000499
 31
0.0
  0
ELLIPSE
  5
12C
100
AcDbEntity
  8
USP-GEO
100
AcDbEllipse
 10
0.4418315788183947
 20
0.756498663101656
 30
0.0
 11
0.0
 21
0.0935000000095601
 31
0.0
210
0.0
220
0.0
230
1.0
 40
0.17364817766693
 41
1.570796326794896
 42
3.146940272658877
  0
LINE
  5
12D
100
AcDbEntity
  8
USP-GEO
100
AcDbLine
 10
0.5447381049892784
 20
0.7564986631016595
 30
0.0
 11
0.5447381049892784
 21
1.319501336898476
 31
0.0
  0
LINE
  5
12E
100
AcDbEntity
  8
USP-HID
100
AcDbLine
 10
0.3992381049892728
 20
4.03700000000007
 30
0.0
 11
0.3992381049892728
 21
3.475002673816206
 31
0.0
  0
LINE
  5
12F
100
AcDbEntity
  8
USP-GEO
100
AcDbLine
 10
0.4433712858104944
 20
3.475002673816213
 30
0.0
 11
0.4433712858104944
 21
4.03700000000007
 31
0.0
  0
LINE
  5
130
100
AcDbEntity
  8
USP-GEO
100
AcDbLine
 10
0.0000000000000036
 20
3.83022330470343
 30
0.0
 11
0.0000000000000036
 21
2.808776695296703
 31
0.0
  0
LINE
  5
131
100
AcDbEntity
  8
USP-GEO
100
AcDbLine
 10
0.0512100031566369
 20
2.808776695296703
 30
0.0
 11
0.0512100031566369
 21
3.83022330470343
 31
0.0
  0
ELLIPSE
  5
132
100
AcDbEntity
  8
USP-HID
100
AcDbEllipse
 10
0.3906215756617612
 20
2.350501336898478
 30
0.0
 11
0.0
 21
-0.0935000000095601
 31
0.0
210
0.0
220
0.0
230
1.0
 40
0.17364817766693
 41
3.141592653589793
 42
4.712388980367761
  0
ARC
  5
133
100
AcDbEntity
  8
USP-GEO
100
AcDbCircle
 10
0.4512381049892725
 20
2.350501336898481
 30
0.0
 40
0.0935000000095601
100
AcDbArc
 50
0.0
 51
90.0
  0
LINE
  5
134
100
AcDbEntity
  8
USP-GEO
100
AcDbLine
 10
0.0063575467122483
 20
2.720388347648388
 30
0.0
 11
0.1238785865379572
 21
2.043611652351747
 31
0.0
  0
LINE
  5
135
100
AcDbEntity
  8
USP-GEO
100
AcDbLine
 10
0.0575675498688817
 20
2.720388347648388
 30
0.0
 11
0.1750885896945906
 21
2.043611652351747
 31
0.0
  0
ELLIPSE
  5
136
100
AcDbEntity
  8
USP-GEO
100
AcDbEllipse
 10
0.4418315788183947
 20
2.350501336898478
 30
0.0
 11
0.0
 21
0.0935000000095601
 31
0.0
210
0.0
220
0.0
230
1.0
 40
0.17364817766693
 41
0.0
 42
1.570796326777911
  0
ARC
  5
137
100
AcDbEntity
  8
USP-GEO
100
AcDbCircle
 10
0.4512381049892725
 20
1.787498663101665
 30
0.0
 40
0.0935000000095601
100
AcDbArc
 50
270.0
 51
0.0
  0
LINE
  5
138
100
AcDbEntity
  8
USP-HID
100
AcDbLine
 10
0.3743854710482424
 20
1.787498663103249
 30
0.0
 11
0.374385471049905
 21
2.350501336900066
 31
0.0
  0
ELLIPSE
  5
139
100
AcDbEntity
  8
USP-HID
100
AcDbEllipse
 10
0.239113540647363
 20
1.832000000000068
 30
0.0
 11
0.0
 21
0.082
 31
0.0
210
0.0
220
0.0
230
1.0
 40
0.17364817766693
 41
3.141592653589793
 42
6.283185307179641
  0
ELLIPSE
  5
13A
100
AcDbEntity
  8
USP-HID
100
AcDbEllipse
 10
0.2297365390533503
 20
1.832000000000082
 30
0.0
 11
0.0
 21
0.082
 31
0.0
210
0.0
220
0.0
230
1.0
 40
0.17364817766693
 41
0.0
 42
3.141592653589793
  0
LINE
  5
13B
100
AcDbEntity
  8
USP-GEO
100
AcDbLine
 10
0.1302361332502002
 20
1.955223304703427
 30
0.0
 11
0.1302361332502002
 21
1.433776695296703
 31
0.0
  0
ELLIPSE
  5
13C
100
AcDbEntity
  8
USP-GEO
100
AcDbEllipse
 10
0.2903235438039999
 20
1.832000000000068
 30
0.0
 11
0.0
 21
-0.082
 31
0.0
210
0.0
220
0.0
230
1.0
 40
0.17364817766693
 41
0.0
 42
3.141592653589793
  0
ELLIPSE
  5
13D
100
AcDbEntity
  8
USP-GEO
100
AcDbEllipse
 10
0.2809465422099855
 20
1.832000000000082
 30
0.0
 11
0.0
 21
-0.082
 31
0.0
210
0.0
220
0.0
230
1.0
 40
0.17364817766693
 41
3.141592653589793
 42
6.283185307179647
  0
LINE
  5
13E
100
AcDbEntity
  8
USP-GEO
100
AcDbLine
 10
0.1814461364068354
 20
1.955223304703427
 30
0.0
 11
0.1814461364068354
 21
1.433776695296703
 31
0.0
  0
LINE
  5
13F
100
AcDbEntity
  8
USP-GEO
100
AcDbLine
 10
0.4255954742048776
 20
1.787498663103249
 30
0.0
 11
0.4255954742065402
 21
2.350501336900066
 31
0.0
  0
LINE
  5
140
100
AcDbEntity
  8
USP-HID
100
AcDbLine
 10
0.2809465422099855
 20
1.750000000000081
 30
0.0
 11
0.2297365390533503
 21
1.750000000000081
 31
0.0
  0
LINE
  5
141
100
AcDbEntity
  8
USP-HID
100
AcDbLine
 10
0.3992381049892728
 20
1.693998663092106
 30
0.0
 11
0.3992381049892728
 21
1.413001336908035
 31
0.0
  0
LINE
  5
142
100
AcDbEntity
  8
USP-GEO
100
AcDbLine
 10
0.4433712858104944
 20
1.413001336908038
 30
0.0
 11
0.4433712858104944
 21
1.693998663092106
 31
0.0
  0
LINE
  5
143
100
AcDbEntity
  8
USP-HID
100
AcDbLine
 10
0.4418315788183947
 20
1.413001336908031
 30
0.0
 11
0.3906215756617595
 21
1.413001336908031
 31
0.0
  0
LINE
  5
144
100
AcDbEntity
  8
USP-GEO
100
AcDbLine
 10
0.4433712858104944
 20
1.413001336908038
 30
0.0
 11
0.4512381049892725
 21
1.413001336908038
 31
0.0
  0
LINE
  5
145
100
AcDbEntity
  8
USP-GEO
100
AcDbLine
 10
0.4418315788183947
 20
1.413001336908035
 30
0.0
 11
0.4433712858104926
 21
1.413001336908035
 31
0.0
  0
LINE
  5
146
100
AcDbEntity
  8
USP-GEO
100
AcDbLine
 10
0.2903235438039999
 20
1.750000000000093
 30
0.0
 11
0.2809465422099855
 21
1.750000000000084
 31
0.0
  0
ELLIPSE
  5
147
100
AcDbEntity
  8
USP-HID
100
AcDbEllipse
 10
0.3906215756617612
 20
1.787498663101661
 30
0.0
 11
0.0
 21
-0.0935000000095601
 31
0.0
210
0.0
220
0.0
230
1.0
 40
0.17364817766693
 41
-1.570796326811881
 42
0.0
  0
LINE
  5
148
100
AcDbEntity
  8
USP-HID
100
AcDbLine
 10
0.4418315788183947
 20
1.693998663092102
 30
0.0
 11
0.3906215756617595
 21
1.693998663092102
 31
0.0
  0
LINE
  5
149
100
AcDbEntity
  8
USP-GEO
100
AcDbLine
 10
0.4512381049892725
 20
1.693998663092106
 30
0.0
 11
0.4433712858104944
 21
1.693998663092106
 31
0.0
  0
LINE
  5
14A
100
AcDbEntity
  8
USP-GEO
100
AcDbLine
 10
0.4433712858104944
 20
1.693998663092102
 30
0.0
 11
0.4418315788183964
 21
1.693998663092102
 31
0.0
  0
ELLIPSE
  5
14B
100
AcDbEntity
  8
USP-GEO
100
AcDbEllipse
 10
0.4418315788183947
 20
1.787498663101661
 30
0.0
 11
0.0
 21
0.0935000000095601
 31
0.0
210
0.0
220
0.0
230
1.0
 40
0.17364817766693
 41
1.570796326777911
 42
3.141592653589793
  0
LINE
  5
14C
100
AcDbEntity
  8
USP-HID
100
AcDbLine
 10
0.2809465422099855
 20
1.914000000000083
 30
0.0
 11
0.2297365390533503
 21
1.914000000000083
 31
0.0
  0
ELLIPSE
  5
14D
100
AcDbEntity
  8
USP-GEO
100
AcDbEllipse
 10
0.1085301110418335
 20
1.955223304703427
 30
0.0
 11
0.0
 21
-0.125
 31
0.0
210
0.0
220
0.0
230
1.0
 40
0.17364817766693
 41
1.570796326794896
 42
2.356194490192332
  0
ELLIPSE
  5
14E
100
AcDbEntity
  8
USP-GEO
100
AcDbEllipse
 10
0.1597401141984704
 20
1.955223304703427
 30
0.0
 11
0.0
 21
0.125
 31
0.0
210
0.0
220
0.0
230
1.0
 40
0.17364817766693
 41
-1.570796326794896
 42
-0.7853981633974603
  0
LINE
  5
14F
100
AcDbEntity
  8
USP-GEO
100
AcDbLine
 10
0.2809465422099873
 20
1.914000000000082
 30
0.0
 11
0.2903235438039999
 21
1.914000000000068
 31
0.0
  0
LINE
  5
150
100
AcDbEntity
  8
USP-GEO
100
AcDbLine
 10
0.5447381049988316
 20
1.787498663101665
 30
0.0
 11
0.5447381049892784
 21
2.350501336898481
 31
0.0
  0
ARC
  5
151
100
AcDbEntity
  8
USP-GEO
100
AcDbCircle
 10
0.4512381049892725
 20
3.38150267380665
 30
0.0
 40
0.0935000000095601
100
AcDbArc
 50
0.0
 51
90.0
  0
ARC
  5
152
100
AcDbEntity
  8
USP-GEO
100
AcDbCircle
 10
0.4512381049892725
 20
2.818500000009628
 30
0.0
 40
0.0935000000095601
100
AcDbArc
 50
270.0
 51
0.0
  0
LINE
  5
153
100
AcDbEntity
  8
USP-HID
100
AcDbLine
 10
0.3743854710482424
 20
2.818500000011216
 30
0.0
 11
0.374385471049905
 21
3.381502673808235
 31
0.0
  0
LINE
  5
154
100
AcDbEntity
  8
USP-GEO
100
AcDbLine
 10
0.4255954742048776
 20
2.818500000011216
 30
0.0
 11
0.4255954742065402
 21
3.381502673808235
 31
0.0
  0
ELLIPSE
  5
155
100
AcDbEntity
  8
USP-GEO
100
AcDbEllipse
 10
0.0217060222083703
 20
2.808776695296703
 30
0.0
 11
0.0
 21
0.125
 31
0.0
210
0.0
220
0.0
230
1.0
 40
0.17364817766693
 41
1.570796326794896
 42
2.356194490192322
  0
ELLIPSE
  5
156
100
AcDbEntity
  8
USP-GEO
100
AcDbEllipse
 10
0.0729160253650036
 20
2.808776695296703
 30
0.0
 11
0.0
 21
0.125
 31
0.0
210
0.0
220
0.0
230
1.0
 40
0.17364817766693
 41
1.570796326794896
 42
2.356194490192322
  0
LINE
  5
157
100
AcDbEntity
  8
USP-HID
100
AcDbLine
 10
0.3992381049892728
 20
2.725000000000068
 30
0.0
 11
0.3992381049892728
 21
2.444001336908041
 31
0.0
  0
LINE
  5
158
100
AcDbEntity
  8
USP-GEO
100
AcDbLine
 10
0.4433712858104944
 20
2.444001336908044
 30
0.0
 11
0.4433712858104944
 21
2.725000000000068
 31
0.0
  0
LINE
  5
159
100
AcDbEntity
  8
USP-HID
100
AcDbLine
 10
0.4418315788183947
 20
2.444001336908037
 30
0.0
 11
0.3906215756617595
 21
2.444001336908037
 31
0.0
  0
LINE
  5
15A
100
AcDbEntity
  8
USP-GEO
100
AcDbLine
 10
0.4433712858104944
 20
2.444001336908044
 30
0.0
 11
0.4512381049892725
 21
2.444001336908044
 31
0.0
  0
LINE
  5
15B
100
AcDbEntity
  8
USP-GEO
100
AcDbLine
 10
0.4418315788183947
 20
2.444001336908041
 30
0.0
 11
0.4433712858104926
 21
2.444001336908041
 31
0.0
  0
ELLIPSE
  5
15C
100
AcDbEntity
  8
USP-HID
100
AcDbEllipse
 10
0.3906215756617612
 20
2.818500000009624
 30
0.0
 11
0.0
 21
-0.0935000000095601
 31
0.0
210
0.0
220
0.0
230
1.0
 40
0.17364817766693
 41
-1.570796326811919
 42
0.0
  0
LINE
  5
15D
100
AcDbEntity
  8
USP-HID
100
AcDbLine
 10
0.4418315788183947
 20
2.725000000000065
 30
0.0
 11
0.3906215756617595
 21
2.725000000000065
 31
0.0
  0
LINE
  5
15E
100
AcDbEntity
  8
USP-GEO
100
AcDbLine
 10
0.4433712858104944
 20
2.725000000000068
 30
0.0
 11
0.4512381049892725
 21
2.725000000000068
 31
0.0
  0
LINE
  5
15F
100
AcDbEntity
  8
USP-GEO
100
AcDbLine
 10
0.4418315788183947
 20
2.725000000000065
 30
0.0
 11
0.4433712858104926
 21
2.725000000000065
 31
0.0
  0
ELLIPSE
  5
160
100
AcDbEntity
  8
USP-GEO
100
AcDbEllipse
 10
0.4418315788183947
 20
2.818500000009624
 30
0.0
 11
0.0
 21
0.0935000000095601
 31
0.0
210
0.0
220
0.0
230
1.0
 40
0.17364817766693
 41
1.570796326777873
 42
3.141592653589793
  0
ELLIPSE
  5
161
100
AcDbEntity
  8
USP-HID
100
AcDbEllipse
 10
0.0915125896304758
 20
3.332000000000064
 30
0.0
 11
0.0
 21
0.082
 31
0.0
210
0.0
220
0.0
230
1.0
 40
0.17364817766693
 41
3.141592653589793
 42
6.283185307179642
  0
ELLIPSE
  5
162
100
AcDbEntity
  8
USP-HID
100
AcDbEllipse
 10
0.0821355880364596
 20
3.332000000000078
 30
0.0
 11
0.0
 21
0.082
 31
0.0
210
0.0
220
0.0
230
1.0
 40
0.17364817766693
 41
0.0
 42
3.141592653589793
  0
ELLIPSE
  5
163
100
AcDbEntity
  8
USP-GEO
100
AcDbEllipse
 10
0.1427225927871092
 20
3.332000000000064
 30
0.0
 11
0.0
 21
-0.082
 31
0.0
210
0.0
220
0.0
230
1.0
 40
0.17364817766693
 41
0.0
 42
3.141592653589793
  0
ELLIPSE
  5
164
100
AcDbEntity
  8
USP-GEO
100
AcDbEllipse
 10
0.1333455911930947
 20
3.332000000000078
 30
0.0
 11
0.0
 21
-0.082
 31
0.0
210
0.0
220
0.0
230
1.0
 40
0.17364817766693
 41
3.141592653589793
 42
6.283185307179641
  0
LINE
  5
165
100
AcDbEntity
  8
USP-HID
100
AcDbLine
 10
0.1333455911930947
 20
3.250000000000078
 30
0.0
 11
0.0821355880364596
 21
3.250000000000078
 31
0.0
  0
LINE
  5
166
100
AcDbEntity
  8
USP-GEO
100
AcDbLine
 10
0.1427225927871092
 20
3.250000000000078
 30
0.0
 11
0.1333455911930947
 21
3.250000000000078
 31
0.0
  0
LINE
  5
167
100
AcDbEntity
  8
USP-HID
100
AcDbLine
 10
0.1333455911930947
 20
3.414000000000079
 30
0.0
 11
0.0821355880364596
 21
3.414000000000079
 31
0.0
  0
LINE
  5
168
100
AcDbEntity
  8
USP-GEO
100
AcDbLine
 10
0.1333455911930965
 20
3.414000000000065
 30
0.0
 11
0.142722592787111
 21
3.414000000000065
 31
0.0
  0
LINE
  5
169
100
AcDbEntity
  8
USP-HID
100
AcDbLine
 10
0.4418315788183947
 20
3.475002673816206
 30
0.0
 11
0.3906215756617595
 21
3.475002673816206
 31
0.0
  0
ELLIPSE
  5
16A
100
AcDbEntity
  8
USP-HID
100
AcDbEllipse
 10
0.3906215756617612
 20
3.38150267380665
 30
0.0
 11
0.0
 21
-0.0935000000095601
 31
0.0
210
0.0
220
0.0
230
1.0
 40
0.17364817766693
 41
3.141592653589793
 42
4.7123889803678
  0
LINE
  5
16B
100
AcDbEntity
  8
USP-GEO
100
AcDbLine
 10
0.4512381049892725
 20
3.475002673816213
 30
0.0
 11
0.4433712858104926
 21
3.475002673816213
 31
0.0
  0
LINE
  5
16C
100
AcDbEntity
  8
USP-GEO
100
AcDbLine
 10
0.4433712858104944
 20
3.475002673816206
 30
0.0
 11
0.4418315788183964
 21
3.475002673816206
 31
0.0
  0
ELLIPSE
  5
16D
100
AcDbEntity
  8
USP-GEO
100
AcDbEllipse
 10
0.4418315788183947
 20
3.38150267380665
 30
0.0
 11
0.0
 21
0.0935000000095601
 31
0.0
210
0.0
220
0.0
230
1.0
 40
0.17364817766693
 41
0.0
 42
1.570796326777949
  0
LINE
  5
16E
100
AcDbEntity
  8
USP-GEO
100
AcDbLine
 10
0.5447381049988316
 20
2.818500000009628
 30
0.0
 11
0.5447381049892784
 21
3.38150267380665
 31
0.0
  0
LINE
  5
16F
100
AcDbEntity
  8
USP-HID
100
AcDbLine
 10
0.3743854710482424
 20
4.13050000001121
 30
0.0
 11
0.3743854710499033
 21
4.693502673808026
 31
0.0
  0
LINE
  5
170
100
AcDbEntity
  8
USP-GEO
100
AcDbLine
 10
0.5447381049988316
 20
4.130500000009625
 30
0.0
 11
0.5447381049892784
 21
4.693502673806442
 31
0.0
  0
ELLIPSE
  5
171
100
AcDbEntity
  8
USP-GEO
100
AcDbEllipse
 10
0.1085301110418335
 20
4.683776695296693
 30
0.0
 11
0.0
 21
-0.125
 31
0.0
210
0.0
220
0.0
230
1.0
 40
0.17364817766693
 41
0.7853981633974603
 42
1.570796326794896
  0
ELLIPSE
  5
172
100
AcDbEntity
  8
USP-GEO
100
AcDbEllipse
 10
0.1597401141984704
 20
4.683776695296693
 30
0.0
 11
0.0
 21
0.125
 31
0.0
210
0.0
220
0.0
230
1.0
 40
0.17364817766693
 41
-2.356194490192342
 42
-1.570796326794896
  0
LINE
  5
173
100
AcDbEntity
  8
USP-GEO
100
AcDbLine
 10
0.4255954742048776
 20
4.13050000001121
 30
0.0
 11
0.4255954742065385
 21
4.693502673808026
 31
0.0
  0
ARC
  5
174
100
AcDbEntity
  8
USP-GEO
100
AcDbCircle
 10
0.4512381049892725
 20
4.130500000009625
 30
0.0
 40
0.0935000000095601
100
AcDbArc
 50
270.0
 51
0.0
  0
ELLIPSE
  5
175
100
AcDbEntity
  8
USP-HID
100
AcDbEllipse
 10
0.3906215756617612
 20
4.130500000009625
 30
0.0
 11
0.0
 21
-0.0935000000095601
 31
0.0
210
0.0
220
0.0
230
1.0
 40
0.17364817766693
 41
-1.570796326811843
 42
0.0
  0
LINE
  5
176
100
AcDbEntity
  8
USP-GEO
100
AcDbLine
 10
0.1238785865379572
 20
4.595388347648373
 30
0.0
 11
0.0063575467122483
 21
3.918611652351749
 31
0.0
  0
LINE
  5
177
100
AcDbEntity
  8
USP-GEO
100
AcDbLine
 10
0.0575675498688817
 20
3.918611652351749
 30
0.0
 11
0.1750885896945906
 21
4.595388347648373
 31
0.0
  0
ELLIPSE
  5
178
100
AcDbEntity
  8
USP-GEO
100
AcDbEllipse
 10
0.4418315788183947
 20
4.130500000009625
 30
0.0
 11
0.0
 21
0.0935000000095601
 31
0.0
210
0.0
220
0.0
230
1.0
 40
0.17364817766693
 41
1.570796326777949
 42
3.141592653589793
  0
ELLIPSE
  5
179
100
AcDbEntity
  8
USP-GEO
100
AcDbEllipse
 10
0.0217060222083703
 20
3.83022330470343
 30
0.0
 11
0.0
 21
0.125
 31
0.0
210
0.0
220
0.0
230
1.0
 40
0.17364817766693
 41
0.7853981633974604
 42
1.570796326794896
  0
ELLIPSE
  5
17A
100
AcDbEntity
  8
USP-GEO
100
AcDbEllipse
 10
0.0729160253650036
 20
3.83022330470343
 30
0.0
 11
0.0
 21
0.125
 31
0.0
210
0.0
220
0.0
230
1.0
 40
0.17364817766693
 41
0.7853981633974603
 42
1.570796326794896
  0
LINE
  5
17B
100
AcDbEntity
  8
USP-HID
100
AcDbLine
 10
0.4418315788183947
 20
4.037000000000062
 30
0.0
 11
0.3906215756617595
 21
4.037000000000062
 31
0.0
  0
LINE
  5
17C
100
AcDbEntity
  8
USP-GEO
100
AcDbLine
 10
0.4433712858104944
 20
4.03700000000007
 30
0.0
 11
0.4512381049892725
 21
4.03700000000007
 31
0.0
  0
LINE
  5
17D
100
AcDbEntity
  8
USP-GEO
100
AcDbLine
 10
0.4418315788183947
 20
4.037000000000062
 30
0.0
 11
0.4433712858104926
 21
4.037000000000062
 31
0.0
  0
ELLIPSE
  5
17E
100
AcDbEntity
  8
USP-GEO
100
AcDbEllipse
 10
0.2295466816205742
 20
4.482000000000063
 30
0.0
 11
0.0
 21
-0.082
 31
0.0
210
0.0
220
0.0
230
1.0
 40
0.17364817766693
 41
0.0
 42
3.141592653589793
  0
ELLIPSE
  5
17F
100
AcDbEntity
  8
USP-HID
100
AcDbEllipse
 10
0.1689596768699246
 20
4.482000000000077
 30
0.0
 11
0.0
 21
0.082
 31
0.0
210
0.0
220
0.0
230
1.0
 40
0.17364817766693
 41
0.0
 42
3.141592653589793
  0
ELLIPSE
  5
180
100
AcDbEntity
  8
USP-HID
100
AcDbEllipse
 10
0.1783366784639391
 20
4.482000000000063
 30
0.0
 11
0.0
 21
0.082
 31
0.0
210
0.0
220
0.0
230
1.0
 40
0.17364817766693
 41
3.141592653589793
 42
6.283185307179641
  0
LINE
  5
181
100
AcDbEntity
  8
USP-HID
100
AcDbLine
 10
0.2201696800265616
 20
4.564000000000071
 30
0.0
 11
0.1689596768699264
 21
4.564000000000071
 31
0.0
  0
LINE
  5
182
100
AcDbEntity
  8
USP-HID
100
AcDbLine
 10
0.2201696800265616
 20
4.400000000000076
 30
0.0
 11
0.1689596768699264
 21
4.400000000000076
 31
0.0
  0
LINE
  5
183
100
AcDbEntity
  8
USP-GEO
100
AcDbLine
 10
0.2201696800265598
 20
4.564000000000067
 30
0.0
 11
0.2295466816205742
 21
4.56400000000006
 31
0.0
  0
ELLIPSE
  5
184
100
AcDbEntity
  8
USP-GEO
100
AcDbEllipse
 10
0.2201696800265598
 20
4.482000000000077
 30
0.0
 11
0.0
 21
-0.082
 31
0.0
210
0.0
220
0.0
230
1.0
 40
0.17364817766693
 41
3.141592653589793
 42
6.283185307179641
  0
LINE
  5
185
100
AcDbEntity
  8
USP-GEO
100
AcDbLine
 10
0.2295466816205742
 20
4.400000000000076
 30
0.0
 11
0.2201696800265598
 21
4.400000000000076
 31
0.0
  0
ARC
  5
186
100
AcDbEntity
  8
USP-GEO
100
AcDbCircle
 10
0.4512381049892725
 20
5.380500000009639
 30
0.0
 40
0.0935000000095601
100
AcDbArc
 50
270.0
 51
0.0
  0
ARC
  5
187
100
AcDbEntity
  8
USP-GEO
100
AcDbCircle
 10
0.4512381049892725
 20
4.693502673806442
 30
0.0
 40
0.0935000000095601
100
AcDbArc
 50
0.0
 51
90.0
  0
LINE
  5
188
100
AcDbEntity
  8
USP-HID
100
AcDbLine
 10
0.3992381049892728
 20
5.287000000000084
 30
0.0
 11
0.3992381049892728
 21
4.787002673815997
 31
0.0
  0
LINE
  5
189
100
AcDbEntity
  8
USP-GEO
100
AcDbLine
 10
0.4433712858104944
 20
4.787002673816004
 30
0.0
 11
0.4433712858104944
 21
5.287000000000084
 31
0.0
  0
LINE
  5
18A
100
AcDbEntity
  8
USP-GEO
100
AcDbLine
 10
0.1302361332502002
 20
5.20522330470343
 30
0.0
 11
0.1302361332502002
 21
4.683776695296693
 31
0.0
  0
LINE
  5
18B
100
AcDbEntity
  8
USP-GEO
100
AcDbLine
 10
0.1814461364068354
 20
4.683776695296693
 30
0.0
 11
0.1814461364068354
 21
5.20522330470343
 31
0.0
  0
ELLIPSE
  5
18C
100
AcDbEntity
  8
USP-HID
100
AcDbEllipse
 10
0.3906215756617612
 20
4.693502673806442
 30
0.0
 11
0.0
 21
-0.0935000000095601
 31
0.0
210
0.0
220
0.0
230
1.0
 40
0.17364817766693
 41
3.141592653589793
 42
4.712388980367785
  0
LINE
  5
18D
100
AcDbEntity
  8
USP-HID
100
AcDbLine
 10
0.4418315788183947
 20
4.787002673815997
 30
0.0
 11
0.3906215756617595
 21
4.787002673815997
 31
0.0
  0
LINE
  5
18E
100
AcDbEntity
  8
USP-GEO
100
AcDbLine
 10
0.4433712858104944
 20
4.787002673816004
 30
0.0
 11
0.4512381049892725
 21
4.787002673816004
 31
0.0
  0
LINE
  5
18F
100
AcDbEntity
  8
USP-GEO
100
AcDbLine
 10
0.4418315788183947
 20
4.787002673815997
 30
0.0
 11
0.4433712858104926
 21
4.787002673815997
 31
0.0
  0
ELLIPSE
  5
190
100
AcDbEntity
  8
USP-GEO
100
AcDbEllipse
 10
0.4418315788183947
 20
4.693502673806442
 30
0.0
 11
0.0
 21
0.0935000000095601
 31
0.0
210
0.0
220
0.0
230
1.0
 40
0.17364817766693
 41
0.0
 42
1.570796326777949
  0
ELLIPSE
  5
191
100
AcDbEntity
  8
USP-GEO
100
AcDbEllipse
 10
0.1085301110418335
 20
5.20522330470343
 30
0.0
 11
0.0
 21
-0.125
 31
0.0
210
0.0
220
0.0
230
1.0
 40
0.17364817766693
 41
1.570796326794896
 42
2.356194490192332
  0
ELLIPSE
  5
192
100
AcDbEntity
  8
USP-GEO
100
AcDbEllipse
 10
0.1597401141984687
 20
5.20522330470343
 30
0.0
 11
0.0
 21
0.125
 31
0.0
210
0.0
220
0.0
230
1.0
 40
0.17364817766693
 41
-1.570796326794896
 42
-0.7853981633974612
  0
ELLIPSE
  5
193
100
AcDbEntity
  8
USP-HID
100
AcDbEllipse
 10
0.3906215756617612
 20
5.380500000009639
 30
0.0
 11
0.0
 21
-0.0935000000095601
 31
0.0
210
0.0
220
0.0
230
1.0
 40
0.17364817766693
 41
-1.570796326811843
 42
0.0
  0
LINE
  5
194
100
AcDbEntity
  8
USP-HID
100
AcDbLine
 10
0.4418315788183947
 20
5.287000000000077
 30
0.0
 11
0.3906215756617595
 21
5.287000000000077
 31
0.0
  0
LINE
  5
195
100
AcDbEntity
  8
USP-GEO
100
AcDbLine
 10
0.4512381049892725
 20
5.287000000000084
 30
0.0
 11
0.4433712858104926
 21
5.287000000000084
 31
0.0
  0
LINE
  5
196
100
AcDbEntity
  8
USP-GEO
100
AcDbLine
 10
0.4418315788183947
 20
5.287000000000077
 30
0.0
 11
0.4433712858104926
 21
5.287000000000077
 31
0.0
  0
ELLIPSE
  5
197
100
AcDbEntity
  8
USP-GEO
100
AcDbEllipse
 10
0.4418315788183947
 20
5.380500000009639
 30
0.0
 11
0.0
 21
0.0935000000095601
 31
0.0
210
0.0
220
0.0
230
1.0
 40
0.17364817766693
 41
1.570796326777949
 42
3.141592653589793
  0
ARC
  5
198
100
AcDbEntity
  8
USP-GEO
100
AcDbCircle
 10
2.576738104989274
 20
1.433776695296707
 30
0.0
 40
0.125
100
AcDbArc
 50
315.0000000000014
 51
0.0
  0
ARC
  5
199
100
AcDbEntity
  8
USP-GEO
100
AcDbCircle
 10
2.076738104989274
 20
0.5802233047034307
 30
0.0
 40
0.125
100
AcDbArc
 50
135.0000000000003
 51
180.0
  0
LINE
  5
19A
100
AcDbEntity
  8
USP-GEO
100
AcDbLine
 10
1.951738104989274
 20
0.0000000000000711
 30
0.0
 11
1.951738104989274
 21
0.5802233047034307
 31
0.0
  0
ARC
  5
19B
100
AcDbEntity
  8
USP-GEO
100
AcDbCircle
 10
1.628738104989274
 20
0.8320000000000717
 30
0.0
 40
0.082
100
AcDbArc
 50
270.0
 51
90.0
  0
ARC
  5
19C
100
AcDbEntity
  8
USP-GEO
100
AcDbCircle
 10
1.574738104989279
 20
0.832000000000086
 30
0.0
 40
0.082
100
AcDbArc
 50
90.0
 51
270.0
  0
LINE
  5
19D
100
AcDbEntity
  8
USP-GEO
100
AcDbLine
 10
1.628738104989274
 20
0.7500000000000715
 30
0.0
 11
1.574738104989279
 21
0.7500000000000857
 31
0.0
  0
LINE
  5
19E
100
AcDbEntity
  8
USP-GEO
100
AcDbLine
 10
1.574738104989279
 20
0.9140000000000911
 30
0.0
 11
1.628738104989274
 21
0.9140000000000716
 31
0.0
  0
LINE
  5
19F
100
AcDbEntity
  8
USP-GEO
100
AcDbLine
 10
1.988349757340955
 20
0.6686116523517498
 30
0.0
 11
2.665126452637593
 21
1.345388347648391
 31
0.0
  0
LINE
  5
1A0
100
AcDbEntity
  8
USP-GEO
100
AcDbLine
 10
1.951738104989274
 20
2.808776695296707
 30
0.0
 11
1.951738104989274
 21
3.83022330470343
 31
0.0
  0
ARC
  5
1A1
100
AcDbEntity
  8
USP-GEO
100
AcDbCircle
 10
2.076738104989274
 20
2.808776695296707
 30
0.0
 40
0.125
100
AcDbArc
 50
180.0
 51
224.9999999999987
  0
TEXT
  5
1A2
100
AcDbEntity
  8
USP-TXT
100
AcDbText
 10
0.9847134762568998
 20
2.124217313685655
 30
0.0
 40
0.1875
  1
MP
100
AcDbText
  0
LINE
  5
1A3
100
AcDbEntity
  8
USP-GEO
100
AcDbLine
 10
1.478738104989275
 20
3.25000000000008
 30
0.0
 11
1.424738104989273
 21
3.250000000000079
 31
0.0
  0
LINE
  5
1A4
100
AcDbEntity
  8
USP-GEO
100
AcDbLine
 10
1.424738104989275
 20
3.414000000000082
 30
0.0
 11
1.478738104989275
 21
3.414000000000068
 31
0.0
  0
ARC
  5
1A5
100
AcDbEntity
  8
USP-GEO
100
AcDbCircle
 10
1.424738104989273
 20
3.332000000000078
 30
0.0
 40
0.082
100
AcDbArc
 50
90.0
 51
270.0
  0
ARC
  5
1A6
100
AcDbEntity
  8
USP-GEO
100
AcDbCircle
 10
1.478738104989275
 20
3.332000000000064
 30
0.0
 40
0.082
100
AcDbArc
 50
270.0
 51
90.0
  0
LINE
  5
1A7
100
AcDbEntity
  8
USP-GEO
100
AcDbLine
 10
1.988349757340955
 20
2.720388347648391
 30
0.0
 11
2.665126452637593
 21
2.04361165235175
 31
0.0
  0
LINE
  5
1A8
100
AcDbEntity
  8
USP-GEO
100
AcDbLine
 10
2.228738104989275
 20
1.600000000000079
 30
0.0
 11
2.174738104989273
 21
1.600000000000079
 31
0.0
  0
LINE
  5
1A9
100
AcDbEntity
  8
USP-GEO
100
AcDbLine
 10
2.174738104989275
 20
1.76400000000006
 30
0.0
 11
2.228738104989275
 21
1.764000000000065
 31
0.0
  0
ARC
  5
1AA
100
AcDbEntity
  8
USP-GEO
100
AcDbCircle
 10
2.174738104989273
 20
1.68200000000008
 30
0.0
 40
0.082
100
AcDbArc
 50
90.0
 51
270.0
  0
ARC
  5
1AB
100
AcDbEntity
  8
USP-GEO
100
AcDbCircle
 10
2.228738104989275
 20
1.682000000000066
 30
0.0
 40
0.082
100
AcDbArc
 50
270.0
 51
90.0
  0
LINE
  5
1AC
100
AcDbEntity
  8
USP-GEO
100
AcDbLine
 10
2.701738104989274
 20
1.95522330470343
 30
0.0
 11
2.701738104989274
 21
1.433776695296707
 31
0.0
  0
ARC
  5
1AD
100
AcDbEntity
  8
USP-GEO
100
AcDbCircle
 10
2.576738104989274
 20
1.95522330470343
 30
0.0
 40
0.125
100
AcDbArc
 50
0.0
 51
44.9999999999997
  0
ARC
  5
1AE
100
AcDbEntity
  8
USP-GEO
100
AcDbCircle
 10
2.076738104989274
 20
3.83022330470343
 30
0.0
 40
0.125
100
AcDbArc
 50
135.0000000000003
 51
180.0
  0
LINE
  5
1AF
100
AcDbEntity
  8
USP-GEO
100
AcDbLine
 10
1.628738104989276
 20
5.700000000000073
 30
0.0
 11
1.574738104989281
 21
5.700000000000079
 31
0.0
  0
ARC
  5
1B0
100
AcDbEntity
  8
USP-GEO
100
AcDbCircle
 10
2.576738104989274
 20
4.683776695296693
 30
0.0
 40
0.125
100
AcDbArc
 50
314.9999999999994
 51
0.0
  0
ARC
  5
1B1
100
AcDbEntity
  8
USP-GEO
100
AcDbCircle
 10
2.174738104989273
 20
4.632000000000076
 30
0.0
 40
0.082
100
AcDbArc
 50
90.0
 51
270.0
  0
ARC
  5
1B2
100
AcDbEntity
  8
USP-GEO
100
AcDbCircle
 10
2.228738104989275
 20
4.632000000000061
 30
0.0
 40
0.082
100
AcDbArc
 50
270.0
 51
90.0
  0
LINE
  5
1B3
100
AcDbEntity
  8
USP-GEO
100
AcDbLine
 10
1.988349757340955
 20
3.918611652351749
 30
0.0
 11
2.665126452637592
 21
4.595388347648373
 31
0.0
  0
LINE
  5
1B4
100
AcDbEntity
  8
USP-GEO
100
AcDbLine
 10
2.228738104989275
 20
4.550000000000063
 30
0.0
 11
2.174738104989273
 21
4.550000000000077
 31
0.0
  0
LINE
  5
1B5
100
AcDbEntity
  8
USP-GEO
100
AcDbLine
 10
2.174738104989275
 20
4.714000000000073
 30
0.0
 11
2.228738104989277
 21
4.714000000000059
 31
0.0
  0
LINE
  5
1B6
100
AcDbEntity
  8
USP-GEO
100
AcDbLine
 10
2.701738104989274
 20
4.683776695296693
 30
0.0
 11
2.701738104989274
 21
5.20522330470343
 31
0.0
  0
ARC
  5
1B7
100
AcDbEntity
  8
USP-GEO
100
AcDbCircle
 10
2.576738104989274
 20
5.20522330470343
 30
0.0
 40
0.125
100
AcDbArc
 50
0.0
 51
44.9999999999997
  0
LINE
  5
1B8
100
AcDbEntity
  8
USP-GEO
100
AcDbLine
 10
0.4433712858104926
 20
6.875000000000042
 30
0.0
 11
1.951738104989152
 21
6.875000000000071
 31
0.0
  0
LINE
  5
1B9
100
AcDbEntity
  8
USP-HID
100
AcDbLine
 10
0.3997381049892752
 20
6.037001336908048
 30
0.0
 11
0.3997381049892752
 21
6.875000000000042
 31
0.0
  0
LINE
  5
1BA
100
AcDbEntity
  8
USP-GEO
100
AcDbLine
 10
0.4433712858104944
 20
6.037001336908048
 30
0.0
 11
0.4433712858104926
 21
6.875000000000042
 31
0.0
  0
LINE
  5
1BB
100
AcDbEntity
  8
USP-GEO
100
AcDbLine
 10
-0.0000000000000178
 20
6.875
 30
0.0
 11
0.0000000000000036
 21
6.058776695296707
 31
0.0
  0
LINE
  5
1BC
100
AcDbEntity
  8
USP-GEO
100
AcDbLine
 10
0.0512100031566369
 20
6.058776695296707
 30
0.0
 11
0.0512100031566156
 21
6.875
 31
0.0
  0
ARC
  5
1BD
100
AcDbEntity
  8
USP-GEO
100
AcDbCircle
 10
0.4512381049892725
 20
5.943502673806442
 30
0.0
 40
0.0935000000095601
100
AcDbArc
 50
0.0
 51
89.69360399684534
  0
ELLIPSE
  5
1BE
100
AcDbEntity
  8
USP-HID
100
AcDbEllipse
 10
0.0821355880364596
 20
5.93200000000013
 30
0.0
 11
0.0
 21
0.082
 31
0.0
210
0.0
220
0.0
230
1.0
 40
0.17364817766693
 41
0.0
 42
3.141592653589793
  0
ELLIPSE
  5
1BF
100
AcDbEntity
  8
USP-HID
100
AcDbEllipse
 10
0.0915125896304741
 20
5.932000000000115
 30
0.0
 11
0.0
 21
0.082
 31
0.0
210
0.0
220
0.0
230
1.0
 40
0.17364817766693
 41
3.141592653589793
 42
6.283185307179642
  0
ELLIPSE
  5
1C0
100
AcDbEntity
  8
USP-GEO
100
AcDbEllipse
 10
0.0217060222083703
 20
6.058776695296707
 30
0.0
 11
0.0
 21
0.125
 31
0.0
210
0.0
220
0.0
230
1.0
 40
0.17364817766693
 41
1.570796326794896
 42
2.356194490192333
  0
ELLIPSE
  5
1C1
100
AcDbEntity
  8
USP-GEO
100
AcDbEllipse
 10
0.1333455911930947
 20
5.93200000000013
 30
0.0
 11
0.0
 21
-0.082
 31
0.0
210
0.0
220
0.0
230
1.0
 40
0.17364817766693
 41
3.141592653589793
 42
6.283185307179641
  0
ELLIPSE
  5
1C2
100
AcDbEntity
  8
USP-GEO
100
AcDbEllipse
 10
0.1427225927871092
 20
5.932000000000115
 30
0.0
 11
0.0
 21
-0.082
 31
0.0
210
0.0
220
0.0
230
1.0
 40
0.17364817766693
 41
0.0
 42
3.141592653589793
  0
ELLIPSE
  5
1C3
100
AcDbEntity
  8
USP-GEO
100
AcDbEllipse
 10
0.0729160253650036
 20
6.058776695296707
 30
0.0
 11
0.0
 21
0.125
 31
0.0
210
0.0
220
0.0
230
1.0
 40
0.17364817766693
 41
1.570796326794896
 42
2.356194490192332
  0
LINE
  5
1C4
100
AcDbEntity
  8
USP-HID
100
AcDbLine
 10
0.1333455911930947
 20
5.850000000000129
 30
0.0
 11
0.0821355880364596
 21
5.850000000000129
 31
0.0
  0
LINE
  5
1C5
100
AcDbEntity
  8
USP-GEO
100
AcDbLine
 10
0.1427225927871092
 20
5.850000000000129
 30
0.0
 11
0.1333455911930947
 21
5.850000000000129
 31
0.0
  0
LINE
  5
1C6
100
AcDbEntity
  8
USP-HID
100
AcDbLine
 10
0.1333455911930947
 20
6.014000000000116
 30
0.0
 11
0.0821355880364596
 21
6.014000000000116
 31
0.0
  0
LINE
  5
1C7
100
AcDbEntity
  8
USP-GEO
100
AcDbLine
 10
0.1333455911930965
 20
6.014000000000116
 30
0.0
 11
0.142722592787111
 21
6.014000000000116
 31
0.0
  0
ELLIPSE
  5
1C8
100
AcDbEntity
  8
USP-HID
100
AcDbEllipse
 10
0.3906215756617612
 20
5.943502673806442
 30
0.0
 11
0.0
 21
-0.0935000000095601
 31
0.0
210
0.0
220
0.0
230
1.0
 40
0.17364817766693
 41
3.136245034516497
 42
4.712388980367719
  0
ELLIPSE
  5
1C9
100
AcDbEntity
  8
USP-GEO
100
AcDbEllipse
 10
0.4418315788183947
 20
5.943502673806442
 30
0.0
 11
0.0
 21
0.0935000000095601
 31
0.0
210
0.0
220
0.0
230
1.0
 40
0.17364817766693
 41
-0.0053476190732956
 42
1.570796326777873
  0
LINE
  5
1CA
100
AcDbEntity
  8
USP-HID
100
AcDbLine
 10
0.4417447547295393
 20
6.037001336908048
 30
0.0
 11
0.3907083997506468
 21
6.037001336908048
 31
0.0
  0
LINE
  5
1CB
100
AcDbEntity
  8
USP-HID
100
AcDbLine
 10
0.4418315788183947
 20
6.037002673816002
 30
0.0
 11
0.3906215756617612
 21
6.037002673816002
 31
0.0
  0
LINE
  5
1CC
100
AcDbEntity
  8
USP-GEO
100
AcDbLine
 10
0.4433712858104926
 20
6.037001336908048
 30
0.0
 11
0.4517381049892748
 21
6.037001336908048
 31
0.0
  0
LINE
  5
1CD
100
AcDbEntity
  8
USP-GEO
100
AcDbLine
 10
0.4419184029072821
 20
6.037001336908048
 30
0.0
 11
0.4417447547295393
 21
6.037001336908048
 31
0.0
  0
LINE
  5
1CE
100
AcDbEntity
  8
USP-GEO
100
AcDbLine
 10
0.4419184029072821
 20
6.037001336908048
 30
0.0
 11
0.4433712858104926
 21
6.037001336908048
 31
0.0
  0
ELLIPSE
  5
1CF
100
AcDbEntity
  8
USP-HID
100
AcDbEllipse
 10
0.0915125896304741
 20
6.596000000000117
 30
0.0
 11
0.0
 21
0.082
 31
0.0
210
0.0
220
0.0
230
1.0
 40
0.17364817766693
 41
3.141592653589793
 42
6.283185307179642
  0
ELLIPSE
  5
1D0
100
AcDbEntity
  8
USP-HID
100
AcDbEllipse
 10
0.0821355880364596
 20
6.596000000000131
 30
0.0
 11
0.0
 21
0.082
 31
0.0
210
0.0
220
0.0
230
1.0
 40
0.17364817766693
 41
0.0
 42
3.141592653589793
  0
ELLIPSE
  5
1D1
100
AcDbEntity
  8
USP-GEO
100
AcDbEllipse
 10
0.1427225927871092
 20
6.596000000000117
 30
0.0
 11
0.0
 21
-0.082
 31
0.0
210
0.0
220
0.0
230
1.0
 40
0.17364817766693
 41
0.0
 42
3.141592653589793
  0
ELLIPSE
  5
1D2
100
AcDbEntity
  8
USP-GEO
100
AcDbEllipse
 10
0.1333455911930947
 20
6.596000000000131
 30
0.0
 11
0.0
 21
-0.082
 31
0.0
210
0.0
220
0.0
230
1.0
 40
0.17364817766693
 41
3.141592653589793
 42
6.283185307179641
  0
LINE
  5
1D3
100
AcDbEntity
  8
USP-HID
100
AcDbLine
 10
0.1333455911930947
 20
6.51400000000013
 30
0.0
 11
0.0821355880364596
 21
6.51400000000013
 31
0.0
  0
LINE
  5
1D4
100
AcDbEntity
  8
USP-GEO
100
AcDbLine
 10
0.1427225927871092
 20
6.514000000000129
 30
0.0
 11
0.1333455911930947
 21
6.514000000000128
 31
0.0
  0
LINE
  5
1D5
100
AcDbEntity
  8
USP-HID
100
AcDbLine
 10
0.1333455911930947
 20
6.678000000000132
 30
0.0
 11
0.0821355880364596
 21
6.678000000000132
 31
0.0
  0
LINE
  5
1D6
100
AcDbEntity
  8
USP-GEO
100
AcDbLine
 10
0.1333455911930965
 20
6.678000000000118
 30
0.0
 11
0.142722592787111
 21
6.678000000000118
 31
0.0
  0
LINE
  5
1D7
100
AcDbEntity
  8
USP-GEO
100
AcDbLine
 10
0.0512100031566156
 20
6.875
 30
0.0
 11
0.4433712858104926
 21
6.875000000000044
 31
0.0
  0
LINE
  5
1D8
100
AcDbEntity
  8
USP-GEO
100
AcDbLine
 10
0.0512100031566156
 20
6.875
 30
0.0
 11
-0.0000000000000213
 21
6.875
 31
0.0
  0
ARC
  5
1D9
100
AcDbEntity
  8
USP-GEO
100
AcDbCircle
 10
2.076738104989274
 20
6.058776695296707
 30
0.0
 40
0.125
100
AcDbArc
 50
180.0
 51
224.9999999999996
  0
LINE
  5
1DA
100
AcDbEntity
  8
USP-GEO
100
AcDbLine
 10
1.951738104989274
 20
6.058776695296707
 30
0.0
 11
1.951738104989152
 21
6.875000000000071
 31
0.0
  0
LINE
  5
1DB
100
AcDbEntity
  8
USP-GEO
100
AcDbLine
 10
1.574738104989279
 20
5.864000000000078
 30
0.0
 11
1.628738104989274
 21
5.864000000000064
 31
0.0
  0
ARC
  5
1DC
100
AcDbEntity
  8
USP-GEO
100
AcDbCircle
 10
1.628738104989274
 20
6.571000000000061
 30
0.0
 40
0.082
100
AcDbArc
 50
270.0
 51
90.0
  0
ARC
  5
1DD
100
AcDbEntity
  8
USP-GEO
100
AcDbCircle
 10
1.574738104989279
 20
6.571000000000076
 30
0.0
 40
0.082
100
AcDbArc
 50
90.0
 51
270.0
  0
LINE
  5
1DE
100
AcDbEntity
  8
USP-GEO
100
AcDbLine
 10
1.628738104989274
 20
6.48900000000007
 30
0.0
 11
1.574738104989279
 21
6.489000000000077
 31
0.0
  0
LINE
  5
1DF
100
AcDbEntity
  8
USP-GEO
100
AcDbLine
 10
1.574738104989281
 20
6.65300000000008
 30
0.0
 11
1.628738104989276
 21
6.653000000000066
 31
0.0
  0
ENDBLK
  5
1E1
100
AcDbEntity
  8
0
100
AcDbBlockEnd
  0
ENDSEC
  0
SECTION
  2
ENTITIES
  0
INSERT
  5
3
100
AcDbEntity
  8
USP
100
AcDbBlockReference
  2
MP9_S
 10
1.195785741622675
 20
1.269359092920389
 30
0.0
  0
INSERT
  5
D8
100
AcDbEntity
  8
USP
100
AcDbBlockReference
  2
MP9_T
 10
9.298727859101518
 20
11.69786851518208
 30
0.0
  0
INSERT
  5
FD
100
AcDbEntity
  8
USP
100
AcDbBlockReference
  2
MP9_F
 10
9.298727859101539
 20
1.269359092920318
 30
0.0
  0
ENDSEC
  0
SECTION
  2
OBJECTS
  0
DICTIONARY
  5
1F6
102
{ACAD_XDICTIONARY
360
1F7
102
}
100
AcDbDictionary
  3
ACAD_GROUP
350
1F4
  3
ACAD_MLINESTYLE
350
1F5
1001
ACAD
1000
TREAT_AS_HARD
1070
     0
  0
DICTIONARY
  5
A
100
AcDbDictionary
280
     1
1001
ACAD
1000
TREAT_AS_HARD
1070
     1
  0
DICTIONARY
  5
1E2
100
AcDbDictionary
280
     1
1001
ACAD
1000
TREAT_AS_HARD
1070
     1
  0
DICTIONARY
  5
1E6
100
AcDbDictionary
280
     1
1001
ACAD
1000
TREAT_AS_HARD
1070
     1
  0
DICTIONARY
  5
1F7
100
AcDbDictionary
280
     1
1001
ACAD
1000
TREAT_AS_HARD
1070
     1
  0
DICTIONARY
  5
1F4
102
{ACAD_REACTORS
330
1F6
102
}
100
AcDbDictionary
1001
ACAD
1000
TREAT_AS_HARD
1070
     0
  0
DICTIONARY
  5
1F5
102
{ACAD_REACTORS
330
1F6
102
}
100
AcDbDictionary
  3
STANDARD
350
1F8
1001
ACAD
1000
TREAT_AS_HARD
1070
     0
  0
MLINESTYLE
  5
1F8
102
{ACAD_REACTORS
330
1F5
102
}
100
AcDbMlineStyle
  2
STANDARD
 70
     0
  3

 62
     0
 51
90.0
 52
90.0
 71
     2
 49
0.5
 62
   256
  6
BYLAYER
 49
-0.5
 62
   256
  6
BYLAYER
  0
ENDSEC
  0
EOF
