  0
SECTION
  2
HEADER
  9
$ACADVER
  1
AC1014
  9
$ACADMAINTVER
 70
     9
  9
$DWGCODEPAGE
  3
ANSI_1252
  9
$INSBASE
 10
0.0
 20
0.0
 30
0.0
  9
$EXTMIN
 10
-0.000817545986938
 20
0.0031504138974015
 30
0.0
  9
$EXTMAX
 10
11.89008683551783
 20
14.7640104613653
 30
0.0
  9
$LIMMIN
 10
0.0
 20
0.0
  9
$LIMMAX
 10
12.0
 20
9.0
  9
$ORTHOMODE
 70
     1
  9
$REGENMODE
 70
     1
  9
$FILLMODE
 70
     1
  9
$QTEXTMODE
 70
     0
  9
$MIRRTEXT
 70
     0
  9
$DRAGMODE
 70
     2
  9
$LTSCALE
 40
1.5
  9
$OSMODE
 70
     0
  9
$ATTMODE
 70
     1
  9
$TEXTSIZE
 40
0.75
  9
$TRACEWID
 40
0.05
  9
$TEXTSTYLE
  7
STANDARD
  9
$CLAYER
  8
USP
  9
$CELTYPE
  6
BYLAYER
  9
$CECOLOR
 62
   256
  9
$CELTSCALE
 40
1.0
  9
$DELOBJ
 70
     1
  9
$DISPSILH
 70
     1
  9
$DIMSCALE
 40
7.0
  9
$DIMASZ
 40
0.125
  9
$DIMEXO
 40
0.0625
  9
$DIMDLI
 40
0.37890625
  9
$DIMRND
 40
0.0
  9
$DIMDLE
 40
0.0
  9
$DIMEXE
 40
0.09375
  9
$DIMTP
 40
0.0
  9
$DIMTM
 40
0.0
  9
$DIMTXT
 40
0.109375
  9
$DIMCEN
 40
0.0
  9
$DIMTSZ
 40
0.0
  9
$DIMTOL
 70
     0
  9
$DIMLIM
 70
     0
  9
$DIMTIH
 70
     1
  9
$DIMTOH
 70
     1
  9
$DIMSE1
 70
     0
  9
$DIMSE2
 70
     0
  9
$DIMTAD
 70
     0
  9
$DIMZIN
 70
     8
  9
$DIMBLK
  1

  9
$DIMASO
 70
     1
  9
$DIMSHO
 70
     1
  9
$DIMPOST
  1

  9
$DIMAPOST
  1

  9
$DIMALT
 70
     0
  9
$DIMALTD
 70
     2
  9
$DIMALTF
 40
25.4
  9
$DIMLFAC
 40
1.0
  9
$DIMTOFL
 70
     0
  9
$DIMTVP
 40
0.0
  9
$DIMTIX
 70
     0
  9
$DIMSOXD
 70
     0
  9
$DIMSAH
 70
     0
  9
$DIMBLK1
  1

  9
$DIMBLK2
  1

  9
$DIMSTYLE
  2
STANDARD
  9
$DIMCLRD
 70
     0
  9
$DIMCLRE
 70
     0
  9
$DIMCLRT
 70
   256
  9
$DIMTFAC
 40
1.0
  9
$DIMGAP
 40
0.08984375
  9
$DIMJUST
 70
     0
  9
$DIMSD1
 70
     0
  9
$DIMSD2
 70
     0
  9
$DIMTOLJ
 70
     1
  9
$DIMTZIN
 70
     0
  9
$DIMALTZ
 70
     0
  9
$DIMALTTZ
 70
     0
  9
$DIMFIT
 70
     3
  9
$DIMUPT
 70
     1
  9
$DIMUNIT
 70
     7
  9
$DIMDEC
 70
     4
  9
$DIMTDEC
 70
     4
  9
$DIMALTU
 70
     2
  9
$DIMALTTD
 70
     2
  9
$DIMTXSTY
  7
STANDARD
  9
$DIMAUNIT
 70
     0
  9
$LUNITS
 70
     5
  9
$LUPREC
 70
     6
  9
$SKETCHINC
 40
0.1
  9
$FILLETRAD
 40
0.0
  9
$AUNITS
 70
     0
  9
$AUPREC
 70
     1
  9
$MENU
  1
CUSTOM
  9
$ELEVATION
 40
0.0
  9
$PELEVATION
 40
0.0
  9
$THICKNESS
 40
0.0
  9
$LIMCHECK
 70
     0
  9
$BLIPMODE
 70
     0
  9
$CHAMFERA
 40
0.0
  9
$CHAMFERB
 40
0.0
  9
$CHAMFERC
 40
0.0
  9
$CHAMFERD
 40
0.0
  9
$SKPOLY
 70
     0
  9
$TDCREATE
 40
2451263.663231366
  9
$TDUPDATE
 40
2452759.746012187
  9
$TDINDWG
 40
0.4768842245
  9
$TDUSRTIMER
 40
0.4768842245
  9
$USRTIMER
 70
     1
  9
$ANGBASE
 50
0.0
  9
$ANGDIR
 70
     0
  9
$PDMODE
 70
     0
  9
$PDSIZE
 40
0.0
  9
$PLINEWID
 40
0.0
  9
$COORDS
 70
     2
  9
$SPLFRAME
 70
     0
  9
$SPLINETYPE
 70
     6
  9
$SPLINESEGS
 70
     8
  9
$ATTDIA
 70
     0
  9
$ATTREQ
 70
     0
  9
$HANDLING
 70
     1
  9
$HANDSEED
  5
18A
  9
$SURFTAB1
 70
     6
  9
$SURFTAB2
 70
     6
  9
$SURFTYPE
 70
     6
  9
$SURFU
 70
     6
  9
$SURFV
 70
     6
  9
$UCSNAME
  2

  9
$UCSORG
 10
0.0
 20
0.0
 30
0.0
  9
$UCSXDIR
 10
1.0
 20
0.0
 30
0.0
  9
$UCSYDIR
 10
0.0
 20
1.0
 30
0.0
  9
$PUCSNAME
  2

  9
$PUCSORG
 10
0.0
 20
0.0
 30
0.0
  9
$PUCSXDIR
 10
1.0
 20
0.0
 30
0.0
  9
$PUCSYDIR
 10
0.0
 20
1.0
 30
0.0
  9
$USERI1
 70
     0
  9
$USERI2
 70
     0
  9
$USERI3
 70
     0
  9
$USERI4
 70
     0
  9
$USERI5
 70
     0
  9
$USERR1
 40
0.0
  9
$USERR2
 40
0.0
  9
$USERR3
 40
0.0
  9
$USERR4
 40
0.0
  9
$USERR5
 40
0.0
  9
$WORLDVIEW
 70
     1
  9
$SHADEDGE
 70
     3
  9
$SHADEDIF
 70
    70
  9
$TILEMODE
 70
     1
  9
$MAXACTVP
 70
    16
  9
$PINSBASE
 10
0.0
 20
0.0
 30
0.0
  9
$PLIMCHECK
 70
     0
  9
$PEXTMIN
 10
1.000000000000000E+20
 20
1.000000000000000E+20
 30
1.000000000000000E+20
  9
$PEXTMAX
 10
-1.000000000000000E+20
 20
-1.000000000000000E+20
 30
-1.000000000000000E+20
  9
$PLIMMIN
 10
0.0
 20
0.0
  9
$PLIMMAX
 10
12.0
 20
9.0
  9
$UNITMODE
 70
     0
  9
$VISRETAIN
 70
     0
  9
$PLINEGEN
 70
     0
  9
$PSLTSCALE
 70
     0
  9
$TREEDEPTH
 70
  3020
  9
$PICKSTYLE
 70
     1
  9
$CMLSTYLE
  2
STANDARD
  9
$CMLJUST
 70
     0
  9
$CMLSCALE
 40
1.0
  9
$PROXYGRAPHICS
 70
     1
  9
$MEASUREMENT
 70
     0
  0
ENDSEC
  0
SECTION
  2
CLASSES
  0
CLASS
  1
ACDBDICTIONARYWDFLT
  2
AcDbDictionaryWithDefault
  3
AutoCAD 2000
 90
        0
280
     1
281
     0
  0
CLASS
  1
ACDBPLACEHOLDER
  2
AcDbPlaceHolder
  3
AutoCAD 2000
 90
        0
280
     1
281
     0
  0
CLASS
  1
LAYOUT
  2
AcDbLayout
  3
AutoCAD 2000
 90
        0
280
     1
281
     0
  0
CLASS
  1
DICTIONARYVAR
  2
AcDbDictionaryVar
  3
"AutoCAD"
 90
        0
280
     1
281
     0
  0
CLASS
  1
LONG_TRANSACTION
  2
AcDbLongTransaction
  3
AutoCAD 2000
 90
        0
280
     1
281
     0
  0
CLASS
  1
LWPOLYLINE
  2
AcDbPolyline
  3
"AutoCAD"
 90
        0
280
     1
281
     1
  0
CLASS
  1
HATCH
  2
AcDbHatch
  3
"ACAD_SEDONA"
 90
        0
280
     1
281
     1
  0
CLASS
  1
XRECORD
  2
AcDbXrecord
  3
"<Built In>"
 90
        0
280
     0
281
     0
  0
CLASS
  1
LONG_TRANSACTION
  2
AcDbLongTransaction
  3
AutoCAD 2000
 90
        0
280
     1
281
     0
  0
CLASS
  1
LWPOLYLINE
  2
AcDbPolyline
  3
"AutoCAD"
 90
        0
280
     1
281
     1
  0
CLASS
  1
HATCH
  2
AcDbHatch
  3
"ACAD_SEDONA"
 90
        0
280
     1
281
     1
  0
CLASS
  1
XRECORD
  2
AcDbXrecord
  3
"<Built In>"
 90
        0
280
     0
281
     0
  0
ENDSEC
  0
SECTION
  2
TABLES
  0
TABLE
  2
VPORT
  5
174
100
AcDbSymbolTable
 70
     1
  0
VPORT
  5
186
100
AcDbSymbolTableRecord
100
AcDbViewportTableRecord
  2
*ACTIVE
 70
     0
 10
0.0
 20
0.0
 11
1.0
 21
1.0
 12
-11.89314259015613
 22
17.95951777331107
 13
0.0
 23
0.0
 14
1.0
 24
1.0
 15
0.0
 25
0.0
 16
0.0
 26
0.0
 36
1.0
 17
23.09603071721725
 27
-10.27010416511325
 37
-10.44050274849355
 40
15.37252638860081
 41
1.457627118644067
 42
50.0
 43
10.55307667737539
 44
10.55307667737539
 50
0.0
 51
0.0
 71
     0
 72
   100
 73
     1
 74
     1
 75
     0
 76
     0
 77
     0
 78
     0
  0
ENDTAB
  0
TABLE
  2
LTYPE
  5
170
100
AcDbSymbolTable
 70
     1
  0
LTYPE
  5
171
100
AcDbSymbolTableRecord
100
AcDbLinetypeTableRecord
  2
BYBLOCK
 70
     0
  3

 72
    65
 73
     0
 40
0.0
  0
LTYPE
  5
6
100
AcDbSymbolTableRecord
100
AcDbLinetypeTableRecord
  2
BYLAYER
 70
     0
  3

 72
    65
 73
     0
 40
0.0
  0
LTYPE
  5
5
100
AcDbSymbolTableRecord
100
AcDbLinetypeTableRecord
  2
CONTINUOUS
 70
     0
  3
Solid line
 72
    65
 73
     0
 40
0.0
  0
ENDTAB
  0
TABLE
  2
LAYER
  5
16E
100
AcDbSymbolTable
 70
     5
  0
LAYER
  5
A8
100
AcDbSymbolTableRecord
100
AcDbLayerTableRecord
  2
0
 70
     0
 62
     7
  6
CONTINUOUS
  0
LAYER
  5
C
100
AcDbSymbolTableRecord
100
AcDbLayerTableRecord
  2
USP-GEO
 70
     0
 62
     7
  6
CONTINUOUS
  0
LAYER
  5
9
100
AcDbSymbolTableRecord
100
AcDbLayerTableRecord
  2
USP-TXT
 70
     0
 62
     7
  6
CONTINUOUS
  0
LAYER
  5
11
102
{ACAD_XDICTIONARY
360
12
102
}
100
AcDbSymbolTableRecord
100
AcDbLayerTableRecord
  2
USP-HID
 70
     0
 62
     7
  6
CONTINUOUS
  0
LAYER
  5
4
100
AcDbSymbolTableRecord
100
AcDbLayerTableRecord
  2
USP
 70
     0
 62
     7
  6
CONTINUOUS
  0
ENDTAB
  0
TABLE
  2
STYLE
  5
16F
100
AcDbSymbolTable
 70
     1
  0
STYLE
  5
A
100
AcDbSymbolTableRecord
100
AcDbTextStyleTableRecord
  2
STANDARD
 70
     0
 40
0.0
 41
1.0
 50
0.0
 71
     0
 42
0.75
  3
txt
  4

  0
ENDTAB
  0
TABLE
  2
VIEW
  5
172
100
AcDbSymbolTable
 70
     0
  0
ENDTAB
  0
TABLE
  2
UCS
  5
173
100
AcDbSymbolTable
 70
     0
  0
ENDTAB
  0
TABLE
  2
APPID
  5
176
100
AcDbSymbolTable
 70
     1
  0
APPID
  5
13
100
AcDbSymbolTableRecord
100
AcDbRegAppTableRecord
  2
ACAD
 70
     0
  0
ENDTAB
  0
TABLE
  2
DIMSTYLE
  5
177
100
AcDbSymbolTable
 70
     1
  0
DIMSTYLE
105
17E
100
AcDbSymbolTableRecord
100
AcDbDimStyleTableRecord
  2
STANDARD
 70
     0
  3

  4

  5

  6

  7

 40
1.0
 41
0.18
 42
0.0625
 43
0.38
 44
0.18
 45
0.0
 46
0.0
 47
0.0
 48
0.0
140
0.18
141
0.09
142
0.0
143
25.4
144
1.0
145
0.0
146
1.0
147
0.09
 71
     0
 72
     0
 73
     1
 74
     1
 75
     0
 76
     0
 77
     0
 78
     0
170
     0
171
     2
172
     0
173
     0
174
     0
175
     0
176
     0
177
     0
178
     0
270
     2
271
     4
272
     4
273
     2
274
     2
340
A
275
     0
280
     0
281
     0
282
     0
283
     1
284
     0
285
     0
286
     0
287
     3
288
     0
  0
ENDTAB
  0
TABLE
  2
BLOCK_RECORD
  5
1
100
AcDbSymbolTable
 70
     3
  0
BLOCK_RECORD
  5
2
102
{ACAD_XDICTIONARY
360
167
102
}
100
AcDbSymbolTableRecord
100
AcDbBlockTableRecord
  2
*MODEL_SPACE
  0
BLOCK_RECORD
  5
16A
102
{ACAD_XDICTIONARY
360
16B
102
}
100
AcDbSymbolTableRecord
100
AcDbBlockTableRecord
  2
*PAPER_SPACE
  0
BLOCK_RECORD
  5
7
100
AcDbSymbolTableRecord
100
AcDbBlockTableRecord
  2
MP5_S
  0
BLOCK_RECORD
  5
AB
100
AcDbSymbolTableRecord
100
AcDbBlockTableRecord
  2
MP5_F
  0
BLOCK_RECORD
  5
149
100
AcDbSymbolTableRecord
100
AcDbBlockTableRecord
  2
MP5_T
  0
ENDTAB
  0
ENDSEC
  0
SECTION
  2
BLOCKS
  0
BLOCK
  5
168
100
AcDbEntity
  8
0
100
AcDbBlockBegin
  2
*MODEL_SPACE
 70
     0
 10
0.0
 20
0.0
 30
0.0
  3
*MODEL_SPACE
  1

  0
ENDBLK
  5
169
100
AcDbEntity
  8
0
100
AcDbBlockEnd
  0
BLOCK
  5
16C
100
AcDbEntity
 67
     1
  8
0
100
AcDbBlockBegin
  2
*PAPER_SPACE
 70
     0
 10
0.0
 20
0.0
 30
0.0
  3
*PAPER_SPACE
  1

  0
ENDBLK
  5
16D
100
AcDbEntity
 67
     1
  8
0
100
AcDbBlockEnd
  0
BLOCK
  5
A7
100
AcDbEntity
  8
0
100
AcDbBlockBegin
  2
MP5_S
 70
     0
 10
0.0
 20
0.0
 30
0.0
  3
MP5_S
  1

  0
TEXT
  5
8
100
AcDbEntity
  8
USP-TXT
100
AcDbText
 10
-1.039300958935197
 20
-1.777923596626628
 30
0.0
 40
0.296875
  1
MP5 - SIDE VIEW
 72
     1
 11
1.137782374398136
 21
-1.777923596626628
 31
0.0
100
AcDbText
  0
LINE
  5
B
100
AcDbEntity
  8
USP-GEO
100
AcDbLine
 10
0.0
 20
0.0
 30
0.0
 11
1.527929228798435
 21
-0.0000000000000004
 31
0.0
  0
ELLIPSE
  5
D
100
AcDbEntity
  8
USP-GEO
100
AcDbEllipse
 10
1.255137481214054
 20
0.5250000000000057
 30
0.0
 11
0.0
 21
0.082
 31
0.0
210
0.0
220
0.0
230
1.0
 40
0.9848077530122079
 41
0.0000000000000002
 42
3.141592653589848
  0
ELLIPSE
  5
E
100
AcDbEntity
  8
USP-GEO
100
AcDbEllipse
 10
1.264167186452734
 20
0.5250000000000057
 30
0.0
 11
0.0
 21
-0.082
 31
0.0
210
0.0
220
0.0
230
1.0
 40
0.9848077530122079
 41
-3.141592653589793
 42
0.0000000000000002
  0
LINE
  5
F
100
AcDbEntity
  8
USP-GEO
100
AcDbLine
 10
2.266535043557595
 20
4.624999999999999
 30
0.0
 11
0.0
 21
4.625
 31
0.0
  0
LINE
  5
10
100
AcDbEntity
  8
USP-HID
100
AcDbLine
 10
0.0520000000000012
 20
1.531997326184068
 30
0.0
 11
0.0520000000000009
 21
0.9699999999999988
 31
0.0
  0
LINE
  5
14
100
AcDbEntity
  8
USP-GEO
100
AcDbLine
 10
0.0
 20
1.531997326184061
 30
0.0
 11
-0.0000000000000002
 21
0.9700000000000024
 31
0.0
  0
LINE
  5
15
100
AcDbEntity
  8
USP-HID
100
AcDbLine
 10
0.1523192333019452
 20
0.8764999999904432
 30
0.0
 11
0.152319233301945
 21
0.3134973261936267
 31
0.0
  0
LINE
  5
16
100
AcDbEntity
  8
USP-GEO
100
AcDbLine
 10
0.0520000000000014
 20
0.8764999999904432
 30
0.0
 11
0.0520000000000012
 21
0.3134973261936267
 31
0.0
  0
LINE
  5
17
100
AcDbEntity
  8
USP-GEO
100
AcDbLine
 10
-0.0000000000000002
 20
0.3134973261936267
 30
0.0
 11
0.0
 21
0.8764999999904432
 31
0.0
  0
LINE
  5
18
100
AcDbEntity
  8
USP-GEO
100
AcDbLine
 10
0.1432895280632653
 20
0.8764999999904432
 30
0.0
 11
0.1432895280632651
 21
0.3134973261936267
 31
0.0
  0
LINE
  5
19
100
AcDbEntity
  8
USP-HID
100
AcDbLine
 10
0.0520000000000014
 20
0.2930000000000064
 30
0.0
 11
0.0
 21
0.2930000000000064
 31
0.0
  0
LINE
  5
1A
100
AcDbEntity
  8
USP-HID
100
AcDbLine
 10
0.0520000000000014
 20
0.3750000000000142
 30
0.0
 11
0.0
 21
0.3750000000000142
 31
0.0
  0
LINE
  5
1B
100
AcDbEntity
  8
USP-GEO
100
AcDbLine
 10
0.0512100031566334
 20
0.219997326184064
 30
0.0
 11
0.0
 21
0.219997326184064
 31
0.0
  0
LINE
  5
1C
100
AcDbEntity
  8
USP-GEO
100
AcDbLine
 10
0.0
 20
0.219997326184064
 30
0.0
 11
0.0
 21
0.0
 31
0.0
  0
LINE
  5
1D
100
AcDbEntity
  8
USP-GEO
100
AcDbLine
 10
0.0
 20
0.2199973261840666
 30
0.0
 11
0.0
 21
0.3134973261936267
 31
0.0
  0
LINE
  5
1E
100
AcDbEntity
  8
USP-HID
100
AcDbLine
 10
0.0520000000000009
 20
0.219997326184064
 30
0.0
 11
0.0520000000000007
 21
0.0
 31
0.0
  0
LINE
  5
1F
100
AcDbEntity
  8
USP-HID
100
AcDbLine
 10
0.0520000000000014
 20
0.2200007674178632
 30
0.0
 11
0.0520000000000014
 21
0.2199973261840666
 31
0.0
  0
ELLIPSE
  5
20
100
AcDbEntity
  8
USP-HID
100
AcDbEllipse
 10
0.0602397083953132
 20
0.3134973261936267
 30
0.0
 11
0.0
 21
0.0935000000095602
 31
0.0
210
0.0
220
0.0
230
1.0
 40
0.9848077530122077
 41
3.141592653589793
 42
4.712388980384746
  0
LINE
  5
21
100
AcDbEntity
  8
USP-HID
100
AcDbLine
 10
0.0602397083953132
 20
0.219997326184064
 30
0.0
 11
0.0512100031566327
 21
0.219997326184064
 31
0.0
  0
LINE
  5
22
100
AcDbEntity
  8
USP-GEO
100
AcDbLine
 10
0.0520000000000014
 20
0.3134973261936267
 30
0.0
 11
0.0520000000000014
 21
0.2200007674178632
 31
0.0
  0
ELLIPSE
  5
23
100
AcDbEntity
  8
USP-GEO
100
AcDbEllipse
 10
0.0512100031566334
 20
0.3134973261936267
 30
0.0
 11
0.0
 21
-0.0935000000095602
 31
0.0
210
0.0
220
0.0
230
1.0
 40
0.9848077530122077
 41
0.0000000000000002
 42
1.570796326794896
  0
LINE
  5
24
100
AcDbEntity
  8
USP-HID
100
AcDbLine
 10
0.0520000000000014
 20
0.456999999999983
 30
0.0
 11
0.0
 21
0.456999999999983
 31
0.0
  0
LINE
  5
25
100
AcDbEntity
  8
USP-GEO
100
AcDbLine
 10
0.0
 20
0.9700000000000024
 30
0.0
 11
0.0512100031566334
 21
0.9700000000000024
 31
0.0
  0
LINE
  5
26
100
AcDbEntity
  8
USP-GEO
100
AcDbLine
 10
0.0
 20
0.8764999999904432
 30
0.0
 11
0.0
 21
0.9700000000000033
 31
0.0
  0
LINE
  5
27
100
AcDbEntity
  8
USP-HID
100
AcDbLine
 10
0.0520000000000014
 20
0.9700000000000033
 30
0.0
 11
0.0520000000000014
 21
0.9699965587662067
 31
0.0
  0
LINE
  5
28
100
AcDbEntity
  8
USP-HID
100
AcDbLine
 10
0.0602397083953132
 20
0.9700000000000024
 30
0.0
 11
0.0512100031566327
 21
0.9700000000000024
 31
0.0
  0
ELLIPSE
  5
29
100
AcDbEntity
  8
USP-HID
100
AcDbEllipse
 10
0.0602397083953132
 20
0.8764999999904432
 30
0.0
 11
0.0
 21
0.0935000000095602
 31
0.0
210
0.0
220
0.0
230
1.0
 40
0.9848077530122077
 41
-1.570796326794896
 42
-0.0000000000000002
  0
LINE
  5
2A
100
AcDbEntity
  8
USP-GEO
100
AcDbLine
 10
0.0520000000000014
 20
0.9699965587662067
 30
0.0
 11
0.0520000000000014
 21
0.8764999999904432
 31
0.0
  0
ELLIPSE
  5
2B
100
AcDbEntity
  8
USP-GEO
100
AcDbEllipse
 10
0.0512100031566334
 20
0.8764999999904432
 30
0.0
 11
0.0
 21
-0.0935000000095602
 31
0.0
210
0.0
220
0.0
230
1.0
 40
0.9848077530122077
 41
1.570796326794896
 42
3.141592653589793
  0
ELLIPSE
  5
2C
100
AcDbEntity
  8
USP-HID
100
AcDbEllipse
 10
0.060239708395315
 20
3.219501336898403
 30
0.0
 11
0.0
 21
0.0935000000095602
 31
0.0
210
0.0
220
0.0
230
1.0
 40
0.9848077530122077
 41
-1.570796326794896
 42
-0.0000000000000002
  0
LINE
  5
2D
100
AcDbEntity
  8
USP-GEO
100
AcDbLine
 10
0.0520000000000014
 20
3.312997895674167
 30
0.0
 11
0.0520000000000014
 21
3.219501336898403
 31
0.0
  0
LINE
  5
2E
100
AcDbEntity
  8
USP-GEO
100
AcDbLine
 10
0.0000000000000018
 20
3.219501336898403
 30
0.0
 11
0.0000000000000018
 21
3.313001336907963
 31
0.0
  0
ELLIPSE
  5
2F
100
AcDbEntity
  8
USP-GEO
100
AcDbEllipse
 10
0.0512100031566352
 20
3.219501336898403
 30
0.0
 11
0.0
 21
-0.0935000000095602
 31
0.0
210
0.0
220
0.0
230
1.0
 40
0.9848077530122077
 41
1.570796326794896
 42
3.141592653589793
  0
LINE
  5
30
100
AcDbEntity
  8
USP-HID
100
AcDbLine
 10
0.152319233301947
 20
2.18849999999044
 30
0.0
 11
0.1523192333019467
 21
1.625497326193624
 31
0.0
  0
LINE
  5
31
100
AcDbEntity
  8
USP-GEO
100
AcDbLine
 10
0.0520000000000014
 20
2.18849999999044
 30
0.0
 11
0.0520000000000012
 21
1.625497326193624
 31
0.0
  0
LINE
  5
32
100
AcDbEntity
  8
USP-GEO
100
AcDbLine
 10
-0.0000000000000002
 20
1.625497326193624
 30
0.0
 11
0.0
 21
2.18849999999044
 31
0.0
  0
LINE
  5
33
100
AcDbEntity
  8
USP-GEO
100
AcDbLine
 10
0.1432895280632671
 20
2.18849999999044
 30
0.0
 11
0.1432895280632669
 21
1.625497326193624
 31
0.0
  0
ELLIPSE
  5
34
100
AcDbEntity
  8
USP-HID
100
AcDbEllipse
 10
0.0602397083953132
 20
1.625497326193624
 30
0.0
 11
0.0
 21
0.0935000000095602
 31
0.0
210
0.0
220
0.0
230
1.0
 40
0.9848077530122077
 41
3.141592653589793
 42
4.712388980384746
  0
LINE
  5
35
100
AcDbEntity
  8
USP-GEO
100
AcDbLine
 10
0.0520000000000014
 20
1.625497326193624
 30
0.0
 11
0.0520000000000014
 21
1.53200076741786
 31
0.0
  0
LINE
  5
36
100
AcDbEntity
  8
USP-GEO
100
AcDbLine
 10
0.0
 20
1.531997326184064
 30
0.0
 11
0.0
 21
1.625497326193624
 31
0.0
  0
ELLIPSE
  5
37
100
AcDbEntity
  8
USP-GEO
100
AcDbEllipse
 10
0.0512100031566334
 20
1.625497326193624
 30
0.0
 11
0.0
 21
-0.0935000000095602
 31
0.0
210
0.0
220
0.0
230
1.0
 40
0.9848077530122077
 41
0.0000000000000002
 42
1.570796326794896
  0
LINE
  5
38
100
AcDbEntity
  8
USP-HID
100
AcDbLine
 10
0.0520000000000014
 20
1.125
 30
0.0
 11
0.0
 21
1.125
 31
0.0
  0
LINE
  5
39
100
AcDbEntity
  8
USP-GEO
100
AcDbLine
 10
0.0512100031566334
 20
1.531997326184061
 30
0.0
 11
0.0
 21
1.531997326184061
 31
0.0
  0
LINE
  5
3A
100
AcDbEntity
  8
USP-HID
100
AcDbLine
 10
0.0520000000000014
 20
1.53200076741786
 30
0.0
 11
0.0520000000000014
 21
1.531997326184064
 31
0.0
  0
LINE
  5
3B
100
AcDbEntity
  8
USP-HID
100
AcDbLine
 10
0.0602397083953132
 20
1.531997326184061
 30
0.0
 11
0.0512100031566327
 21
1.531997326184061
 31
0.0
  0
LINE
  5
3C
100
AcDbEntity
  8
USP-HID
100
AcDbLine
 10
0.0520000000000014
 20
1.757000000000005
 30
0.0
 11
0.0
 21
1.757000000000005
 31
0.0
  0
LINE
  5
3D
100
AcDbEntity
  8
USP-HID
100
AcDbLine
 10
0.0520000000000014
 20
1.593000000000003
 30
0.0
 11
0.0
 21
1.593000000000003
 31
0.0
  0
LINE
  5
3E
100
AcDbEntity
  8
USP-HID
100
AcDbLine
 10
0.152319233301947
 20
3.219501336898403
 30
0.0
 11
0.1523192333019467
 21
2.656498663101586
 31
0.0
  0
LINE
  5
3F
100
AcDbEntity
  8
USP-GEO
100
AcDbLine
 10
0.0520000000000014
 20
3.219501336898403
 30
0.0
 11
0.0520000000000012
 21
2.656498663101586
 31
0.0
  0
LINE
  5
40
100
AcDbEntity
  8
USP-GEO
100
AcDbLine
 10
0.0000000000000016
 20
2.656498663101586
 30
0.0
 11
0.0000000000000018
 21
3.219501336898403
 31
0.0
  0
LINE
  5
41
100
AcDbEntity
  8
USP-GEO
100
AcDbLine
 10
0.1432895280632671
 20
3.219501336898403
 30
0.0
 11
0.1432895280632669
 21
2.656498663101586
 31
0.0
  0
LINE
  5
42
100
AcDbEntity
  8
USP-HID
100
AcDbLine
 10
0.0520000000000014
 20
2.25
 30
0.0
 11
0.0000000000000018
 21
2.25
 31
0.0
  0
LINE
  5
43
100
AcDbEntity
  8
USP-GEO
100
AcDbLine
 10
0.0000000000000018
 20
2.282
 30
0.0
 11
0.0512100031566352
 21
2.282
 31
0.0
  0
LINE
  5
44
100
AcDbEntity
  8
USP-GEO
100
AcDbLine
 10
0.0512100031566352
 20
2.562998663092024
 30
0.0
 11
0.0000000000000018
 21
2.562998663092024
 31
0.0
  0
LINE
  5
45
100
AcDbEntity
  8
USP-GEO
100
AcDbLine
 10
0.0000000000000018
 20
2.562998663092024
 30
0.0
 11
0.0000000000000018
 21
2.282
 31
0.0
  0
LINE
  5
46
100
AcDbEntity
  8
USP-GEO
100
AcDbLine
 10
0.0
 20
2.18849999999044
 30
0.0
 11
0.0
 21
2.282
 31
0.0
  0
LINE
  5
47
100
AcDbEntity
  8
USP-GEO
100
AcDbLine
 10
0.0000000000000018
 20
2.562998663092026
 30
0.0
 11
0.0000000000000018
 21
2.656498663101586
 31
0.0
  0
LINE
  5
48
100
AcDbEntity
  8
USP-HID
100
AcDbLine
 10
0.0520000000000014
 20
2.562998663092031
 30
0.0
 11
0.0520000000000014
 21
2.281999999999783
 31
0.0
  0
LINE
  5
49
100
AcDbEntity
  8
USP-HID
100
AcDbLine
 10
0.0520000000000014
 20
2.282
 30
0.0
 11
0.0520000000000014
 21
2.281996558766204
 31
0.0
  0
LINE
  5
4A
100
AcDbEntity
  8
USP-HID
100
AcDbLine
 10
0.060239708395315
 20
2.282
 30
0.0
 11
0.0512100031566345
 21
2.282
 31
0.0
  0
ELLIPSE
  5
4B
100
AcDbEntity
  8
USP-HID
100
AcDbEllipse
 10
0.0602397083953132
 20
2.18849999999044
 30
0.0
 11
0.0
 21
0.0935000000095602
 31
0.0
210
0.0
220
0.0
230
1.0
 40
0.9848077530122077
 41
-1.570796326794896
 42
-0.0000000000000002
  0
LINE
  5
4C
100
AcDbEntity
  8
USP-GEO
100
AcDbLine
 10
0.0520000000000014
 20
2.281996558766204
 30
0.0
 11
0.0520000000000014
 21
2.18849999999044
 31
0.0
  0
ELLIPSE
  5
4D
100
AcDbEntity
  8
USP-GEO
100
AcDbEllipse
 10
0.0512100031566334
 20
2.18849999999044
 30
0.0
 11
0.0
 21
-0.0935000000095602
 31
0.0
210
0.0
220
0.0
230
1.0
 40
0.9848077530122077
 41
1.570796326794896
 42
3.141592653589793
  0
LINE
  5
4E
100
AcDbEntity
  8
USP-HID
100
AcDbLine
 10
0.0520000000000014
 20
2.563002104325823
 30
0.0
 11
0.0520000000000014
 21
2.562998663092026
 31
0.0
  0
ELLIPSE
  5
4F
100
AcDbEntity
  8
USP-HID
100
AcDbEllipse
 10
0.060239708395315
 20
2.656498663101586
 30
0.0
 11
0.0
 21
0.0935000000095602
 31
0.0
210
0.0
220
0.0
230
1.0
 40
0.9848077530122077
 41
3.141592653589793
 42
4.712388980384746
  0
LINE
  5
50
100
AcDbEntity
  8
USP-HID
100
AcDbLine
 10
0.060239708395315
 20
2.562998663092024
 30
0.0
 11
0.0512100031566345
 21
2.562998663092024
 31
0.0
  0
LINE
  5
51
100
AcDbEntity
  8
USP-GEO
100
AcDbLine
 10
0.0520000000000014
 20
2.656498663101586
 30
0.0
 11
0.0520000000000014
 21
2.563002104325823
 31
0.0
  0
ELLIPSE
  5
52
100
AcDbEntity
  8
USP-GEO
100
AcDbEllipse
 10
0.0512100031566352
 20
2.656498663101586
 30
0.0
 11
0.0
 21
-0.0935000000095602
 31
0.0
210
0.0
220
0.0
230
1.0
 40
0.9848077530122077
 41
0.0000000000000002
 42
1.570796326794896
  0
LINE
  5
53
100
AcDbEntity
  8
USP-HID
100
AcDbLine
 10
0.0520000000000014
 20
3.243000000000009
 30
0.0
 11
0.0000000000000018
 21
3.243000000000009
 31
0.0
  0
LINE
  5
54
100
AcDbEntity
  8
USP-HID
100
AcDbLine
 10
0.0520000000000014
 20
3.0
 30
0.0
 11
0.0000000000000018
 21
3.0
 31
0.0
  0
ELLIPSE
  5
55
100
AcDbEntity
  8
USP-HID
100
AcDbEllipse
 10
0.9726640915611159
 20
3.174999999999982
 30
0.0
 11
0.0
 21
-0.082
 31
0.0
210
0.0
220
0.0
230
1.0
 40
0.9848077530122079
 41
0.0000000000000002
 42
3.141592653589848
  0
ELLIPSE
  5
56
100
AcDbEntity
  8
USP-GEO
100
AcDbEllipse
 10
0.9636343863224361
 20
3.174999999999982
 30
0.0
 11
0.0
 21
0.082
 31
0.0
210
0.0
220
0.0
230
1.0
 40
0.9848077530122079
 41
-3.141592653589793
 42
0.0000000000000002
  0
ELLIPSE
  5
57
100
AcDbEntity
  8
USP-GEO
100
AcDbEllipse
 10
0.9104547676597825
 20
3.174999999999997
 30
0.0
 11
0.0
 21
0.082
 31
0.0
210
0.0
220
0.0
230
1.0
 40
0.9848077530122079
 41
0.0000000000000002
 42
3.141592653589848
  0
ELLIPSE
  5
58
100
AcDbEntity
  8
USP-GEO
100
AcDbEllipse
 10
0.9194844728984623
 20
3.174999999999997
 30
0.0
 11
0.0
 21
-0.082
 31
0.0
210
0.0
220
0.0
230
1.0
 40
0.9848077530122079
 41
-3.141592653589793
 42
0.0000000000000002
  0
LINE
  5
59
100
AcDbEntity
  8
USP-HID
100
AcDbLine
 10
0.9726640915611142
 20
3.093000000000003
 30
0.0
 11
0.963634386322434
 21
3.093000000000003
 31
0.0
  0
LINE
  5
5A
100
AcDbEntity
  8
USP-HID
100
AcDbLine
 10
0.9726640915611142
 20
3.257000000000005
 30
0.0
 11
0.963634386322434
 21
3.257000000000005
 31
0.0
  0
LINE
  5
5B
100
AcDbEntity
  8
USP-GEO
100
AcDbLine
 10
0.9104547676597825
 20
3.092999999999996
 30
0.0
 11
0.9636343863224343
 21
3.092999999999996
 31
0.0
  0
LINE
  5
5C
100
AcDbEntity
  8
USP-GEO
100
AcDbLine
 10
0.9636343863224343
 20
3.257000000000005
 30
0.0
 11
0.9104547676597807
 21
3.257000000000005
 31
0.0
  0
LINE
  5
5D
100
AcDbEntity
  8
USP-HID
100
AcDbLine
 10
0.0520000000000018
 20
4.625
 30
0.0
 11
0.0520000000000018
 21
4.344001336907972
 31
0.0
  0
LINE
  5
5E
100
AcDbEntity
  8
USP-GEO
100
AcDbLine
 10
0.0
 20
4.625
 30
0.0
 11
0.0000000000000018
 21
4.344001336907972
 31
0.0
  0
LINE
  5
5F
100
AcDbEntity
  8
USP-HID
100
AcDbLine
 10
0.152319233301947
 20
4.250501336898409
 30
0.0
 11
0.1523192333019467
 21
3.687498663101592
 31
0.0
  0
LINE
  5
60
100
AcDbEntity
  8
USP-GEO
100
AcDbLine
 10
0.0520000000000014
 20
4.250501336898409
 30
0.0
 11
0.0520000000000012
 21
3.687498663101592
 31
0.0
  0
LINE
  5
61
100
AcDbEntity
  8
USP-GEO
100
AcDbLine
 10
0.0000000000000016
 20
3.687498663101592
 30
0.0
 11
0.0000000000000018
 21
4.250501336898409
 31
0.0
  0
LINE
  5
62
100
AcDbEntity
  8
USP-GEO
100
AcDbLine
 10
0.1432895280632671
 20
4.250501336898409
 30
0.0
 11
0.1432895280632669
 21
3.687498663101592
 31
0.0
  0
LINE
  5
63
100
AcDbEntity
  8
USP-HID
100
AcDbLine
 10
0.0520000000000014
 20
3.406999999999989
 30
0.0
 11
0.0000000000000018
 21
3.406999999999989
 31
0.0
  0
LINE
  5
64
100
AcDbEntity
  8
USP-HID
100
AcDbLine
 10
0.0520000000000014
 20
3.625
 30
0.0
 11
0.0000000000000018
 21
3.625
 31
0.0
  0
LINE
  5
65
100
AcDbEntity
  8
USP-GEO
100
AcDbLine
 10
0.0000000000000018
 20
3.313001336907962
 30
0.0
 11
0.0512100031566352
 21
3.313001336907962
 31
0.0
  0
LINE
  5
66
100
AcDbEntity
  8
USP-GEO
100
AcDbLine
 10
0.0512100031566352
 20
3.59399866309203
 30
0.0
 11
0.0000000000000018
 21
3.59399866309203
 31
0.0
  0
LINE
  5
67
100
AcDbEntity
  8
USP-GEO
100
AcDbLine
 10
0.0000000000000018
 20
3.59399866309203
 30
0.0
 11
0.0000000000000018
 21
3.313001336907962
 31
0.0
  0
LINE
  5
68
100
AcDbEntity
  8
USP-GEO
100
AcDbLine
 10
0.0000000000000018
 20
3.593998663092032
 30
0.0
 11
0.0000000000000018
 21
3.687498663101592
 31
0.0
  0
LINE
  5
69
100
AcDbEntity
  8
USP-HID
100
AcDbLine
 10
0.0520000000000016
 20
3.593998663092037
 30
0.0
 11
0.0520000000000016
 21
3.313001336907959
 31
0.0
  0
LINE
  5
6A
100
AcDbEntity
  8
USP-HID
100
AcDbLine
 10
0.0520000000000014
 20
3.313001336907963
 30
0.0
 11
0.0520000000000014
 21
3.312997895674167
 31
0.0
  0
LINE
  5
6B
100
AcDbEntity
  8
USP-HID
100
AcDbLine
 10
0.060239708395315
 20
3.313001336907962
 30
0.0
 11
0.0512100031566345
 21
3.313001336907962
 31
0.0
  0
LINE
  5
6C
100
AcDbEntity
  8
USP-HID
100
AcDbLine
 10
0.0520000000000014
 20
3.594002104325829
 30
0.0
 11
0.0520000000000014
 21
3.593998663092032
 31
0.0
  0
ELLIPSE
  5
6D
100
AcDbEntity
  8
USP-HID
100
AcDbEllipse
 10
0.060239708395315
 20
3.687498663101592
 30
0.0
 11
0.0
 21
0.0935000000095602
 31
0.0
210
0.0
220
0.0
230
1.0
 40
0.9848077530122077
 41
3.141592653589793
 42
4.712388980384746
  0
LINE
  5
6E
100
AcDbEntity
  8
USP-HID
100
AcDbLine
 10
0.060239708395315
 20
3.59399866309203
 30
0.0
 11
0.0512100031566345
 21
3.59399866309203
 31
0.0
  0
LINE
  5
6F
100
AcDbEntity
  8
USP-GEO
100
AcDbLine
 10
0.0520000000000014
 20
3.687498663101592
 30
0.0
 11
0.0520000000000014
 21
3.594002104325829
 31
0.0
  0
ELLIPSE
  5
70
100
AcDbEntity
  8
USP-GEO
100
AcDbEllipse
 10
0.0512100031566352
 20
3.687498663101592
 30
0.0
 11
0.0
 21
-0.0935000000095602
 31
0.0
210
0.0
220
0.0
230
1.0
 40
0.9848077530122077
 41
0.0000000000000002
 42
1.570796326794896
  0
LINE
  5
71
100
AcDbEntity
  8
USP-HID
100
AcDbLine
 10
0.0520000000000014
 20
4.093000000000003
 30
0.0
 11
0.0000000000000018
 21
4.093000000000003
 31
0.0
  0
LINE
  5
72
100
AcDbEntity
  8
USP-HID
100
AcDbLine
 10
0.0520000000000014
 20
4.256999999999983
 30
0.0
 11
0.0000000000000018
 21
4.256999999999983
 31
0.0
  0
LINE
  5
73
100
AcDbEntity
  8
USP-HID
100
AcDbLine
 10
0.0520000000000014
 20
4.375
 30
0.0
 11
0.0000000000000018
 21
4.375
 31
0.0
  0
LINE
  5
74
100
AcDbEntity
  8
USP-GEO
100
AcDbLine
 10
0.0000000000000018
 20
4.344001336907972
 30
0.0
 11
0.0512100031566352
 21
4.344001336907972
 31
0.0
  0
LINE
  5
75
100
AcDbEntity
  8
USP-GEO
100
AcDbLine
 10
0.0000000000000018
 20
4.250501336898409
 30
0.0
 11
0.0000000000000018
 21
4.344001336907969
 31
0.0
  0
LINE
  5
76
100
AcDbEntity
  8
USP-HID
100
AcDbLine
 10
0.0520000000000014
 20
4.344001336907969
 30
0.0
 11
0.0520000000000014
 21
4.343997895674172
 31
0.0
  0
LINE
  5
77
100
AcDbEntity
  8
USP-HID
100
AcDbLine
 10
0.060239708395315
 20
4.344001336907972
 30
0.0
 11
0.0512100031566345
 21
4.344001336907972
 31
0.0
  0
ELLIPSE
  5
78
100
AcDbEntity
  8
USP-HID
100
AcDbEllipse
 10
0.060239708395315
 20
4.250501336898409
 30
0.0
 11
0.0
 21
0.0935000000095602
 31
0.0
210
0.0
220
0.0
230
1.0
 40
0.9848077530122077
 41
-1.570796326794896
 42
-0.0000000000000002
  0
LINE
  5
79
100
AcDbEntity
  8
USP-GEO
100
AcDbLine
 10
0.0520000000000014
 20
4.343997895674172
 30
0.0
 11
0.0520000000000014
 21
4.250501336898409
 31
0.0
  0
ELLIPSE
  5
7A
100
AcDbEntity
  8
USP-GEO
100
AcDbEllipse
 10
0.0512100031566352
 20
4.250501336898409
 30
0.0
 11
0.0
 21
-0.0935000000095602
 31
0.0
210
0.0
220
0.0
230
1.0
 40
0.9848077530122077
 41
1.570796326794896
 42
3.141592653589793
  0
LINE
  5
7B
100
AcDbEntity
  8
USP-GEO
100
AcDbLine
 10
1.527929228798435
 20
0.3750000000000142
 30
0.0
 11
2.266535043557591
 21
1.125
 31
0.0
  0
LINE
  5
7C
100
AcDbEntity
  8
USP-GEO
100
AcDbLine
 10
2.275564748796271
 20
1.125
 30
0.0
 11
1.536958934037115
 21
0.3750000000000142
 31
0.0
  0
LINE
  5
7D
100
AcDbEntity
  8
USP-GEO
100
AcDbLine
 10
1.527929228798435
 20
0.0
 30
0.0
 11
1.527929228798435
 21
0.3750000000000142
 31
0.0
  0
LINE
  5
7E
100
AcDbEntity
  8
USP-GEO
100
AcDbLine
 10
1.536958934037115
 20
0.3750000000000142
 30
0.0
 11
1.536958934037115
 21
0.0
 31
0.0
  0
LINE
  5
7F
100
AcDbEntity
  8
USP-GEO
100
AcDbLine
 10
1.536958934037115
 20
0.0
 30
0.0
 11
1.527929228798435
 21
0.0
 31
0.0
  0
LINE
  5
80
100
AcDbEntity
  8
USP-GEO
100
AcDbLine
 10
1.536958934037115
 20
0.3750000000000142
 30
0.0
 11
1.527929228798435
 21
0.3750000000000142
 31
0.0
  0
ELLIPSE
  5
81
100
AcDbEntity
  8
USP-HID
100
AcDbEllipse
 10
1.317346805115395
 20
0.5249999999999915
 30
0.0
 11
0.0
 21
-0.082
 31
0.0
210
0.0
220
0.0
230
1.0
 40
0.9848077530122079
 41
0.0000000000000002
 42
3.141592653589848
  0
ELLIPSE
  5
82
100
AcDbEntity
  8
USP-GEO
100
AcDbEllipse
 10
1.308317099876715
 20
0.5249999999999915
 30
0.0
 11
0.0
 21
0.082
 31
0.0
210
0.0
220
0.0
230
1.0
 40
0.9848077530122079
 41
-3.141592653589793
 42
0.0000000000000002
  0
LINE
  5
83
100
AcDbEntity
  8
USP-HID
100
AcDbLine
 10
1.317346805115395
 20
0.6069999999999887
 30
0.0
 11
1.308317099876715
 21
0.6069999999999887
 31
0.0
  0
LINE
  5
84
100
AcDbEntity
  8
USP-HID
100
AcDbLine
 10
1.317346805115395
 20
0.4429999999999908
 30
0.0
 11
1.308317099876715
 21
0.4429999999999908
 31
0.0
  0
LINE
  5
85
100
AcDbEntity
  8
USP-GEO
100
AcDbLine
 10
1.308317099876715
 20
0.6069999999999923
 30
0.0
 11
1.255137481214052
 21
0.6069999999999923
 31
0.0
  0
LINE
  5
86
100
AcDbEntity
  8
USP-GEO
100
AcDbLine
 10
1.255137481214054
 20
0.443000000000005
 30
0.0
 11
1.308317099876715
 21
0.443000000000005
 31
0.0
  0
LINE
  5
87
100
AcDbEntity
  8
USP-GEO
100
AcDbLine
 10
1.527929228798436
 20
3.0
 30
0.0
 11
1.527929228798438
 21
3.625
 31
0.0
  0
LINE
  5
88
100
AcDbEntity
  8
USP-GEO
100
AcDbLine
 10
1.536958934037116
 20
3.0
 30
0.0
 11
1.536958934037118
 21
3.625
 31
0.0
  0
LINE
  5
89
100
AcDbEntity
  8
USP-GEO
100
AcDbLine
 10
2.266535043557592
 20
2.25
 30
0.0
 11
1.527929228798436
 21
3.0
 31
0.0
  0
LINE
  5
8A
100
AcDbEntity
  8
USP-GEO
100
AcDbLine
 10
2.275564748796272
 20
2.25
 30
0.0
 11
1.536958934037116
 21
3.0
 31
0.0
  0
ELLIPSE
  5
8B
100
AcDbEntity
  8
USP-GEO
100
AcDbEllipse
 10
1.747541357720159
 20
1.674999999999997
 30
0.0
 11
0.0
 21
0.082
 31
0.0
210
0.0
220
0.0
230
1.0
 40
0.9848077530122079
 41
0.0000000000000002
 42
3.141592653589848
  0
ELLIPSE
  5
8C
100
AcDbEntity
  8
USP-GEO
100
AcDbEllipse
 10
1.756571062958839
 20
1.674999999999997
 30
0.0
 11
0.0
 21
-0.082
 31
0.0
210
0.0
220
0.0
230
1.0
 40
0.9848077530122079
 41
-3.141592653589793
 42
0.0000000000000002
  0
LINE
  5
8D
100
AcDbEntity
  8
USP-GEO
100
AcDbLine
 10
1.747541357720159
 20
1.592999999999996
 30
0.0
 11
1.800720976382811
 21
1.592999999999996
 31
0.0
  0
LINE
  5
8E
100
AcDbEntity
  8
USP-GEO
100
AcDbLine
 10
1.800720976382812
 20
1.75699999999998
 30
0.0
 11
1.747541357720159
 21
1.75699999999998
 31
0.0
  0
LINE
  5
8F
100
AcDbEntity
  8
USP-HID
100
AcDbLine
 10
1.80975068162149
 20
1.593000000000003
 30
0.0
 11
1.80072097638281
 21
1.593000000000003
 31
0.0
  0
LINE
  5
90
100
AcDbEntity
  8
USP-HID
100
AcDbLine
 10
1.809750681621492
 20
1.75699999999998
 30
0.0
 11
1.800720976382812
 21
1.75699999999998
 31
0.0
  0
ELLIPSE
  5
91
100
AcDbEntity
  8
USP-HID
100
AcDbEllipse
 10
1.809750681621492
 20
1.674999999999982
 30
0.0
 11
0.0
 21
-0.082
 31
0.0
210
0.0
220
0.0
230
1.0
 40
0.9848077530122079
 41
0.0000000000000002
 42
3.141592653589848
  0
ELLIPSE
  5
92
100
AcDbEntity
  8
USP-GEO
100
AcDbEllipse
 10
1.800720976382812
 20
1.674999999999982
 30
0.0
 11
0.0
 21
0.082
 31
0.0
210
0.0
220
0.0
230
1.0
 40
0.9848077530122079
 41
-3.141592653589793
 42
0.0000000000000002
  0
LINE
  5
93
100
AcDbEntity
  8
USP-GEO
100
AcDbLine
 10
1.536958934037116
 20
3.0
 30
0.0
 11
1.527929228798436
 21
3.0
 31
0.0
  0
LINE
  5
94
100
AcDbEntity
  8
USP-GEO
100
AcDbLine
 10
2.266535043557591
 20
1.125
 30
0.0
 11
2.266535043557592
 21
2.25
 31
0.0
  0
LINE
  5
95
100
AcDbEntity
  8
USP-GEO
100
AcDbLine
 10
2.275564748796272
 20
2.25
 30
0.0
 11
2.275564748796271
 21
1.125
 31
0.0
  0
LINE
  5
96
100
AcDbEntity
  8
USP-GEO
100
AcDbLine
 10
2.275564748796271
 20
1.125
 30
0.0
 11
2.266535043557591
 21
1.125
 31
0.0
  0
LINE
  5
97
100
AcDbEntity
  8
USP-GEO
100
AcDbLine
 10
2.275564748796272
 20
2.25
 30
0.0
 11
2.266535043557591
 21
2.25
 31
0.0
  0
LINE
  5
98
100
AcDbEntity
  8
USP-GEO
100
AcDbLine
 10
1.527929228798438
 20
3.625
 30
0.0
 11
2.266535043557595
 21
4.375
 31
0.0
  0
LINE
  5
99
100
AcDbEntity
  8
USP-GEO
100
AcDbLine
 10
2.275564748796274
 20
4.375
 30
0.0
 11
1.536958934037118
 21
3.625
 31
0.0
  0
LINE
  5
9A
100
AcDbEntity
  8
USP-GEO
100
AcDbLine
 10
1.536958934037118
 20
3.625
 30
0.0
 11
1.527929228798437
 21
3.625
 31
0.0
  0
ELLIPSE
  5
9B
100
AcDbEntity
  8
USP-HID
100
AcDbEllipse
 10
1.842249337470899
 20
4.324999999999988
 30
0.0
 11
0.0
 21
-0.082
 31
0.0
210
0.0
220
0.0
230
1.0
 40
0.9848077530122079
 41
0.0000000000000002
 42
3.141592653589848
  0
LINE
  5
9C
100
AcDbEntity
  8
USP-GEO
100
AcDbLine
 10
1.780040013569562
 20
4.243000000000002
 30
0.0
 11
1.833219632232218
 21
4.243000000000002
 31
0.0
  0
LINE
  5
9D
100
AcDbEntity
  8
USP-GEO
100
AcDbLine
 10
1.833219632232219
 20
4.406999999999989
 30
0.0
 11
1.780040013569563
 21
4.406999999999989
 31
0.0
  0
ELLIPSE
  5
9E
100
AcDbEntity
  8
USP-GEO
100
AcDbEllipse
 10
1.780040013569563
 20
4.325000000000002
 30
0.0
 11
0.0
 21
0.082
 31
0.0
210
0.0
220
0.0
230
1.0
 40
0.9848077530122079
 41
0.0000000000000002
 42
3.141592653589848
  0
ELLIPSE
  5
9F
100
AcDbEntity
  8
USP-GEO
100
AcDbEllipse
 10
1.789069718808243
 20
4.325000000000002
 30
0.0
 11
0.0
 21
-0.082
 31
0.0
210
0.0
220
0.0
230
1.0
 40
0.9848077530122079
 41
-3.141592653589793
 42
0.0000000000000002
  0
LINE
  5
A0
100
AcDbEntity
  8
USP-HID
100
AcDbLine
 10
1.842249337470898
 20
4.243000000000009
 30
0.0
 11
1.833219632232217
 21
4.243000000000009
 31
0.0
  0
LINE
  5
A1
100
AcDbEntity
  8
USP-HID
100
AcDbLine
 10
1.842249337470899
 20
4.406999999999989
 30
0.0
 11
1.833219632232218
 21
4.406999999999989
 31
0.0
  0
ELLIPSE
  5
A2
100
AcDbEntity
  8
USP-GEO
100
AcDbEllipse
 10
1.833219632232219
 20
4.324999999999988
 30
0.0
 11
0.0
 21
0.082
 31
0.0
210
0.0
220
0.0
230
1.0
 40
0.9848077530122079
 41
-3.141592653589793
 42
0.0000000000000002
  0
LINE
  5
A3
100
AcDbEntity
  8
USP-GEO
100
AcDbLine
 10
2.266535043557595
 20
4.375
 30
0.0
 11
2.266535043557595
 21
4.625
 31
0.0
  0
LINE
  5
A4
100
AcDbEntity
  8
USP-GEO
100
AcDbLine
 10
2.275564748796274
 20
4.625
 30
0.0
 11
2.275564748796274
 21
4.375
 31
0.0
  0
LINE
  5
A5
100
AcDbEntity
  8
USP-GEO
100
AcDbLine
 10
2.275564748796274
 20
4.375
 30
0.0
 11
2.266535043557594
 21
4.375
 31
0.0
  0
LINE
  5
A6
100
AcDbEntity
  8
USP-GEO
100
AcDbLine
 10
2.275564748796274
 20
4.625
 30
0.0
 11
2.266535043557594
 21
4.625
 31
0.0
  0
ENDBLK
  5
A9
100
AcDbEntity
  8
0
100
AcDbBlockEnd
  0
BLOCK
  5
146
100
AcDbEntity
  8
0
100
AcDbBlockBegin
  2
MP5_F
 70
     0
 10
0.0
 20
0.0
 30
0.0
  3
MP5_F
  1

  0
TEXT
  5
AC
100
AcDbEntity
  8
USP-TXT
100
AcDbText
 10
-1.023924359549778
 20
-1.777923596626628
 30
0.0
 40
0.296875
  1
MP5 - FRONT VIEW
 72
     1
 11
1.35107564045022
 21
-1.777923596626628
 31
0.0
100
AcDbText
  0
TEXT
  5
AD
100
AcDbEntity
  8
USP-TXT
100
AcDbText
 10
1.35648984668029
 20
1.929734135411365
 30
0.0
 40
0.1875
  1
530
100
AcDbText
  0
TEXT
  5
AE
100
AcDbEntity
  8
USP-TXT
100
AcDbText
 10
1.35648984668029
 20
2.242234135411365
 30
0.0
 40
0.1875
  1
NER
100
AcDbText
  0
LINE
  5
AF
100
AcDbEntity
  8
USP-GEO
100
AcDbLine
 10
2.258866819178782
 20
4.625
 30
0.0
 11
0.75
 21
4.625000000000001
 31
0.0
  0
LINE
  5
B0
100
AcDbEntity
  8
USP-GEO
100
AcDbLine
 10
2.258866819178782
 20
0.0
 30
0.0
 11
0.0
 21
0.0000000000000018
 31
0.0
  0
LINE
  5
B1
100
AcDbEntity
  8
USP-GEO
100
AcDbLine
 10
0.75
 20
1.125
 30
0.0
 11
0.0
 21
0.3750000000000146
 31
0.0
  0
LINE
  5
B2
100
AcDbEntity
  8
USP-GEO
100
AcDbLine
 10
0.0
 20
0.3750000000000142
 30
0.0
 11
0.0
 21
0.0
 31
0.0
  0
ARC
  5
B3
100
AcDbEntity
  8
USP-GEO
100
AcDbCircle
 10
0.4730000000000008
 20
0.375
 30
0.0
 40
0.082
100
AcDbArc
 50
90.0
 51
270.0
  0
ARC
  5
B4
100
AcDbEntity
  8
USP-GEO
100
AcDbCircle
 10
0.5269999999999957
 20
0.3749999999999858
 30
0.0
 40
0.082
100
AcDbArc
 50
270.0
 51
90.0
  0
LINE
  5
B5
100
AcDbEntity
  8
USP-GEO
100
AcDbLine
 10
0.526999999999994
 20
0.2929999999999992
 30
0.0
 11
0.4730000000000008
 21
0.2929999999999992
 31
0.0
  0
LINE
  5
B6
100
AcDbEntity
  8
USP-GEO
100
AcDbLine
 10
0.4730000000000008
 20
0.456999999999983
 30
0.0
 11
0.5269999999999957
 21
0.456999999999983
 31
0.0
  0
LINE
  5
B7
100
AcDbEntity
  8
USP-GEO
100
AcDbLine
 10
0.0
 20
3.0
 30
0.0
 11
0.0
 21
3.625
 31
0.0
  0
ARC
  5
B8
100
AcDbEntity
  8
USP-GEO
100
AcDbCircle
 10
0.4730000000000008
 20
3.325000000000002
 30
0.0
 40
0.082
100
AcDbArc
 50
90.0
 51
270.0
  0
ARC
  5
B9
100
AcDbEntity
  8
USP-GEO
100
AcDbCircle
 10
0.5269999999999957
 20
3.324999999999988
 30
0.0
 40
0.082
100
AcDbArc
 50
270.0
 51
90.0
  0
LINE
  5
BA
100
AcDbEntity
  8
USP-GEO
100
AcDbLine
 10
0.75
 20
2.25
 30
0.0
 11
0.0
 21
3.0
 31
0.0
  0
LINE
  5
BB
100
AcDbEntity
  8
USP-GEO
100
AcDbLine
 10
0.526999999999994
 20
3.243000000000002
 30
0.0
 11
0.4730000000000008
 21
3.243000000000002
 31
0.0
  0
LINE
  5
BC
100
AcDbEntity
  8
USP-GEO
100
AcDbLine
 10
0.75
 20
2.25
 30
0.0
 11
0.75
 21
1.125
 31
0.0
  0
ARC
  5
BD
100
AcDbEntity
  8
USP-GEO
100
AcDbCircle
 10
1.276999999999995
 20
1.674999999999982
 30
0.0
 40
0.082
100
AcDbArc
 50
270.0
 51
90.0
  0
LINE
  5
BE
100
AcDbEntity
  8
USP-GEO
100
AcDbLine
 10
1.276999999999993
 20
1.593000000000003
 30
0.0
 11
1.222999999999998
 21
1.593000000000003
 31
0.0
  0
LINE
  5
BF
100
AcDbEntity
  8
USP-GEO
100
AcDbLine
 10
1.223
 20
1.757000000000005
 30
0.0
 11
1.276999999999993
 21
1.757000000000005
 31
0.0
  0
ARC
  5
C0
100
AcDbEntity
  8
USP-GEO
100
AcDbCircle
 10
1.223
 20
1.674999999999997
 30
0.0
 40
0.082
100
AcDbArc
 50
90.0
 51
270.0
  0
LINE
  5
C1
100
AcDbEntity
  8
USP-GEO
100
AcDbLine
 10
0.75
 20
4.375
 30
0.0
 11
0.0
 21
3.625
 31
0.0
  0
LINE
  5
C2
100
AcDbEntity
  8
USP-GEO
100
AcDbLine
 10
0.4730000000000008
 20
3.406999999999989
 30
0.0
 11
0.5269999999999957
 21
3.406999999999989
 31
0.0
  0
LINE
  5
C3
100
AcDbEntity
  8
USP-GEO
100
AcDbLine
 10
0.75
 20
4.625
 30
0.0
 11
0.75
 21
4.375
 31
0.0
  0
LINE
  5
C4
100
AcDbEntity
  8
USP-GEO
100
AcDbLine
 10
1.126999999999995
 20
4.092999999999996
 30
0.0
 11
1.073000000000002
 21
4.092999999999996
 31
0.0
  0
LINE
  5
C5
100
AcDbEntity
  8
USP-GEO
100
AcDbLine
 10
1.073000000000002
 20
4.256999999999983
 30
0.0
 11
1.126999999999997
 21
4.256999999999983
 31
0.0
  0
ARC
  5
C6
100
AcDbEntity
  8
USP-GEO
100
AcDbCircle
 10
1.073000000000002
 20
4.174999999999997
 30
0.0
 40
0.082
100
AcDbArc
 50
90.0
 51
270.0
  0
ARC
  5
C7
100
AcDbEntity
  8
USP-GEO
100
AcDbCircle
 10
1.126999999999997
 20
4.174999999999982
 30
0.0
 40
0.082
100
AcDbArc
 50
270.0
 51
90.0
  0
LINE
  5
C8
100
AcDbEntity
  8
USP-HID
100
AcDbLine
 10
2.302500000000001
 20
1.531997326184061
 30
0.0
 11
2.302500000000001
 21
0.9700000000000024
 31
0.0
  0
ARC
  5
C9
100
AcDbEntity
  8
USP-GEO
100
AcDbCircle
 10
2.250500000000004
 20
0.8764999999904432
 30
0.0
 40
0.0935000000095601
100
AcDbArc
 50
90.0
 51
180.0
  0
LINE
  5
CA
100
AcDbEntity
  8
USP-GEO
100
AcDbLine
 10
2.258866819178782
 20
1.531997326184068
 30
0.0
 11
2.258866819178782
 21
0.9699999999999988
 31
0.0
  0
LINE
  5
CB
100
AcDbEntity
  8
USP-GEO
100
AcDbLine
 10
2.571915147650242
 20
0.3750000000000142
 30
0.0
 11
2.702151280900441
 21
1.125
 31
0.0
  0
LINE
  5
CC
100
AcDbEntity
  8
USP-GEO
100
AcDbLine
 10
2.650941277743806
 20
1.125
 30
0.0
 11
2.520705144493607
 21
0.3750000000000146
 31
0.0
  0
LINE
  5
CD
100
AcDbEntity
  8
USP-HID
100
AcDbLine
 10
2.481981600873883
 20
0.6069999999999887
 30
0.0
 11
2.533191604030518
 21
0.6069999999999887
 31
0.0
  0
ELLIPSE
  5
CE
100
AcDbEntity
  8
USP-HID
100
AcDbEllipse
 10
2.523814602436504
 20
0.5250000000000057
 30
0.0
 11
0.0
 21
0.082
 31
0.0
210
0.0
220
0.0
230
1.0
 40
0.1736481776669304
 41
0.0
 42
3.141592653589807
  0
LINE
  5
CF
100
AcDbEntity
  8
USP-HID
100
AcDbLine
 10
2.481981600873883
 20
0.4429999999999908
 30
0.0
 11
2.533191604030518
 21
0.4429999999999908
 31
0.0
  0
LINE
  5
D0
100
AcDbEntity
  8
USP-GEO
100
AcDbLine
 10
2.520705144493609
 20
0.0
 30
0.0
 11
2.571915147650242
 21
0.0
 31
0.0
  0
LINE
  5
D1
100
AcDbEntity
  8
USP-GEO
100
AcDbLine
 10
2.520705144493609
 20
0.3750000000000142
 30
0.0
 11
2.571915147650242
 21
0.3750000000000142
 31
0.0
  0
LINE
  5
D2
100
AcDbEntity
  8
USP-HID
100
AcDbLine
 10
2.327765809850538
 20
0.8764999999904432
 30
0.0
 11
2.327765809850538
 21
0.3134973261936267
 31
0.0
  0
LINE
  5
D3
100
AcDbEntity
  8
USP-GEO
100
AcDbLine
 10
2.15700000000001
 20
0.8764999999904432
 30
0.0
 11
2.15700000000001
 21
0.3134973261936267
 31
0.0
  0
LINE
  5
D4
100
AcDbEntity
  8
USP-GEO
100
AcDbLine
 10
2.276555806693902
 20
0.8764999999904432
 30
0.0
 11
2.276555806693902
 21
0.3134973261936267
 31
0.0
  0
LINE
  5
D5
100
AcDbEntity
  8
USP-HID
100
AcDbLine
 10
2.260319702082046
 20
0.219997326184064
 30
0.0
 11
2.311529705238681
 21
0.219997326184064
 31
0.0
  0
LINE
  5
D6
100
AcDbEntity
  8
USP-GEO
100
AcDbLine
 10
2.258866819178782
 20
0.0
 30
0.0
 11
2.520705144493609
 21
-0.0000000000000004
 31
0.0
  0
LINE
  5
D7
100
AcDbEntity
  8
USP-GEO
100
AcDbLine
 10
2.258866819178782
 20
0.219997326184064
 30
0.0
 11
2.258866819178782
 21
0.0
 31
0.0
  0
ARC
  5
D8
100
AcDbEntity
  8
USP-GEO
100
AcDbCircle
 10
2.250500000000004
 20
0.3134973261936267
 30
0.0
 40
0.0935000000095601
100
AcDbArc
 50
180.0
 51
270.0
  0
LINE
  5
D9
100
AcDbEntity
  8
USP-GEO
100
AcDbLine
 10
2.250500000000004
 20
0.219997326184064
 30
0.0
 11
2.258866819178782
 21
0.2199973261840649
 31
0.0
  0
ELLIPSE
  5
DA
100
AcDbEntity
  8
USP-GEO
100
AcDbEllipse
 10
2.260319702082046
 20
0.3134973261936267
 30
0.0
 11
0.0
 21
0.0935000000095602
 31
0.0
210
0.0
220
0.0
230
1.0
 40
0.1736481776669304
 41
-3.141592653589793
 42
-1.570796326794896
  0
LINE
  5
DB
100
AcDbEntity
  8
USP-GEO
100
AcDbLine
 10
2.258866819178782
 20
0.219997326184064
 30
0.0
 11
2.260319702082046
 21
0.219997326184064
 31
0.0
  0
LINE
  5
DC
100
AcDbEntity
  8
USP-HID
100
AcDbLine
 10
2.302500000000001
 20
0.219997326184064
 30
0.0
 11
2.302500000000001
 21
0.0
 31
0.0
  0
LINE
  5
DD
100
AcDbEntity
  8
USP-GEO
100
AcDbLine
 10
2.520705144493609
 20
0.3750000000000142
 30
0.0
 11
2.520705144493609
 21
0.0
 31
0.0
  0
ELLIPSE
  5
DE
100
AcDbEntity
  8
USP-HID
100
AcDbEllipse
 10
2.311529705238681
 20
0.3134973261936267
 30
0.0
 11
0.0
 21
-0.0935000000095602
 31
0.0
210
0.0
220
0.0
230
1.0
 40
0.1736481776669304
 41
0.0
 42
1.570796326794896
  0
LINE
  5
DF
100
AcDbEntity
  8
USP-HID
100
AcDbLine
 10
2.260319702082046
 20
0.9700000000000024
 30
0.0
 11
2.311529705238681
 21
0.9700000000000024
 31
0.0
  0
LINE
  5
E0
100
AcDbEntity
  8
USP-GEO
100
AcDbLine
 10
2.258866819178782
 20
0.9699999999999988
 30
0.0
 11
2.250500000000004
 21
0.9699999999999988
 31
0.0
  0
LINE
  5
E1
100
AcDbEntity
  8
USP-GEO
100
AcDbLine
 10
2.260319702082046
 20
0.9700000000000024
 30
0.0
 11
2.258866819178782
 21
0.9700000000000024
 31
0.0
  0
ELLIPSE
  5
E2
100
AcDbEntity
  8
USP-GEO
100
AcDbEllipse
 10
2.260319702082046
 20
0.8764999999904432
 30
0.0
 11
0.0
 21
0.0935000000095602
 31
0.0
210
0.0
220
0.0
230
1.0
 40
0.1736481776669304
 41
-1.570796326794896
 42
0.0
  0
LINE
  5
E3
100
AcDbEntity
  8
USP-GEO
100
AcDbLine
 10
2.472604599279868
 20
0.6069999999999887
 30
0.0
 11
2.481981600873883
 21
0.6069999999999887
 31
0.0
  0
ELLIPSE
  5
E4
100
AcDbEntity
  8
USP-GEO
100
AcDbEllipse
 10
2.472604599279868
 20
0.5250000000000057
 30
0.0
 11
0.0
 21
-0.082
 31
0.0
210
0.0
220
0.0
230
1.0
 40
0.1736481776669304
 41
-3.141592653589793
 42
0.0
  0
LINE
  5
E5
100
AcDbEntity
  8
USP-GEO
100
AcDbLine
 10
2.481981600873883
 20
0.443000000000005
 30
0.0
 11
2.472604599279868
 21
0.443000000000005
 31
0.0
  0
ELLIPSE
  5
E6
100
AcDbEntity
  8
USP-GEO
100
AcDbEllipse
 10
2.481981600873883
 20
0.5249999999999915
 30
0.0
 11
0.0
 21
-0.082
 31
0.0
210
0.0
220
0.0
230
1.0
 40
0.1736481776669304
 41
0.0
 42
3.141592653589807
  0
ELLIPSE
  5
E7
100
AcDbEntity
  8
USP-HID
100
AcDbEllipse
 10
2.311529705238681
 20
0.8764999999904432
 30
0.0
 11
0.0
 21
-0.0935000000095602
 31
0.0
210
0.0
220
0.0
230
1.0
 40
0.1736481776669304
 41
1.570796326794896
 42
3.141592653589889
  0
LINE
  5
E8
100
AcDbEntity
  8
USP-GEO
100
AcDbLine
 10
2.571915147650242
 20
0.0
 30
0.0
 11
2.571915147650242
 21
0.3750000000000142
 31
0.0
  0
ELLIPSE
  5
E9
100
AcDbEntity
  8
USP-HID
100
AcDbEllipse
 10
2.533191604030518
 20
0.5249999999999915
 30
0.0
 11
0.0
 21
0.082
 31
0.0
210
0.0
220
0.0
230
1.0
 40
0.1736481776669304
 41
-3.141592653589793
 42
0.0
  0
ELLIPSE
  5
EA
100
AcDbEntity
  8
USP-HID
100
AcDbEllipse
 10
2.311529705238681
 20
3.219501336898403
 30
0.0
 11
0.0
 21
-0.0935000000095602
 31
0.0
210
0.0
220
0.0
230
1.0
 40
0.1736481776669304
 41
1.570796326794896
 42
3.141592653589889
  0
ARC
  5
EB
100
AcDbEntity
  8
USP-GEO
100
AcDbCircle
 10
2.250500000000004
 20
3.219501336898403
 30
0.0
 40
0.0935000000095601
100
AcDbArc
 50
90.0
 51
180.0
  0
ELLIPSE
  5
EC
100
AcDbEntity
  8
USP-GEO
100
AcDbEllipse
 10
2.260319702082046
 20
3.219501336898403
 30
0.0
 11
0.0
 21
0.0935000000095602
 31
0.0
210
0.0
220
0.0
230
1.0
 40
0.1736481776669304
 41
-1.570796326794896
 42
0.0
  0
LINE
  5
ED
100
AcDbEntity
  8
USP-GEO
100
AcDbLine
 10
2.571915147650242
 20
3.0
 30
0.0
 11
2.571915147650242
 21
3.625
 31
0.0
  0
LINE
  5
EE
100
AcDbEntity
  8
USP-GEO
100
AcDbLine
 10
2.520705144493609
 20
3.0
 30
0.0
 11
2.520705144493609
 21
3.625
 31
0.0
  0
LINE
  5
EF
100
AcDbEntity
  8
USP-GEO
100
AcDbLine
 10
2.520705144493609
 20
3.0
 30
0.0
 11
2.571915147650242
 21
3.0
 31
0.0
  0
LINE
  5
F0
100
AcDbEntity
  8
USP-GEO
100
AcDbLine
 10
2.650941277743806
 20
2.25
 30
0.0
 11
2.520705144493607
 21
3.0
 31
0.0
  0
LINE
  5
F1
100
AcDbEntity
  8
USP-HID
100
AcDbLine
 10
2.327765809850538
 20
2.18849999999044
 30
0.0
 11
2.327765809850538
 21
1.625497326193624
 31
0.0
  0
LINE
  5
F2
100
AcDbEntity
  8
USP-GEO
100
AcDbLine
 10
2.157000000000012
 20
2.18849999999044
 30
0.0
 11
2.157000000000012
 21
1.625497326193624
 31
0.0
  0
LINE
  5
F3
100
AcDbEntity
  8
USP-GEO
100
AcDbLine
 10
2.276555806693902
 20
2.18849999999044
 30
0.0
 11
2.276555806693902
 21
1.625497326193624
 31
0.0
  0
ELLIPSE
  5
F4
100
AcDbEntity
  8
USP-HID
100
AcDbEllipse
 10
2.311529705238681
 20
1.625497326193624
 30
0.0
 11
0.0
 21
-0.0935000000095602
 31
0.0
210
0.0
220
0.0
230
1.0
 40
0.1736481776669304
 41
0.0
 42
1.570796326794896
  0
ARC
  5
F5
100
AcDbEntity
  8
USP-GEO
100
AcDbCircle
 10
2.250500000000004
 20
1.625497326193624
 30
0.0
 40
0.0935000000095601
100
AcDbArc
 50
180.0
 51
270.0
  0
ELLIPSE
  5
F6
100
AcDbEntity
  8
USP-GEO
100
AcDbEllipse
 10
2.260319702082046
 20
1.625497326193624
 30
0.0
 11
0.0
 21
0.0935000000095602
 31
0.0
210
0.0
220
0.0
230
1.0
 40
0.1736481776669304
 41
-3.141592653589793
 42
-1.570796326794896
  0
LINE
  5
F7
100
AcDbEntity
  8
USP-HID
100
AcDbLine
 10
2.260319702082046
 20
1.531997326184061
 30
0.0
 11
2.311529705238681
 21
1.531997326184061
 31
0.0
  0
LINE
  5
F8
100
AcDbEntity
  8
USP-GEO
100
AcDbLine
 10
2.250500000000002
 20
1.531997326184068
 30
0.0
 11
2.258866819178782
 21
1.531997326184068
 31
0.0
  0
LINE
  5
F9
100
AcDbEntity
  8
USP-GEO
100
AcDbLine
 10
2.258866819178782
 20
1.531997326184061
 30
0.0
 11
2.260319702082046
 21
1.531997326184061
 31
0.0
  0
LINE
  5
FA
100
AcDbEntity
  8
USP-HID
100
AcDbLine
 10
2.327765809850538
 20
3.219501336898403
 30
0.0
 11
2.327765809850538
 21
2.656498663101586
 31
0.0
  0
LINE
  5
FB
100
AcDbEntity
  8
USP-GEO
100
AcDbLine
 10
2.15700000000001
 20
3.219501336898403
 30
0.0
 11
2.15700000000001
 21
2.656498663101586
 31
0.0
  0
LINE
  5
FC
100
AcDbEntity
  8
USP-GEO
100
AcDbLine
 10
2.276555806693902
 20
3.219501336898403
 30
0.0
 11
2.276555806693902
 21
2.656498663101586
 31
0.0
  0
LINE
  5
FD
100
AcDbEntity
  8
USP-HID
100
AcDbLine
 10
2.260319702082046
 20
2.282
 30
0.0
 11
2.311529705238681
 21
2.282
 31
0.0
  0
LINE
  5
FE
100
AcDbEntity
  8
USP-HID
100
AcDbLine
 10
2.260319702082046
 20
2.562998663092024
 30
0.0
 11
2.311529705238681
 21
2.562998663092024
 31
0.0
  0
LINE
  5
FF
100
AcDbEntity
  8
USP-GEO
100
AcDbLine
 10
2.258866819178782
 20
2.562998663092031
 30
0.0
 11
2.258866819178782
 21
2.281999999999783
 31
0.0
  0
ARC
  5
100
100
AcDbEntity
  8
USP-GEO
100
AcDbCircle
 10
2.250500000000004
 20
2.18849999999044
 30
0.0
 40
0.0935000000095601
100
AcDbArc
 50
90.0
 51
180.0
  0
LINE
  5
101
100
AcDbEntity
  8
USP-GEO
100
AcDbLine
 10
2.258866819178782
 20
2.281999999999783
 30
0.0
 11
2.250500000000004
 21
2.281999999999783
 31
0.0
  0
LINE
  5
102
100
AcDbEntity
  8
USP-GEO
100
AcDbLine
 10
2.260319702082046
 20
2.282
 30
0.0
 11
2.258866819178782
 21
2.282
 31
0.0
  0
ELLIPSE
  5
103
100
AcDbEntity
  8
USP-GEO
100
AcDbEllipse
 10
2.260319702082046
 20
2.18849999999044
 30
0.0
 11
0.0
 21
0.0935000000095602
 31
0.0
210
0.0
220
0.0
230
1.0
 40
0.1736481776669304
 41
-1.570796326794896
 42
0.0
  0
ARC
  5
104
100
AcDbEntity
  8
USP-GEO
100
AcDbCircle
 10
2.250500000000004
 20
2.656498663101586
 30
0.0
 40
0.0935000000095601
100
AcDbArc
 50
180.0
 51
270.0
  0
LINE
  5
105
100
AcDbEntity
  8
USP-GEO
100
AcDbLine
 10
2.250500000000002
 20
2.562998663092031
 30
0.0
 11
2.258866819178782
 21
2.562998663092031
 31
0.0
  0
ELLIPSE
  5
106
100
AcDbEntity
  8
USP-GEO
100
AcDbEllipse
 10
2.260319702082046
 20
2.656498663101586
 30
0.0
 11
0.0
 21
0.0935000000095602
 31
0.0
210
0.0
220
0.0
230
1.0
 40
0.1736481776669304
 41
-3.141592653589793
 42
-1.570796326794896
  0
LINE
  5
107
100
AcDbEntity
  8
USP-GEO
100
AcDbLine
 10
2.258866819178782
 20
2.562998663092024
 30
0.0
 11
2.260319702082046
 21
2.562998663092024
 31
0.0
  0
LINE
  5
108
100
AcDbEntity
  8
USP-HID
100
AcDbLine
 10
2.302500000000001
 20
2.562998663092024
 30
0.0
 11
2.302500000000001
 21
2.282
 31
0.0
  0
ELLIPSE
  5
109
100
AcDbEntity
  8
USP-HID
100
AcDbEllipse
 10
2.311529705238681
 20
2.18849999999044
 30
0.0
 11
0.0
 21
-0.0935000000095602
 31
0.0
210
0.0
220
0.0
230
1.0
 40
0.1736481776669304
 41
1.570796326794896
 42
3.141592653589889
  0
ELLIPSE
  5
10A
100
AcDbEntity
  8
USP-HID
100
AcDbEllipse
 10
2.311529705238681
 20
2.656498663101586
 30
0.0
 11
0.0
 21
-0.0935000000095602
 31
0.0
210
0.0
220
0.0
230
1.0
 40
0.1736481776669304
 41
0.0
 42
1.570796326794896
  0
ELLIPSE
  5
10B
100
AcDbEntity
  8
USP-GEO
100
AcDbEllipse
 10
2.411827737096443
 20
3.174999999999997
 30
0.0
 11
0.0
 21
-0.082
 31
0.0
210
0.0
220
0.0
230
1.0
 40
0.1736481776669304
 41
-3.141592653589793
 42
0.0
  0
ELLIPSE
  5
10C
100
AcDbEntity
  8
USP-HID
100
AcDbEllipse
 10
2.463037740253078
 20
3.174999999999997
 30
0.0
 11
0.0
 21
0.082
 31
0.0
210
0.0
220
0.0
230
1.0
 40
0.1736481776669304
 41
0.0
 42
3.141592653589807
  0
LINE
  5
10D
100
AcDbEntity
  8
USP-HID
100
AcDbLine
 10
2.421204738690455
 20
3.093000000000003
 30
0.0
 11
2.47241474184709
 21
3.093000000000003
 31
0.0
  0
ELLIPSE
  5
10E
100
AcDbEntity
  8
USP-HID
100
AcDbEllipse
 10
2.47241474184709
 20
3.174999999999982
 30
0.0
 11
0.0
 21
0.082
 31
0.0
210
0.0
220
0.0
230
1.0
 40
0.1736481776669304
 41
-3.141592653589793
 42
0.0
  0
LINE
  5
10F
100
AcDbEntity
  8
USP-HID
100
AcDbLine
 10
2.421204738690455
 20
3.257000000000005
 30
0.0
 11
2.47241474184709
 21
3.257000000000005
 31
0.0
  0
LINE
  5
110
100
AcDbEntity
  8
USP-GEO
100
AcDbLine
 10
2.421204738690455
 20
3.092999999999996
 30
0.0
 11
2.411827737096443
 21
3.092999999999996
 31
0.0
  0
ELLIPSE
  5
111
100
AcDbEntity
  8
USP-GEO
100
AcDbEllipse
 10
2.421204738690455
 20
3.174999999999982
 30
0.0
 11
0.0
 21
-0.082
 31
0.0
210
0.0
220
0.0
230
1.0
 40
0.1736481776669304
 41
0.0
 42
3.141592653589807
  0
LINE
  5
112
100
AcDbEntity
  8
USP-GEO
100
AcDbLine
 10
2.411827737096443
 20
3.257000000000005
 30
0.0
 11
2.421204738690455
 21
3.257000000000005
 31
0.0
  0
LINE
  5
113
100
AcDbEntity
  8
USP-GEO
100
AcDbLine
 10
2.702151280900441
 20
1.125
 30
0.0
 11
2.702151280900441
 21
2.25
 31
0.0
  0
LINE
  5
114
100
AcDbEntity
  8
USP-GEO
100
AcDbLine
 10
2.650941277743806
 20
2.25
 30
0.0
 11
2.650941277743806
 21
1.125
 31
0.0
  0
LINE
  5
115
100
AcDbEntity
  8
USP-GEO
100
AcDbLine
 10
2.650941277743806
 20
1.125
 30
0.0
 11
2.702151280900441
 21
1.125
 31
0.0
  0
LINE
  5
116
100
AcDbEntity
  8
USP-HID
100
AcDbLine
 10
2.568805689707346
 20
1.593000000000003
 30
0.0
 11
2.620015692863981
 21
1.593000000000003
 31
0.0
  0
ELLIPSE
  5
117
100
AcDbEntity
  8
USP-HID
100
AcDbEllipse
 10
2.620015692863981
 20
1.674999999999982
 30
0.0
 11
0.0
 21
0.082
 31
0.0
210
0.0
220
0.0
230
1.0
 40
0.1736481776669304
 41
-3.141592653589793
 42
0.0
  0
LINE
  5
118
100
AcDbEntity
  8
USP-HID
100
AcDbLine
 10
2.568805689707348
 20
1.75699999999998
 30
0.0
 11
2.620015692863981
 21
1.75699999999998
 31
0.0
  0
ELLIPSE
  5
119
100
AcDbEntity
  8
USP-HID
100
AcDbEllipse
 10
2.610638691269969
 20
1.674999999999997
 30
0.0
 11
0.0
 21
0.082
 31
0.0
210
0.0
220
0.0
230
1.0
 40
0.1736481776669304
 41
0.0
 42
3.141592653589807
  0
LINE
  5
11A
100
AcDbEntity
  8
USP-GEO
100
AcDbLine
 10
2.568805689707346
 20
1.592999999999996
 30
0.0
 11
2.559428688113333
 21
1.592999999999996
 31
0.0
  0
ELLIPSE
  5
11B
100
AcDbEntity
  8
USP-GEO
100
AcDbEllipse
 10
2.568805689707348
 20
1.674999999999982
 30
0.0
 11
0.0
 21
-0.082
 31
0.0
210
0.0
220
0.0
230
1.0
 40
0.1736481776669304
 41
0.0
 42
3.141592653589807
  0
LINE
  5
11C
100
AcDbEntity
  8
USP-GEO
100
AcDbLine
 10
2.559428688113333
 20
1.75699999999998
 30
0.0
 11
2.568805689707346
 21
1.75699999999998
 31
0.0
  0
ELLIPSE
  5
11D
100
AcDbEntity
  8
USP-GEO
100
AcDbEllipse
 10
2.559428688113333
 20
1.674999999999997
 30
0.0
 11
0.0
 21
-0.082
 31
0.0
210
0.0
220
0.0
230
1.0
 40
0.1736481776669304
 41
-3.141592653589793
 42
0.0
  0
LINE
  5
11E
100
AcDbEntity
  8
USP-GEO
100
AcDbLine
 10
2.702151280900441
 20
2.25
 30
0.0
 11
2.571915147650242
 21
3.0
 31
0.0
  0
LINE
  5
11F
100
AcDbEntity
  8
USP-GEO
100
AcDbLine
 10
2.650941277743806
 20
2.25
 30
0.0
 11
2.702151280900441
 21
2.25
 31
0.0
  0
LINE
  5
120
100
AcDbEntity
  8
USP-GEO
100
AcDbLine
 10
2.258866819178782
 20
4.625
 30
0.0
 11
2.650941277743807
 21
4.624999999999999
 31
0.0
  0
LINE
  5
121
100
AcDbEntity
  8
USP-GEO
100
AcDbLine
 10
2.520705144493609
 20
3.625
 30
0.0
 11
2.571915147650242
 21
3.625
 31
0.0
  0
LINE
  5
122
100
AcDbEntity
  8
USP-GEO
100
AcDbLine
 10
2.650941277743806
 20
4.375
 30
0.0
 11
2.520705144493607
 21
3.625
 31
0.0
  0
LINE
  5
123
100
AcDbEntity
  8
USP-HID
100
AcDbLine
 10
2.3025
 20
4.625
 30
0.0
 11
2.3025
 21
4.344001336907972
 31
0.0
  0
LINE
  5
124
100
AcDbEntity
  8
USP-GEO
100
AcDbLine
 10
2.258866819178782
 20
4.625
 30
0.0
 11
2.258866819178782
 21
4.344001336907972
 31
0.0
  0
LINE
  5
125
100
AcDbEntity
  8
USP-HID
100
AcDbLine
 10
2.327765809850538
 20
4.250501336898409
 30
0.0
 11
2.327765809850538
 21
3.687498663101592
 31
0.0
  0
LINE
  5
126
100
AcDbEntity
  8
USP-GEO
100
AcDbLine
 10
2.15700000000001
 20
4.250501336898409
 30
0.0
 11
2.15700000000001
 21
3.687498663101592
 31
0.0
  0
LINE
  5
127
100
AcDbEntity
  8
USP-GEO
100
AcDbLine
 10
2.276555806693902
 20
4.250501336898409
 30
0.0
 11
2.276555806693902
 21
3.687498663101592
 31
0.0
  0
LINE
  5
128
100
AcDbEntity
  8
USP-HID
100
AcDbLine
 10
2.260319702082046
 20
3.313001336907962
 30
0.0
 11
2.311529705238681
 21
3.313001336907962
 31
0.0
  0
LINE
  5
129
100
AcDbEntity
  8
USP-HID
100
AcDbLine
 10
2.260319702082046
 20
3.59399866309203
 30
0.0
 11
2.311529705238681
 21
3.59399866309203
 31
0.0
  0
LINE
  5
12A
100
AcDbEntity
  8
USP-GEO
100
AcDbLine
 10
2.258866819178782
 20
3.593998663092037
 30
0.0
 11
2.258866819178782
 21
3.313001336907959
 31
0.0
  0
ARC
  5
12B
100
AcDbEntity
  8
USP-GEO
100
AcDbCircle
 10
2.250500000000004
 20
3.687498663101592
 30
0.0
 40
0.0935000000095601
100
AcDbArc
 50
180.0
 51
270.0
  0
LINE
  5
12C
100
AcDbEntity
  8
USP-GEO
100
AcDbLine
 10
2.250500000000004
 20
3.313001336907959
 30
0.0
 11
2.258866819178782
 21
3.313001336907959
 31
0.0
  0
LINE
  5
12D
100
AcDbEntity
  8
USP-GEO
100
AcDbLine
 10
2.258866819178782
 20
3.313001336907962
 30
0.0
 11
2.260319702082046
 21
3.313001336907962
 31
0.0
  0
LINE
  5
12E
100
AcDbEntity
  8
USP-GEO
100
AcDbLine
 10
2.250500000000002
 20
3.593998663092037
 30
0.0
 11
2.258866819178782
 21
3.593998663092037
 31
0.0
  0
ELLIPSE
  5
12F
100
AcDbEntity
  8
USP-GEO
100
AcDbEllipse
 10
2.260319702082046
 20
3.687498663101592
 30
0.0
 11
0.0
 21
0.0935000000095602
 31
0.0
210
0.0
220
0.0
230
1.0
 40
0.1736481776669304
 41
-3.141592653589793
 42
-1.570796326794896
  0
LINE
  5
130
100
AcDbEntity
  8
USP-GEO
100
AcDbLine
 10
2.260319702082046
 20
3.59399866309203
 30
0.0
 11
2.258866819178782
 21
3.59399866309203
 31
0.0
  0
LINE
  5
131
100
AcDbEntity
  8
USP-HID
100
AcDbLine
 10
2.302500000000001
 20
3.59399866309203
 30
0.0
 11
2.302500000000001
 21
3.313001336907962
 31
0.0
  0
ELLIPSE
  5
132
100
AcDbEntity
  8
USP-HID
100
AcDbEllipse
 10
2.311529705238681
 20
3.687498663101592
 30
0.0
 11
0.0
 21
-0.0935000000095602
 31
0.0
210
0.0
220
0.0
230
1.0
 40
0.1736481776669304
 41
0.0
 42
1.570796326794896
  0
LINE
  5
133
100
AcDbEntity
  8
USP-HID
100
AcDbLine
 10
2.260319702082046
 20
4.344001336907972
 30
0.0
 11
2.311529705238681
 21
4.344001336907972
 31
0.0
  0
ARC
  5
134
100
AcDbEntity
  8
USP-GEO
100
AcDbCircle
 10
2.250500000000004
 20
4.250501336898409
 30
0.0
 40
0.0935000000095601
100
AcDbArc
 50
90.0
 51
180.0
  0
LINE
  5
135
100
AcDbEntity
  8
USP-GEO
100
AcDbLine
 10
2.250500000000004
 20
4.344001336907972
 30
0.0
 11
2.258866819178782
 21
4.344001336907972
 31
0.0
  0
LINE
  5
136
100
AcDbEntity
  8
USP-GEO
100
AcDbLine
 10
2.258866819178782
 20
4.344001336907972
 30
0.0
 11
2.260319702082046
 21
4.344001336907972
 31
0.0
  0
ELLIPSE
  5
137
100
AcDbEntity
  8
USP-GEO
100
AcDbEllipse
 10
2.260319702082046
 20
4.250501336898409
 30
0.0
 11
0.0
 21
0.0935000000095602
 31
0.0
210
0.0
220
0.0
230
1.0
 40
0.1736481776669304
 41
-1.570796326794896
 42
0.0
  0
ELLIPSE
  5
138
100
AcDbEntity
  8
USP-HID
100
AcDbEllipse
 10
2.311529705238681
 20
4.250501336898409
 30
0.0
 11
0.0
 21
-0.0935000000095602
 31
0.0
210
0.0
220
0.0
230
1.0
 40
0.1736481776669304
 41
1.570796326794896
 42
3.141592653589889
  0
LINE
  5
139
100
AcDbEntity
  8
USP-GEO
100
AcDbLine
 10
2.702151280900441
 20
4.375
 30
0.0
 11
2.702151280900441
 21
4.625
 31
0.0
  0
LINE
  5
13A
100
AcDbEntity
  8
USP-GEO
100
AcDbLine
 10
2.650941277743806
 20
4.625
 30
0.0
 11
2.650941277743806
 21
4.375
 31
0.0
  0
LINE
  5
13B
100
AcDbEntity
  8
USP-GEO
100
AcDbLine
 10
2.571915147650242
 20
3.625
 30
0.0
 11
2.702151280900441
 21
4.375
 31
0.0
  0
LINE
  5
13C
100
AcDbEntity
  8
USP-HID
100
AcDbLine
 10
2.574536079570355
 20
4.243000000000009
 30
0.0
 11
2.62574608272699
 21
4.243000000000009
 31
0.0
  0
ELLIPSE
  5
13D
100
AcDbEntity
  8
USP-HID
100
AcDbEllipse
 10
2.62574608272699
 20
4.324999999999988
 30
0.0
 11
0.0
 21
0.082
 31
0.0
210
0.0
220
0.0
230
1.0
 40
0.1736481776669304
 41
-3.141592653589793
 42
0.0
  0
LINE
  5
13E
100
AcDbEntity
  8
USP-HID
100
AcDbLine
 10
2.574536079570355
 20
4.406999999999989
 30
0.0
 11
2.62574608272699
 21
4.406999999999989
 31
0.0
  0
ELLIPSE
  5
13F
100
AcDbEntity
  8
USP-HID
100
AcDbEllipse
 10
2.616369081132978
 20
4.325000000000002
 30
0.0
 11
0.0
 21
0.082
 31
0.0
210
0.0
220
0.0
230
1.0
 40
0.1736481776669304
 41
0.0
 42
3.141592653589807
  0
LINE
  5
140
100
AcDbEntity
  8
USP-GEO
100
AcDbLine
 10
2.574536079570357
 20
4.243000000000002
 30
0.0
 11
2.565159077976343
 21
4.243000000000002
 31
0.0
  0
ELLIPSE
  5
141
100
AcDbEntity
  8
USP-GEO
100
AcDbEllipse
 10
2.574536079570355
 20
4.324999999999988
 30
0.0
 11
0.0
 21
-0.082
 31
0.0
210
0.0
220
0.0
230
1.0
 40
0.1736481776669304
 41
0.0
 42
3.141592653589807
  0
LINE
  5
142
100
AcDbEntity
  8
USP-GEO
100
AcDbLine
 10
2.565159077976344
 20
4.406999999999989
 30
0.0
 11
2.574536079570357
 21
4.406999999999989
 31
0.0
  0
ELLIPSE
  5
143
100
AcDbEntity
  8
USP-GEO
100
AcDbEllipse
 10
2.565159077976343
 20
4.325000000000002
 30
0.0
 11
0.0
 21
-0.082
 31
0.0
210
0.0
220
0.0
230
1.0
 40
0.1736481776669304
 41
-3.141592653589793
 42
0.0
  0
LINE
  5
144
100
AcDbEntity
  8
USP-GEO
100
AcDbLine
 10
2.650941277743806
 20
4.375
 30
0.0
 11
2.702151280900441
 21
4.375
 31
0.0
  0
LINE
  5
145
100
AcDbEntity
  8
USP-GEO
100
AcDbLine
 10
2.650941277743806
 20
4.625
 30
0.0
 11
2.702151280900441
 21
4.625
 31
0.0
  0
ENDBLK
  5
147
100
AcDbEntity
  8
0
100
AcDbBlockEnd
  0
BLOCK
  5
165
100
AcDbEntity
  8
0
100
AcDbBlockBegin
  2
MP5_T
 70
     0
 10
0.0
 20
0.0
 30
0.0
  3
MP5_T
  1

  0
TEXT
  5
14A
100
AcDbEntity
  8
USP-TXT
100
AcDbText
 10
-0.7270493595497798
 20
-1.365416950315875
 30
0.0
 40
0.296875
  1
MP5 - TOP VIEW
 72
     1
 11
1.35107564045022
 21
-1.365416950315875
 31
0.0
100
AcDbText
  0
LINE
  5
14B
100
AcDbEntity
  8
USP-GEO
100
AcDbLine
 10
2.258866819178782
 20
2.22356474879627
 30
0.0
 11
0.75
 21
2.22356474879627
 31
0.0
  0
LINE
  5
14C
100
AcDbEntity
  8
USP-GEO
100
AcDbLine
 10
2.3025
 20
2.27556474879627
 30
0.0
 11
0.75
 21
2.27556474879627
 31
0.0
  0
LINE
  5
14D
100
AcDbEntity
  8
USP-GEO
100
AcDbLine
 10
0.75
 20
2.22356474879627
 30
0.0
 11
0.0
 21
2.22356474879627
 31
0.0
  0
LINE
  5
14E
100
AcDbEntity
  8
USP-GEO
100
AcDbLine
 10
0.75
 20
2.27556474879627
 30
0.0
 11
0.0
 21
2.27556474879627
 31
0.0
  0
LINE
  5
14F
100
AcDbEntity
  8
USP-GEO
100
AcDbLine
 10
0.0
 20
2.22356474879627
 30
0.0
 11
0.0
 21
2.27556474879627
 31
0.0
  0
LINE
  5
150
100
AcDbEntity
  8
USP-HID
100
AcDbLine
 10
0.391
 20
2.22356474879627
 30
0.0
 11
0.391
 21
2.27556474879627
 31
0.0
  0
LINE
  5
151
100
AcDbEntity
  8
USP-HID
100
AcDbLine
 10
0.6089999999999965
 20
2.22356474879627
 30
0.0
 11
0.6089999999999965
 21
2.27556474879627
 31
0.0
  0
LINE
  5
152
100
AcDbEntity
  8
USP-GEO
100
AcDbLine
 10
0.75
 20
2.22356474879627
 30
0.0
 11
0.75
 21
2.27556474879627
 31
0.0
  0
LINE
  5
153
100
AcDbEntity
  8
USP-HID
100
AcDbLine
 10
0.9910000000000014
 20
2.22356474879627
 30
0.0
 11
0.9910000000000014
 21
2.27556474879627
 31
0.0
  0
LINE
  5
154
100
AcDbEntity
  8
USP-HID
100
AcDbLine
 10
1.208999999999997
 20
2.22356474879627
 30
0.0
 11
1.208999999999997
 21
2.27556474879627
 31
0.0
  0
LINE
  5
155
100
AcDbEntity
  8
USP-HID
100
AcDbLine
 10
1.141
 20
2.22356474879627
 30
0.0
 11
1.141
 21
2.27556474879627
 31
0.0
  0
LINE
  5
156
100
AcDbEntity
  8
USP-HID
100
AcDbLine
 10
1.358999999999996
 20
2.22356474879627
 30
0.0
 11
1.358999999999996
 21
2.27556474879627
 31
0.0
  0
LINE
  5
157
100
AcDbEntity
  8
USP-GEO
100
AcDbLine
 10
2.258866819178784
 20
2.22356474879627
 30
0.0
 11
2.650941277743807
 21
0.0
 31
0.0
  0
LINE
  5
158
100
AcDbEntity
  8
USP-GEO
100
AcDbLine
 10
2.702151280900441
 20
0.0090297052386745
 30
0.0
 11
2.3025
 21
2.27556474879627
 31
0.0
  0
LINE
  5
159
100
AcDbEntity
  8
USP-HID
100
AcDbLine
 10
2.520705144493609
 20
0.7386058147591541
 30
0.0
 11
2.571915147650241
 21
0.747635519997834
 31
0.0
  0
LINE
  5
15A
100
AcDbEntity
  8
USP-HID
100
AcDbLine
 10
2.496220751442571
 20
0.8774637079338774
 30
0.0
 11
2.547430754599202
 21
0.8864934131725572
 31
0.0
  0
LINE
  5
15B
100
AcDbEntity
  8
USP-HID
100
AcDbLine
 10
2.45836544871118
 20
1.09215179809054
 30
0.0
 11
2.509575451867815
 21
1.10118150332922
 31
0.0
  0
LINE
  5
15C
100
AcDbEntity
  8
USP-HID
100
AcDbLine
 10
2.435443889259143
 20
1.222146421488154
 30
0.0
 11
2.486653892415779
 21
1.231176126726834
 31
0.0
  0
LINE
  5
15D
100
AcDbEntity
  8
USP-HID
100
AcDbLine
 10
2.397588586527755
 20
1.436834511644811
 30
0.0
 11
2.448798589684392
 21
1.445864216883492
 31
0.0
  0
LINE
  5
15E
100
AcDbEntity
  8
USP-GEO
100
AcDbLine
 10
2.650941277743806
 20
0.0
 30
0.0
 11
2.702151280900439
 21
0.0090297052386799
 31
0.0
  0
LINE
  5
15F
100
AcDbEntity
  8
USP-HID
100
AcDbLine
 10
2.588775230139043
 20
0.3525611755783728
 30
0.0
 11
2.63998523329568
 21
0.3615908808170545
 31
0.0
  0
LINE
  5
160
100
AcDbEntity
  8
USP-HID
100
AcDbLine
 10
2.583044840276036
 20
0.3850598314277747
 30
0.0
 11
2.634254843432669
 21
0.3940895366664545
 31
0.0
  0
LINE
  5
161
100
AcDbEntity
  8
USP-HID
100
AcDbLine
 10
2.545189537544645
 20
0.5997479215844308
 30
0.0
 11
2.596399540701282
 21
0.6087776268231125
 31
0.0
  0
LINE
  5
162
100
AcDbEntity
  8
USP-HID
100
AcDbLine
 10
2.550919927407655
 20
0.567249265735029
 30
0.0
 11
2.60212993056429
 21
0.5762789709737089
 31
0.0
  0
LINE
  5
163
100
AcDbEntity
  8
USP-HID
100
AcDbLine
 10
2.276555806693902
 20
2.123245515494325
 30
0.0
 11
2.327765809850538
 21
2.132275220733005
 31
0.0
  0
LINE
  5
164
100
AcDbEntity
  8
USP-HID
100
AcDbLine
 10
2.15700000000001
 20
2.22356474879627
 30
0.0
 11
2.15700000000001
 21
2.27556474879627
 31
0.0
  0
ENDBLK
  5
166
100
AcDbEntity
  8
0
100
AcDbBlockEnd
  0
ENDSEC
  0
SECTION
  2
ENTITIES
  0
INSERT
  5
3
100
AcDbEntity
  8
USP
100
AcDbBlockReference
  2
MP5_S
 10
1.038483412948259
 20
1.781074010524029
 30
0.0
  0
INSERT
  5
AA
100
AcDbEntity
  8
USP
100
AcDbBlockReference
  2
MP5_F
 10
8.164011195067615
 20
1.781074010524029
 30
0.0
  0
INSERT
  5
148
100
AcDbEntity
  8
USP
100
AcDbBlockReference
  2
MP5_T
 10
8.164011195067615
 20
12.48844571256903
 30
0.0
  0
ENDSEC
  0
SECTION
  2
OBJECTS
  0
DICTIONARY
  5
17B
102
{ACAD_XDICTIONARY
360
17C
102
}
100
AcDbDictionary
  3
ACAD_GROUP
350
179
  3
ACAD_MLINESTYLE
350
17A
1001
ACAD
1000
TREAT_AS_HARD
1070
     0
  0
DICTIONARY
  5
12
100
AcDbDictionary
280
     1
1001
ACAD
1000
TREAT_AS_HARD
1070
     1
  0
DICTIONARY
  5
167
100
AcDbDictionary
280
     1
1001
ACAD
1000
TREAT_AS_HARD
1070
     1
  0
DICTIONARY
  5
16B
100
AcDbDictionary
280
     1
1001
ACAD
1000
TREAT_AS_HARD
1070
     1
  0
DICTIONARY
  5
17C
100
AcDbDictionary
280
     1
1001
ACAD
1000
TREAT_AS_HARD
1070
     1
  0
DICTIONARY
  5
179
102
{ACAD_REACTORS
330
17B
102
}
100
AcDbDictionary
1001
ACAD
1000
TREAT_AS_HARD
1070
     0
  0
DICTIONARY
  5
17A
102
{ACAD_REACTORS
330
17B
102
}
100
AcDbDictionary
  3
STANDARD
350
17D
1001
ACAD
1000
TREAT_AS_HARD
1070
     0
  0
MLINESTYLE
  5
17D
102
{ACAD_REACTORS
330
17A
102
}
100
AcDbMlineStyle
  2
STANDARD
 70
     0
  3

 62
     0
 51
90.0
 52
90.0
 71
     2
 49
0.5
 62
   256
  6
BYLAYER
 49
-0.5
 62
   256
  6
BYLAYER
  0
ENDSEC
  0
EOF
