  0
SECTION
  2
HEADER
  9
$ACADVER
  1
AC1015
  9
$ACADMAINTVER
 70
    20
  9
$DWGCODEPAGE
  3
ANSI_1252
  9
$INSBASE
 10
0.0
 20
0.0
 30
0.0
  9
$EXTMIN
 10
0.3401015493
 20
0.3642029944
 30
-0.0000000000000002
  9
$EXTMAX
 10
3.4850553831
 20
3.824982511265555
 30
0.0
  9
$LIMMIN
 10
0.0
 20
0.0
  9
$LIMMAX
 10
0.0
 20
0.0
  9
$ORTHOMODE
 70
     0
  9
$REGENMODE
 70
     1
  9
$FILLMODE
 70
     1
  9
$QTEXTMODE
 70
     0
  9
$MIRRTEXT
 70
     1
  9
$LTSCALE
 40
1.0
  9
$ATTMODE
 70
     1
  9
$TEXTSIZE
 40
0.2
  9
$TRACEWID
 40
0.05
  9
$TEXTSTYLE
  7
Standard
  9
$CLAYER
  8
OBJ
  9
$CELTYPE
  6
ByLayer
  9
$CECOLOR
 62
     7
  9
$CELTSCALE
 40
1.0
  9
$DISPSILH
 70
     0
  9
$DIMSCALE
 40
1.0
  9
$DIMASZ
 40
0.156
  9
$DIMEXO
 40
0.05
  9
$DIMDLI
 40
0.38
  9
$DIMRND
 40
0.0
  9
$DIMDLE
 40
0.0
  9
$DIMEXE
 40
0.125
  9
$DIMTP
 40
0.0
  9
$DIMTM
 40
0.0
  9
$DIMTXT
 40
0.125
  9
$DIMCEN
 40
0.09
  9
$DIMTSZ
 40
0.0
  9
$DIMTOL
 70
     0
  9
$DIMLIM
 70
     0
  9
$DIMTIH
 70
     1
  9
$DIMTOH
 70
     1
  9
$DIMSE1
 70
     0
  9
$DIMSE2
 70
     0
  9
$DIMTAD
 70
     0
  9
$DIMZIN
 70
     0
  9
$DIMBLK
  1

  9
$DIMASO
 70
     1
  9
$DIMSHO
 70
     1
  9
$DIMPOST
  1

  9
$DIMAPOST
  1

  9
$DIMALT
 70
     0
  9
$DIMALTD
 70
     2
  9
$DIMALTF
 40
25.4
  9
$DIMLFAC
 40
5.0
  9
$DIMTOFL
 70
     0
  9
$DIMTVP
 40
0.0
  9
$DIMTIX
 70
     0
  9
$DIMSOXD
 70
     0
  9
$DIMSAH
 70
     0
  9
$DIMBLK1
  1

  9
$DIMBLK2
  1

  9
$DIMSTYLE
  2
Standard
  9
$DIMCLRD
 70
     0
  9
$DIMCLRE
 70
     0
  9
$DIMCLRT
 70
     0
  9
$DIMTFAC
 40
1.0
  9
$DIMGAP
 40
0.06
  9
$DIMJUST
 70
     0
  9
$DIMSD1
 70
     0
  9
$DIMSD2
 70
     0
  9
$DIMTOLJ
 70
     1
  9
$DIMTZIN
 70
     0
  9
$DIMALTZ
 70
     0
  9
$DIMALTTZ
 70
     0
  9
$DIMUPT
 70
     0
  9
$DIMDEC
 70
     4
  9
$DIMTDEC
 70
     4
  9
$DIMALTU
 70
     2
  9
$DIMALTTD
 70
     2
  9
$DIMTXSTY
  7
Standard
  9
$DIMAUNIT
 70
     0
  9
$DIMADEC
 70
     0
  9
$DIMALTRND
 40
0.0
  9
$DIMAZIN
 70
     0
  9
$DIMDSEP
 70
    46
  9
$DIMATFIT
 70
     3
  9
$DIMFRAC
 70
     0
  9
$DIMLDRBLK
  1

  9
$DIMLUNIT
 70
     2
  9
$DIMLWD
 70
    -2
  9
$DIMLWE
 70
    -2
  9
$DIMTMOVE
 70
     0
  9
$LUNITS
 70
     2
  9
$LUPREC
 70
     3
  9
$SKETCHINC
 40
0.1
  9
$FILLETRAD
 40
0.5
  9
$AUNITS
 70
     0
  9
$AUPREC
 70
     0
  9
$MENU
  1
.
  9
$ELEVATION
 40
0.0
  9
$PELEVATION
 40
0.0
  9
$THICKNESS
 40
0.0
  9
$LIMCHECK
 70
     0
  9
$CHAMFERA
 40
0.5
  9
$CHAMFERB
 40
0.5
  9
$CHAMFERC
 40
1.0
  9
$CHAMFERD
 40
0.0
  9
$SKPOLY
 70
     0
  9
$TDCREATE
 40
2454755.637014606
  9
$TDUCREATE
 40
2454755.887014607
  9
$TDUPDATE
 40
2454777.674779769
  9
$TDUUPDATE
 40
2454777.924779769
  9
$TDINDWG
 40
0.0006581134
  9
$TDUSRTIMER
 40
0.0006581134
  9
$USRTIMER
 70
     1
  9
$ANGBASE
 50
0.0
  9
$ANGDIR
 70
     0
  9
$PDMODE
 70
     0
  9
$PDSIZE
 40
-1.0
  9
$PLINEWID
 40
0.0
  9
$SPLFRAME
 70
     0
  9
$SPLINETYPE
 70
     6
  9
$SPLINESEGS
 70
     8
  9
$HANDSEED
  5
17C
  9
$SURFTAB1
 70
     6
  9
$SURFTAB2
 70
     6
  9
$SURFTYPE
 70
     6
  9
$SURFU
 70
     6
  9
$SURFV
 70
     6
  9
$UCSBASE
  2

  9
$UCSNAME
  2

  9
$UCSORG
 10
0.0
 20
0.0
 30
0.0
  9
$UCSXDIR
 10
1.0
 20
0.0
 30
0.0
  9
$UCSYDIR
 10
0.0
 20
1.0
 30
0.0
  9
$UCSORTHOREF
  2

  9
$UCSORTHOVIEW
 70
     0
  9
$UCSORGTOP
 10
0.0
 20
0.0
 30
0.0
  9
$UCSORGBOTTOM
 10
0.0
 20
0.0
 30
0.0
  9
$UCSORGLEFT
 10
0.0
 20
0.0
 30
0.0
  9
$UCSORGRIGHT
 10
0.0
 20
0.0
 30
0.0
  9
$UCSORGFRONT
 10
0.0
 20
0.0
 30
0.0
  9
$UCSORGBACK
 10
0.0
 20
0.0
 30
0.0
  9
$PUCSBASE
  2

  9
$PUCSNAME
  2

  9
$PUCSORG
 10
0.0
 20
0.0
 30
0.0
  9
$PUCSXDIR
 10
1.0
 20
0.0
 30
0.0
  9
$PUCSYDIR
 10
0.0
 20
1.0
 30
0.0
  9
$PUCSORTHOREF
  2

  9
$PUCSORTHOVIEW
 70
     0
  9
$PUCSORGTOP
 10
0.0
 20
0.0
 30
0.0
  9
$PUCSORGBOTTOM
 10
0.0
 20
0.0
 30
0.0
  9
$PUCSORGLEFT
 10
0.0
 20
0.0
 30
0.0
  9
$PUCSORGRIGHT
 10
0.0
 20
0.0
 30
0.0
  9
$PUCSORGFRONT
 10
0.0
 20
0.0
 30
0.0
  9
$PUCSORGBACK
 10
0.0
 20
0.0
 30
0.0
  9
$USERI1
 70
     0
  9
$USERI2
 70
     0
  9
$USERI3
 70
     0
  9
$USERI4
 70
     0
  9
$USERI5
 70
     0
  9
$USERR1
 40
0.0
  9
$USERR2
 40
0.0
  9
$USERR3
 40
0.0
  9
$USERR4
 40
0.0
  9
$USERR5
 40
0.0
  9
$WORLDVIEW
 70
     1
  9
$SHADEDGE
 70
     3
  9
$SHADEDIF
 70
    70
  9
$TILEMODE
 70
     1
  9
$MAXACTVP
 70
    64
  9
$PINSBASE
 10
0.0
 20
0.0
 30
0.0
  9
$PLIMCHECK
 70
     0
  9
$PEXTMIN
 10
1.000000000000000E+20
 20
1.000000000000000E+20
 30
1.000000000000000E+20
  9
$PEXTMAX
 10
-1.000000000000000E+20
 20
-1.000000000000000E+20
 30
-1.000000000000000E+20
  9
$PLIMMIN
 10
0.0
 20
0.0
  9
$PLIMMAX
 10
12.0
 20
9.0
  9
$UNITMODE
 70
     0
  9
$VISRETAIN
 70
     1
  9
$PLINEGEN
 70
     0
  9
$PSLTSCALE
 70
     1
  9
$TREEDEPTH
 70
  3020
  9
$CMLSTYLE
  2
Standard
  9
$CMLJUST
 70
     0
  9
$CMLSCALE
 40
1.0
  9
$PROXYGRAPHICS
 70
     1
  9
$MEASUREMENT
 70
     0
  9
$CELWEIGHT
370
    -1
  9
$ENDCAPS
280
     0
  9
$JOINSTYLE
280
     0
  9
$LWDISPLAY
290
     1
  9
$INSUNITS
 70
     1
  9
$HYPERLINKBASE
  1

  9
$STYLESHEET
  1

  9
$XEDIT
290
     1
  9
$CEPSNTYPE
380
     0
  9
$PSTYLEMODE
290
     1
  9
$FINGERPRINTGUID
  2
{8D096822-943E-4A89-B429-B526C8CAA135}
  9
$VERSIONGUID
  2
{746CB27F-819E-4B49-AD1F-4F3DCBC6CB0F}
  9
$EXTNAMES
290
     1
  9
$PSVPSCALE
 40
0.0
  9
$OLESTARTUP
290
     0
  0
ENDSEC
  0
SECTION
  2
CLASSES
  0
CLASS
  1
ACDBDICTIONARYWDFLT
  2
AcDbDictionaryWithDefault
  3
ObjectDBX Classes
 90
        0
280
     0
281
     0
  0
CLASS
  1
ACDBPLACEHOLDER
  2
AcDbPlaceHolder
  3
ObjectDBX Classes
 90
        0
280
     0
281
     0
  0
CLASS
  1
LAYOUT
  2
AcDbLayout
  3
ObjectDBX Classes
 90
        0
280
     0
281
     0
  0
CLASS
  1
DICTIONARYVAR
  2
AcDbDictionaryVar
  3
ObjectDBX Classes
 90
        0
280
     0
281
     0
  0
ENDSEC
  0
SECTION
  2
TABLES
  0
TABLE
  2
VPORT
  5
8
330
0
100
AcDbSymbolTable
 70
     2
  0
VPORT
  5
172
330
8
100
AcDbSymbolTableRecord
100
AcDbViewportTableRecord
  2
*Active
 70
     0
 10
0.0
 20
0.0
 11
1.0
 21
1.0
 12
3.387755102040816
 22
2.0
 13
0.0
 23
0.0
 14
0.5
 24
0.5
 15
0.5
 25
0.5
 16
0.0
 26
0.0
 36
1.0
 17
0.0
 27
0.0
 37
0.0
 40
4.0
 41
1.693877551020408
 42
50.0
 43
0.0
 44
0.0
 50
0.0
 51
0.0
 71
     0
 72
  2000
 73
     1
 74
     3
 75
     0
 76
     0
 77
     0
 78
     0
281
     0
 65
     1
110
0.0
120
0.0
130
0.0
111
1.0
121
0.0
131
0.0
112
0.0
122
1.0
132
0.0
 79
     0
146
0.0
  0
ENDTAB
  0
TABLE
  2
LTYPE
  5
5
330
0
100
AcDbSymbolTable
 70
     6
  0
LTYPE
  5
14
330
5
100
AcDbSymbolTableRecord
100
AcDbLinetypeTableRecord
  2
ByBlock
 70
     0
  3

 72
    65
 73
     0
 40
0.0
  0
LTYPE
  5
15
330
5
100
AcDbSymbolTableRecord
100
AcDbLinetypeTableRecord
  2
ByLayer
 70
     0
  3

 72
    65
 73
     0
 40
0.0
  0
LTYPE
  5
16
330
5
100
AcDbSymbolTableRecord
100
AcDbLinetypeTableRecord
  2
Continuous
 70
     0
  3
Solid line
 72
    65
 73
     0
 40
0.0
  0
LTYPE
  5
2A
330
5
100
AcDbSymbolTableRecord
100
AcDbLinetypeTableRecord
  2
HIDDEN
 70
     0
  3
Hidden __ __ __ __ __ __ __ __ __ __ __ __ __ __
 72
    65
 73
     2
 40
0.075
 49
0.05
 74
     0
 49
-0.025
 74
     0
  0
LTYPE
  5
2B
330
5
100
AcDbSymbolTableRecord
100
AcDbLinetypeTableRecord
  2
PHANTOM
 70
     0
  3
Phantom ______  __  __  ______  __  __  ______
 72
    65
 73
     6
 40
0.5
 49
0.25
 74
     0
 49
-0.05
 74
     0
 49
0.05
 74
     0
 49
-0.05
 74
     0
 49
0.05
 74
     0
 49
-0.05
 74
     0
  0
LTYPE
  5
2C
330
5
100
AcDbSymbolTableRecord
100
AcDbLinetypeTableRecord
  2
CENTER
 70
     0
  3
Center ____ _ ____ _ ____ _ ____ _ ____ _ ____
 72
    65
 73
     4
 40
0.4
 49
0.25
 74
     0
 49
-0.05
 74
     0
 49
0.05
 74
     0
 49
-0.05
 74
     0
  0
LTYPE
  5
2D
330
5
100
AcDbSymbolTableRecord
100
AcDbLinetypeTableRecord
  2
CENTERX2
 70
     0
  3
Center (2x) ________  __  ________  __  _____
 72
    65
 73
     4
 40
0.8
 49
0.5
 74
     0
 49
-0.1
 74
     0
 49
0.1
 74
     0
 49
-0.1
 74
     0
  0
LTYPE
  5
2E
330
5
100
AcDbSymbolTableRecord
100
AcDbLinetypeTableRecord
  2
DOT2
 70
     0
  3
Dot (.5x) ........................................
 72
    65
 73
     2
 40
0.025
 49
0.0
 74
     0
 49
-0.025
 74
     0
  0
ENDTAB
  0
TABLE
  2
LAYER
  5
2
330
0
100
AcDbSymbolTable
 70
    16
  0
LAYER
  5
10
330
2
100
AcDbSymbolTableRecord
100
AcDbLayerTableRecord
  2
0
 70
     0
 62
     7
  6
Continuous
370
    -3
390
F
  0
LAYER
  5
2F
330
2
100
AcDbSymbolTableRecord
100
AcDbLayerTableRecord
  2
SLD-0
 70
     0
 62
   179
  6
Continuous
370
    -3
390
F
  0
LAYER
  5
30
330
2
100
AcDbSymbolTableRecord
100
AcDbLayerTableRecord
  2
SLD-DEFPOINTS
 70
     0
 62
   179
  6
Continuous
370
    -3
390
F
  0
LAYER
  5
31
330
2
100
AcDbSymbolTableRecord
100
AcDbLayerTableRecord
  2
OBJ
 70
     0
 62
   179
  6
Continuous
370
    -3
390
F
  0
LAYER
  5
32
330
2
100
AcDbSymbolTableRecord
100
AcDbLayerTableRecord
  2
FORMAT
 70
     0
 62
     7
  6
Continuous
370
    -3
390
F
  0
LAYER
  5
33
330
2
100
AcDbSymbolTableRecord
100
AcDbLayerTableRecord
  2
REV-1
 70
     0
 62
     7
  6
Continuous
370
    -3
390
F
  0
LAYER
  5
34
330
2
100
AcDbSymbolTableRecord
100
AcDbLayerTableRecord
  2
REV-2
 70
     0
 62
    -7
  6
Continuous
370
    -3
390
F
  0
LAYER
  5
35
330
2
100
AcDbSymbolTableRecord
100
AcDbLayerTableRecord
  2
REV-3
 70
     0
 62
    -7
  6
Continuous
370
    -3
390
F
  0
LAYER
  5
36
330
2
100
AcDbSymbolTableRecord
100
AcDbLayerTableRecord
  2
PAINT
 70
     0
 62
    -7
  6
Continuous
370
    -3
390
F
  0
LAYER
  5
37
330
2
100
AcDbSymbolTableRecord
100
AcDbLayerTableRecord
  2
BLANK-SIZE-1
 70
     0
 62
    -7
  6
Continuous
370
    -3
390
F
  0
LAYER
  5
38
330
2
100
AcDbSymbolTableRecord
100
AcDbLayerTableRecord
  2
BLANK-SIZE-2
 70
     0
 62
    -7
  6
Continuous
370
    -3
390
F
  0
LAYER
  5
39
330
2
100
AcDbSymbolTableRecord
100
AcDbLayerTableRecord
  2
BLANK-SIZE-3
 70
     0
 62
    -7
  6
Continuous
370
    -3
390
F
  0
LAYER
  5
3A
330
2
100
AcDbSymbolTableRecord
100
AcDbLayerTableRecord
  2
BLANK-SIZE-4
 70
     0
 62
    -7
  6
Continuous
370
    -3
390
F
  0
LAYER
  5
3B
330
2
100
AcDbSymbolTableRecord
100
AcDbLayerTableRecord
  2
BLANK-SIZE-5
 70
     0
 62
    -7
  6
Continuous
370
    -3
390
F
  0
LAYER
  5
3C
330
2
100
AcDbSymbolTableRecord
100
AcDbLayerTableRecord
  2
HDG
 70
     0
 62
    -7
  6
Continuous
370
    -3
390
F
  0
LAYER
  5
3D
330
2
100
AcDbSymbolTableRecord
100
AcDbLayerTableRecord
  2
FAX-NOTE
 70
     0
 62
    -7
  6
Continuous
370
    -3
390
F
  0
ENDTAB
  0
TABLE
  2
STYLE
  5
3
330
0
100
AcDbSymbolTable
 70
     2
  0
STYLE
  5
11
330
3
100
AcDbSymbolTableRecord
100
AcDbTextStyleTableRecord
  2
Standard
 70
     0
 40
0.0
 41
1.0
 50
0.0
 71
     0
 42
0.2
  3
txt
  4

  0
STYLE
  5
3E
330
3
100
AcDbSymbolTableRecord
100
AcDbTextStyleTableRecord
  2
SLDTEXTSTYLE0
 70
     0
 40
0.0
 41
0.605
 50
0.0
 71
     0
 42
0.2
  3
TXT
  4

  0
ENDTAB
  0
TABLE
  2
VIEW
  5
6
330
0
100
AcDbSymbolTable
 70
     0
  0
ENDTAB
  0
TABLE
  2
UCS
  5
7
330
0
100
AcDbSymbolTable
 70
     0
  0
ENDTAB
  0
TABLE
  2
APPID
  5
9
330
0
100
AcDbSymbolTable
 70
     1
  0
APPID
  5
12
330
9
100
AcDbSymbolTableRecord
100
AcDbRegAppTableRecord
  2
ACAD
 70
     0
  0
ENDTAB
  0
TABLE
  2
DIMSTYLE
  5
A
330
0
100
AcDbSymbolTable
 70
     1
100
AcDbDimStyleTable
 71
     0
  0
DIMSTYLE
105
27
330
A
100
AcDbSymbolTableRecord
100
AcDbDimStyleTableRecord
  2
Standard
 70
     0
340
11
  0
ENDTAB
  0
TABLE
  2
BLOCK_RECORD
  5
1
330
0
100
AcDbSymbolTable
 70
     1
  0
BLOCK_RECORD
  5
1F
330
1
100
AcDbSymbolTableRecord
100
AcDbBlockTableRecord
  2
*Model_Space
340
22
  0
BLOCK_RECORD
  5
1B
330
1
100
AcDbSymbolTableRecord
100
AcDbBlockTableRecord
  2
*Paper_Space
340
1E
  0
BLOCK_RECORD
  5
23
330
1
100
AcDbSymbolTableRecord
100
AcDbBlockTableRecord
  2
*Paper_Space0
340
26
  0
ENDTAB
  0
ENDSEC
  0
SECTION
  2
BLOCKS
  0
BLOCK
  5
20
330
1F
100
AcDbEntity
  8
0
100
AcDbBlockBegin
  2
*Model_Space
 70
     0
 10
0.0
 20
0.0
 30
0.0
  3
*Model_Space
  1

  0
ENDBLK
  5
21
330
1F
100
AcDbEntity
  8
0
100
AcDbBlockEnd
  0
BLOCK
  5
1C
330
1B
100
AcDbEntity
 67
     1
  8
0
100
AcDbBlockBegin
  2
*Paper_Space
 70
     0
 10
0.0
 20
0.0
 30
0.0
  3
*Paper_Space
  1

  0
ENDBLK
  5
1D
330
1B
100
AcDbEntity
 67
     1
  8
0
100
AcDbBlockEnd
  0
BLOCK
  5
24
330
23
100
AcDbEntity
  8
0
100
AcDbBlockBegin
  2
*Paper_Space0
 70
     0
 10
0.0
 20
0.0
 30
0.0
  3
*Paper_Space0
  1

  0
ENDBLK
  5
25
330
23
100
AcDbEntity
  8
0
100
AcDbBlockEnd
  0
ENDSEC
  0
SECTION
  2
ENTITIES
  0
MTEXT
  5
3F
330
1F
100
AcDbEntity
  8
0
100
AcDbMText
 10
2.305248501899999
 20
2.901264245299999
 30
0.0
 40
0.09375
 41
0.0
 71
     1
 72
     1
  1
LSSH15-TZ-TOP-VIEW
  7
SLDTEXTSTYLE0
 73
     1
 44
1.0
1001
ACAD
1000
MTEXTBEGIN
1070
    73
1070
     1
1070
    44
1040
1.0
1070
    74
1070
     0
1000
MTEXTEND
  0
MTEXT
  5
40
330
1F
100
AcDbEntity
  8
0
100
AcDbMText
 10
2.218442931399999
 20
0.4579529944
 30
0.0
 40
0.09375
 41
0.0
 71
     1
 72
     1
  1
LSSH15-TZ-FRONT-VIEW
  7
SLDTEXTSTYLE0
 73
     1
 44
1.0
1001
ACAD
1000
MTEXTBEGIN
1070
    73
1070
     1
1070
    44
1040
1.0
1070
    74
1070
     0
1000
MTEXTEND
  0
MTEXT
  5
41
330
1F
100
AcDbEntity
  8
0
100
AcDbMText
 10
0.3401015493
 20
0.4579529944
 30
0.0
 40
0.09375
 41
0.0
 71
     1
 72
     1
  1
LSSH15-TZ-SIDE-VIEW
  7
SLDTEXTSTYLE0
 73
     1
 44
1.0
1001
ACAD
1000
MTEXTBEGIN
1070
    73
1070
     1
1070
    44
1040
1.0
1070
    74
1070
     0
1000
MTEXTEND
  0
ARC
  5
42
330
1F
100
AcDbEntity
  8
0
  6
Continuous
 62
     7
370
    15
100
AcDbCircle
 10
2.7961353831
 20
0.8805622624999999
 30
0.0
 40
0.0029999999999997
100
AcDbArc
 50
0.0
 51
69.5763846362
  0
ARC
  5
43
330
1F
100
AcDbEntity
  8
0
  6
Continuous
 62
     7
370
    15
100
AcDbCircle
 10
2.7961353831
 20
0.9525344794
 30
0.0
 40
0.0029999999999997
100
AcDbArc
 50
290.4236153638
 51
0.0
  0
ARC
  5
44
330
1F
100
AcDbEntity
  8
0
  6
Continuous
 62
     7
370
    15
100
AcDbCircle
 10
2.8095353831
 20
0.916548371
 30
0.0
 40
0.0354000000000003
100
AcDbArc
 50
162.6792948895
 51
249.5763846362
  0
ARC
  5
45
330
1F
100
AcDbEntity
  8
0
  6
Continuous
 62
     7
370
    15
100
AcDbCircle
 10
2.8095353831
 20
0.916548371
 30
0.0
 40
0.0354000000000003
100
AcDbArc
 50
110.4236153638
 51
123.4280309153
  0
ARC
  5
46
330
1F
100
AcDbEntity
  8
0
  6
Continuous
 62
     7
370
    15
100
AcDbCircle
 10
3.1353353831
 20
0.9773017999
 30
0.0
 40
0.0029999999999999
100
AcDbArc
 50
180.0
 51
249.5763846362
  0
ARC
  5
47
330
1F
100
AcDbEntity
  8
0
  6
Continuous
 62
     7
370
    15
100
AcDbCircle
 10
3.1353353831
 20
0.9053295829999999
 30
0.0
 40
0.0029999999999999
100
AcDbArc
 50
110.4236153638
 51
180.0
  0
ARC
  5
48
330
1F
100
AcDbEntity
  8
0
  6
Continuous
 62
     7
370
    15
100
AcDbCircle
 10
3.121935383099999
 20
0.9413156915
 30
0.0
 40
0.0354
100
AcDbArc
 50
290.4236153638
 51
0.0
  0
ARC
  5
49
330
1F
100
AcDbEntity
  8
0
  6
Continuous
 62
     7
370
    15
100
AcDbCircle
 10
3.121935383099999
 20
0.9413156915
 30
0.0
 40
0.0354
100
AcDbArc
 50
54.572011671
 51
69.5763846362
  0
ARC
  5
4A
330
1F
100
AcDbEntity
  8
0
  6
Continuous
 62
     7
370
    15
100
AcDbCircle
 10
3.121935383099999
 20
0.9413156915
 30
0.0
 40
0.0354
100
AcDbArc
 50
0.0
 51
18.0574112609
  0
LINE
  5
4B
330
1F
100
AcDbEntity
  8
0
  6
Continuous
 62
     7
370
    15
100
AcDbLine
 10
3.121935383099999
 20
0.6369328829
 30
0.0
 11
3.121935383099999
 21
0.9447775929999998
 31
0.0
  0
LINE
  5
4C
330
1F
100
AcDbEntity
  8
0
  6
Continuous
 62
     7
370
    15
100
AcDbLine
 10
3.1323353831
 20
0.9447775929999998
 30
0.0
 11
3.121935383099999
 21
0.9447775929999998
 31
0.0
  0
LINE
  5
4D
330
1F
100
AcDbEntity
  8
0
  6
Continuous
 62
     7
370
    15
100
AcDbLine
 10
3.1323353832
 20
0.6369328829
 30
0.0
 11
3.1323353831
 21
0.9447775929999998
 31
0.0
  0
LINE
  5
4E
330
1F
100
AcDbEntity
  8
0
  6
Continuous
 62
     7
370
    15
100
AcDbLine
 10
3.121935383099999
 20
0.9447775929999998
 30
0.0
 11
3.121935383099999
 21
1.049597592999999
 31
0.0
  0
LINE
  5
4F
330
1F
100
AcDbEntity
  8
0
  6
Continuous
 62
     7
370
    15
100
AcDbLine
 10
3.121935383099999
 20
1.049597592999999
 30
0.0
 11
3.1323353831
 21
1.049597592999999
 31
0.0
  0
LINE
  5
50
330
1F
100
AcDbEntity
  8
0
  6
Continuous
 62
     7
370
    15
100
AcDbLine
 10
3.1323353831
 20
0.9447775929999998
 30
0.0
 11
3.1323353831
 21
1.049597592999999
 31
0.0
  0
LINE
  5
51
330
1F
100
AcDbEntity
  8
0
  6
Continuous
 62
     7
370
    15
100
AcDbLine
 10
2.799135383099999
 20
0.9447775929999998
 30
0.0
 11
2.8095353831
 21
0.9447775929999998
 31
0.0
  0
LINE
  5
52
330
1F
100
AcDbEntity
  8
0
  6
Continuous
 62
     7
370
    15
100
AcDbLine
 10
2.8095353831
 20
1.049597592999999
 30
0.0
 11
2.799135383099999
 21
1.049597592999999
 31
0.0
  0
LINE
  5
53
330
1F
100
AcDbEntity
  8
0
  6
Continuous
 62
     7
370
    15
100
AcDbLine
 10
2.8095353831
 20
1.049597592999999
 30
0.0
 11
2.8095353831
 21
0.9447775929999998
 31
0.0
  0
LINE
  5
54
330
1F
100
AcDbEntity
  8
0
  6
Continuous
 62
     7
370
    15
100
AcDbLine
 10
2.799135383099999
 20
1.049597592999999
 30
0.0
 11
2.799135383099999
 21
0.9447775929999998
 31
0.0
  0
LINE
  5
55
330
1F
100
AcDbEntity
  8
0
  6
Continuous
 62
     7
370
    15
100
AcDbLine
 10
2.8095353831
 20
0.9447775929999998
 30
0.0
 11
2.8095353831
 21
0.6369328829
 31
0.0
  0
LINE
  5
56
330
1F
100
AcDbEntity
  8
0
  6
Continuous
 62
     7
370
    15
100
AcDbLine
 10
2.799135383099999
 20
0.9447775929999998
 30
0.0
 11
2.799135383099999
 21
0.6369328829
 31
0.0
  0
LWPOLYLINE
  5
57
330
1F
100
AcDbEntity
  8
0
  6
Continuous
 62
     7
370
    15
100
AcDbPolyline
 90
       19
 70
   128
 43
0.0
 10
2.794618922699999
 20
0.9472032068999999
 10
2.7927829581
 20
0.9474118551
 10
2.7900422962
 20
0.9460979809000001
 10
2.7867275013
 20
0.9434200569999999
 10
2.7832383866
 20
0.9397010804
 10
2.779995790799999
 20
0.9353896147
 10
2.777390818799999
 20
0.9310056861999999
 10
2.7757376686
 20
0.9270780613999999
 10
2.7752357347
 20
0.9240804697999999
 10
2.7759455575
 20
0.9223744653
 10
2.777781522099999
 20
0.9221658169999999
 10
2.780522183999999
 20
0.9234796912
 10
2.783836978899999
 20
0.9261576151999999
 10
2.787326093599999
 20
0.9298765917
 10
2.7905686894
 20
0.9341880574999999
 10
2.793173661499999
 20
0.9385719859999998
 10
2.7948268116
 20
0.9424996106999998
 10
2.795328745499999
 20
0.9454972022999999
 10
2.794618922699999
 20
0.9472032068999999
  0
LWPOLYLINE
  5
58
330
1F
100
AcDbEntity
  8
0
  6
Continuous
 62
     7
370
    15
100
AcDbPolyline
 90
       19
 70
   128
 43
0.0
 10
3.1553877887
 20
0.9466244441
 10
3.1562180054
 20
0.9483972151999999
 10
3.155838518799999
 20
0.9514658435999999
 10
3.154295100699999
 20
0.9554602072999999
 10
3.15177391
 20
0.9598985273
 10
3.1485790397
 20
0.9642454765
 10
3.145095838
 20
0.9679767487999999
 10
3.141744430699999
 20
0.9706422976
 10
3.138929046899999
 20
0.9719206184999999
 10
3.136989263399999
 20
0.9716575269999999
 10
3.1361590468
 20
0.9698847559
 10
3.136538533399999
 20
0.9668161274999999
 10
3.138081951499999
 20
0.9628217637
 10
3.140603142099999
 20
0.9583834438
 10
3.1437980125
 20
0.9540364945
 10
3.1472812141
 20
0.9503052222
 10
3.150632621399999
 20
0.9476396733999999
 10
3.1534480052
 20
0.9463613526000001
 10
3.1553877887
 20
0.9466244441
  0
ARC
  5
59
330
1F
100
AcDbEntity
  8
0
  6
Continuous
 62
     7
370
    15
100
AcDbCircle
 10
2.8153947581
 20
0.6373839378000001
 30
0.0
 40
0.0058767104668736
100
AcDbArc
 50
184.4019496523
 51
273.8112610495
  0
SPLINE
  5
5A
330
1F
100
AcDbEntity
  8
0
  6
Continuous
 62
     7
370
    15
100
AcDbSpline
210
0.0
220
0.0
230
1.0
 70
     8
 71
     3
 72
    10
 73
     6
 74
     0
 42
0.0000000001
 43
0.0000000001
 40
0.0
 40
0.0
 40
0.0
 40
0.0
 40
0.5
 40
0.5
 40
1.0
 40
1.0
 40
1.0
 40
1.0
 10
2.809535382992388
 20
0.9183586191978148
 30
0.0
 10
2.809535382992388
 20
0.9182146761302048
 30
0.0
 10
2.809726402882105
 20
0.9180711707859535
 30
0.0
 10
2.810456874697107
 20
0.9179198300531652
 30
0.0
 10
2.810995877265824
 20
0.9179127509221149
 30
0.0
 10
2.811661391619104
 20
0.9180297219991691
 30
0.0
  0
SPLINE
  5
5B
330
1F
100
AcDbEntity
  8
0
  6
Continuous
 62
     7
370
    15
100
AcDbSpline
210
0.0
220
0.0
230
1.0
 70
     8
 71
     3
 72
    10
 73
     6
 74
     0
 42
0.0000000001
 43
0.0000000001
 40
0.0
 40
0.0
 40
0.0
 40
0.0
 40
0.5
 40
0.5
 40
1.0
 40
1.0
 40
1.0
 40
1.0
 10
2.811661391619104
 20
0.9180297219991691
 30
0.0
 10
2.812440547423298
 20
0.918284256332231
 30
0.0
 10
2.813267955857824
 20
0.9187927106524035
 30
0.0
 10
2.814705711202234
 20
0.9201124224600439
 30
0.0
 10
2.815319953118168
 20
0.9209182156364457
 30
0.0
 10
2.815785383097351
 20
0.9217657154213707
 30
0.0
  0
SPLINE
  5
5C
330
1F
100
AcDbEntity
  8
0
  6
Continuous
 62
     7
370
    15
100
AcDbSpline
210
0.0
220
0.0
230
1.0
 70
     8
 71
     3
 72
    10
 73
     6
 74
     0
 42
0.0000000001
 43
0.0000000001
 40
0.0
 40
0.0
 40
0.0
 40
0.0
 40
0.5
 40
0.5
 40
1.0
 40
1.0
 40
1.0
 40
1.0
 10
3.115685383097351
 20
0.9217657154213709
 30
0.0
 10
3.116489966927356
 20
0.9205788674045505
 30
0.0
 10
3.117265346307271
 20
0.9196977727184322
 30
0.0
 10
3.118663248891923
 20
0.9184779866408153
 30
0.0
 10
3.119285954422411
 20
0.9181386627198238
 30
0.0
 10
3.119809374575599
 20
0.9180297219991691
 30
0.0
  0
SPLINE
  5
5D
330
1F
100
AcDbEntity
  8
0
  6
Continuous
 62
     7
370
    15
100
AcDbSpline
210
0.0
220
0.0
230
1.0
 70
     8
 71
     3
 72
    10
 73
     6
 74
     0
 42
0.0000000001
 43
0.0000000001
 40
0.0
 40
0.0
 40
0.0
 40
0.0
 40
0.5
 40
0.5
 40
1.0
 40
1.0
 40
1.0
 40
1.0
 10
3.119809374575599
 20
0.9180297219991691
 30
0.0
 10
3.12047488892888
 20
0.9179127509221149
 30
0.0
 10
3.121013891497596
 20
0.9179198300531654
 30
0.0
 10
3.121744363312596
 20
0.9180711707859535
 30
0.0
 10
3.121935383202316
 20
0.9182146761302048
 30
0.0
 10
3.121935383202316
 20
0.9183586191978148
 30
0.0
  0
ARC
  5
5E
330
1F
100
AcDbEntity
  8
0
  6
Continuous
 62
     7
370
    15
100
AcDbCircle
 10
3.116076008099999
 20
0.6373839378000001
 30
0.0
 40
0.0058767104668732
100
AcDbArc
 50
266.1887389505
 51
355.5980503477
  0
ARC
  5
5F
330
1F
100
AcDbEntity
  8
0
  6
Continuous
 62
     7
370
    15
100
AcDbCircle
 10
2.814744758
 20
0.6381344931
 30
0.0
 40
0.0156555565827248
100
AcDbArc
 50
184.4019492863
 51
273.8112614154
  0
ARC
  5
60
330
1F
100
AcDbEntity
  8
0
  6
Continuous
 62
     7
370
    15
100
AcDbCircle
 10
3.116726008
 20
0.6381344933
 30
0.0
 40
0.0156555568890328
100
AcDbArc
 50
266.1887393239
 51
355.5980497957
  0
LWPOLYLINE
  5
61
330
1F
100
AcDbEntity
  8
0
  6
Continuous
 62
     7
370
    15
100
AcDbPolyline
 90
       27
 70
   128
 43
0.0
 10
2.9969853831
 20
0.7065202242000001
 10
2.996077314899999
 20
0.7102595314000001
 10
2.993405883899999
 20
0.7137815237
 10
2.989126343999999
 20
0.7168815157
 10
2.983487406399999
 20
0.7193793471
 10
2.976816785799999
 20
0.7211298529000001
 10
2.969502154399999
 20
0.7220313003000002
 10
2.9619686118
 20
0.7220313003000002
 10
2.9546539804
 20
0.7211298529000001
 10
2.9479833598
 20
0.7193793471
 10
2.9423444222
 20
0.7168815157
 10
2.9380648823
 20
0.7137815237
 10
2.935393451299999
 20
0.7102595314000001
 10
2.9344853831
 20
0.7065202242000001
 10
2.935393451299999
 20
0.7027809169000001
 10
2.9380648823
 20
0.6992589246
 10
2.9423444222
 20
0.6961589326000001
 10
2.9479833598
 20
0.6936611013
 10
2.9546539804
 20
0.6919105954000001
 10
2.9619686118
 20
0.6910091480000001
 10
2.969502154399999
 20
0.6910091480000001
 10
2.976816785799999
 20
0.6919105954000001
 10
2.983487406399999
 20
0.6936611013
 10
2.989126343999999
 20
0.6961589326000001
 10
2.993405883899999
 20
0.6992589246
 10
2.996077314899999
 20
0.7027809169000001
 10
2.9969853831
 20
0.7065202242000001
  0
LWPOLYLINE
  5
62
330
1F
100
AcDbEntity
  8
0
  6
Continuous
 62
     7
370
    15
100
AcDbPolyline
 90
       19
 70
   128
 43
0.0
 10
2.9821353831
 20
0.7625102242000001
 10
2.981146342099999
 20
0.7653147893000001
 10
2.978298511999999
 20
0.7677810826000001
 10
2.9739353831
 20
0.7696116325000001
 10
2.9685832132
 20
0.7705856477
 10
2.962887553
 20
0.7705856477
 10
2.9575353831
 20
0.7696116325000001
 10
2.9531722542
 20
0.7677810826000001
 10
2.9503244241
 20
0.7653147893000001
 10
2.9493353831
 20
0.7625102242000001
 10
2.9503244241
 20
0.7597056590000001
 10
2.9531722542
 20
0.7572393658
 10
2.9575353831
 20
0.7554088158
 10
2.962887553
 20
0.7544348006
 10
2.9685832132
 20
0.7544348006
 10
2.9739353831
 20
0.7554088158
 10
2.978298511999999
 20
0.7572393658
 10
2.981146342099999
 20
0.7597056590000001
 10
2.9821353831
 20
0.7625102242000001
  0
ARC
  5
63
330
1F
100
AcDbEntity
  8
0
  6
Continuous
 62
     7
370
    15
100
AcDbCircle
 10
3.123022511499999
 20
0.9268672869999999
 30
0.0
 40
0.0089364133844368
100
AcDbArc
 50
203.8031170483
 51
214.8112372635
  0
LINE
  5
64
330
1F
100
AcDbEntity
  8
0
  6
Continuous
 62
     7
370
    15
100
AcDbLine
 10
2.8157853831
 20
0.6315202242
 30
0.0
 11
3.1156853831
 21
0.6315202242
 31
0.0
  0
ARC
  5
65
330
1F
100
AcDbEntity
  8
0
  6
Continuous
 62
     7
370
    15
100
AcDbCircle
 10
2.8084482547
 20
0.9268672869999999
 30
0.0
 40
0.008936413384479
100
AcDbArc
 50
325.1887627365
 51
336.1968829517
  0
LINE
  5
66
330
1F
100
AcDbEntity
  8
0
  6
Continuous
 62
     7
370
    15
100
AcDbLine
 10
2.8157853831
 20
0.62251356
 30
0.0
 11
3.1156853831
 21
0.6225135599
 31
0.0
  0
LWPOLYLINE
  5
67
330
1F
100
AcDbEntity
  8
0
  6
Continuous
 62
     7
370
    15
100
AcDbPolyline
 90
       12
 70
   128
 43
0.0
 10
2.9956593284
 20
0.7020168921
 10
2.993405883899999
 20
0.7047748595000001
 10
2.989126343999999
 20
0.7078748515000001
 10
2.983487406399999
 20
0.7103726829000001
 10
2.976816785799999
 20
0.7121231887000001
 10
2.969502154399999
 20
0.7130246361000001
 10
2.9619686118
 20
0.7130246361000001
 10
2.9546539804
 20
0.7121231887000001
 10
2.9479833598
 20
0.7103726829000001
 10
2.9423444222
 20
0.7078748515000001
 10
2.9380648823
 20
0.7047748595000001
 10
2.935811437799999
 20
0.7020168921
  0
ARC
  5
68
330
1F
100
AcDbEntity
  8
0
  6
Continuous
 62
     7
370
    15
100
AcDbCircle
 10
2.9657353831
 20
0.7365247167
 30
0.0
 40
0.0254818339128657
100
AcDbArc
 50
57.4624173736
 51
122.5375826264
  0
LINE
  5
69
330
1F
100
AcDbEntity
  8
0
  6
Continuous
 62
     7
370
    15
100
AcDbLine
 10
2.799135383099999
 20
1.6546400809
 30
0.0
 11
2.799135383099999
 21
1.679480807899999
 31
0.0
  0
LINE
  5
6A
330
1F
100
AcDbEntity
  8
0
  6
Continuous
 62
     7
370
    15
100
AcDbLine
 10
2.8095353831
 20
1.6546400809
 30
0.0
 11
2.8095353831
 21
1.679480807899999
 31
0.0
  0
LINE
  5
6B
330
1F
100
AcDbEntity
  8
0
  6
Continuous
 62
     7
370
    15
100
AcDbLine
 10
3.1323353831
 20
1.6546400809
 30
0.0
 11
3.1323353831
 21
1.324649547399999
 31
0.0
  0
LINE
  5
6C
330
1F
100
AcDbEntity
  8
0
  6
Continuous
 62
     7
370
    15
100
AcDbLine
 10
3.121935383099999
 20
1.6546400809
 30
0.0
 11
3.121935383099999
 21
1.324649547399999
 31
0.0
  0
LINE
  5
6D
330
1F
100
AcDbEntity
  8
0
  6
Continuous
 62
     7
370
    15
100
AcDbLine
 10
3.1323353831
 20
1.679480807899999
 30
0.0
 11
3.1323353831
 21
1.6546400809
 31
0.0
  0
LINE
  5
6E
330
1F
100
AcDbEntity
  8
0
  6
Continuous
 62
     7
370
    15
100
AcDbLine
 10
3.121935383099999
 20
1.679480807899999
 30
0.0
 11
3.121935383099999
 21
1.6546400809
 31
0.0
  0
LINE
  5
6F
330
1F
100
AcDbEntity
  8
0
  6
Continuous
 62
     7
370
    15
100
AcDbLine
 10
2.8095353831
 20
1.324649547399999
 30
0.0
 11
2.8095353831
 21
1.6546400809
 31
0.0
  0
LINE
  5
70
330
1F
100
AcDbEntity
  8
0
  6
Continuous
 62
     7
370
    15
100
AcDbLine
 10
2.799135383099999
 20
1.324649547399999
 30
0.0
 11
2.799135383099999
 21
1.6546400809
 31
0.0
  0
LINE
  5
71
330
1F
100
AcDbEntity
  8
0
  6
Continuous
 62
     7
370
    15
100
AcDbLine
 10
3.121935383099999
 20
1.324649547399999
 30
0.0
 11
3.121935383099999
 21
1.2998088204
 31
0.0
  0
LINE
  5
72
330
1F
100
AcDbEntity
  8
0
  6
Continuous
 62
     7
370
    15
100
AcDbLine
 10
3.1323353831
 20
1.324649547399999
 30
0.0
 11
3.1323353831
 21
1.2998088204
 31
0.0
  0
LINE
  5
73
330
1F
100
AcDbEntity
  8
0
  6
Continuous
 62
     7
370
    15
100
AcDbLine
 10
2.8095353831
 20
1.2998088204
 30
0.0
 11
2.8095353831
 21
1.324649547399999
 31
0.0
  0
LINE
  5
74
330
1F
100
AcDbEntity
  8
0
  6
Continuous
 62
     7
370
    15
100
AcDbLine
 10
2.799135383099999
 20
1.2998088204
 30
0.0
 11
2.799135383099999
 21
1.324649547399999
 31
0.0
  0
LINE
  5
75
330
1F
100
AcDbEntity
  8
0
  6
Continuous
 62
     7
370
    15
100
AcDbLine
 10
3.1323353831
 20
1.6992165369
 30
0.0
 11
3.121935383099999
 21
1.6992165369
 31
0.0
  0
LINE
  5
76
330
1F
100
AcDbEntity
  8
0
  6
Continuous
 62
     7
370
    15
100
AcDbLine
 10
3.121935383099999
 20
1.6992165369
 30
0.0
 11
3.121935383099999
 21
1.679480807899999
 31
0.0
  0
LINE
  5
77
330
1F
100
AcDbEntity
  8
0
  6
Continuous
 62
     7
370
    15
100
AcDbLine
 10
3.1323353831
 20
1.6992165369
 30
0.0
 11
3.1323353831
 21
1.679480807899999
 31
0.0
  0
LINE
  5
78
330
1F
100
AcDbEntity
  8
0
  6
Continuous
 62
     7
370
    15
100
AcDbLine
 10
2.799135383099999
 20
1.6992165369
 30
0.0
 11
2.8095353831
 21
1.6992165369
 31
0.0
  0
LINE
  5
79
330
1F
100
AcDbEntity
  8
0
  6
Continuous
 62
     7
370
    15
100
AcDbLine
 10
2.8095353831
 20
1.679480807899999
 30
0.0
 11
2.8095353831
 21
1.6992165369
 31
0.0
  0
LINE
  5
7A
330
1F
100
AcDbEntity
  8
0
  6
Continuous
 62
     7
370
    15
100
AcDbLine
 10
2.799135383099999
 20
1.679480807899999
 30
0.0
 11
2.799135383099999
 21
1.6992165369
 31
0.0
  0
LINE
  5
7B
330
1F
100
AcDbEntity
  8
0
  6
Continuous
 62
     7
370
    15
100
AcDbLine
 10
2.799135383099999
 20
1.2800730915
 30
0.0
 11
2.8095353831
 21
1.2800730915
 31
0.0
  0
LINE
  5
7C
330
1F
100
AcDbEntity
  8
0
  6
Continuous
 62
     7
370
    15
100
AcDbLine
 10
2.8095353831
 20
1.2800730915
 30
0.0
 11
2.8095353831
 21
1.2998088204
 31
0.0
  0
LINE
  5
7D
330
1F
100
AcDbEntity
  8
0
  6
Continuous
 62
     7
370
    15
100
AcDbLine
 10
2.799135383099999
 20
1.2800730915
 30
0.0
 11
2.799135383099999
 21
1.2998088204
 31
0.0
  0
LINE
  5
7E
330
1F
100
AcDbEntity
  8
0
  6
Continuous
 62
     7
370
    15
100
AcDbLine
 10
3.1323353831
 20
1.2800730915
 30
0.0
 11
3.121935383099999
 21
1.2800730915
 31
0.0
  0
LINE
  5
7F
330
1F
100
AcDbEntity
  8
0
  6
Continuous
 62
     7
370
    15
100
AcDbLine
 10
3.121935383099999
 20
1.2998088204
 30
0.0
 11
3.121935383099999
 21
1.2800730915
 31
0.0
  0
LINE
  5
80
330
1F
100
AcDbEntity
  8
0
  6
Continuous
 62
     7
370
    15
100
AcDbLine
 10
3.1323353831
 20
1.2998088204
 30
0.0
 11
3.1323353831
 21
1.2800730915
 31
0.0
  0
LINE
  5
81
330
1F
100
AcDbEntity
  8
0
  6
Continuous
 62
     7
370
    15
100
AcDbLine
 10
3.0246259999
 20
1.935924814199999
 30
0.0
 11
3.087704766299999
 21
1.935924814199999
 31
0.0
  0
LINE
  5
82
330
1F
100
AcDbEntity
  8
0
  6
Continuous
 62
     7
370
    15
100
AcDbLine
 10
2.8437659999
 20
1.935924814199999
 30
0.0
 11
2.906844766299999
 21
1.935924814199999
 31
0.0
  0
SPLINE
  5
83
330
1F
100
AcDbEntity
  8
0
  6
Continuous
 62
     7
370
    15
100
AcDbSpline
210
0.0
220
0.0
230
1.0
 70
     8
 71
     3
 72
     9
 73
     5
 74
     0
 42
0.0000000001
 43
0.0000000001
 40
0.0
 40
0.0
 40
0.0
 40
0.0
 40
0.7443218420373931
 40
1.0
 40
1.0
 40
1.0
 40
1.0
 10
3.115685383097351
 20
1.685902442986679
 30
0.0
 10
3.117104536511793
 20
1.685696986333019
 30
0.0
 10
3.119011175997955
 20
1.68542095432367
 30
0.0
 10
3.120766489443759
 20
1.685219045942715
 30
0.0
 10
3.121215284752231
 20
1.685167422379796
 30
0.0
  0
SPLINE
  5
84
330
1F
100
AcDbEntity
  8
0
  6
Continuous
 62
     7
370
    15
100
AcDbSpline
210
0.0
220
0.0
230
1.0
 70
     8
 71
     3
 72
     9
 73
     5
 74
     0
 42
0.0000000001
 43
0.0000000001
 40
0.0
 40
0.0
 40
0.0
 40
0.0
 40
0.2552987554344675
 40
1.0
 40
1.0
 40
1.0
 40
1.0
 10
3.121211724521359
 20
1.294122920346971
 30
0.0
 10
3.1207638684347
 20
1.294071345171569
 30
0.0
 10
3.119009625309241
 20
1.293869326265077
 30
0.0
 10
3.117104289239673
 20
1.293592980439844
 30
0.0
 10
3.115685383097351
 20
1.293387185359864
 30
0.0
  0
SPLINE
  5
85
330
1F
100
AcDbEntity
  8
0
  6
Continuous
 62
     7
370
    15
100
AcDbSpline
210
0.0
220
0.0
230
1.0
 70
     8
 71
     3
 72
    14
 73
    10
 74
     0
 42
0.0000000001
 43
0.0000000001
 40
0.0
 40
0.0
 40
0.0
 40
0.0
 40
0.25
 40
0.25
 40
0.5
 40
0.5
 40
0.75
 40
0.75
 40
1.0
 40
1.0
 40
1.0
 40
1.0
 10
3.121935383202316
 20
1.292730462072474
 30
0.0
 10
3.121935383202316
 20
1.293321850447754
 30
0.0
 10
3.121638982974261
 20
1.29377044395517
 30
0.0
 10
3.120909569947396
 20
1.294396561527995
 30
0.0
 10
3.120478075847223
 20
1.294571746217225
 30
0.0
 10
3.119759976401638
 20
1.294645883364669
 30
0.0
 10
3.119244201025831
 20
1.29456261519894
 30
0.0
 10
3.117778797212834
 20
1.29415540538858
 30
0.0
 10
3.116824256986238
 20
1.293833552333004
 30
0.0
 10
3.115685383097351
 20
1.293387185359864
 30
0.0
  0
SPLINE
  5
86
330
1F
100
AcDbEntity
  8
0
  6
Continuous
 62
     7
370
    15
100
AcDbSpline
210
0.0
220
0.0
230
1.0
 70
     8
 71
     3
 72
     9
 73
     5
 74
     0
 42
0.0000000001
 43
0.0000000001
 40
0.0
 40
0.0
 40
0.0
 40
0.0
 40
0.2552987554336884
 40
1.0
 40
1.0
 40
1.0
 40
1.0
 10
2.810259041673345
 20
1.685166707999571
 30
0.0
 10
2.810706897760002
 20
1.685218283174973
 30
0.0
 10
2.812461140885462
 20
1.685420302081465
 30
0.0
 10
2.814366476955029
 20
1.685696647906698
 30
0.0
 10
2.815785383097351
 20
1.685902442986679
 30
0.0
  0
SPLINE
  5
87
330
1F
100
AcDbEntity
  8
0
  6
Continuous
 62
     7
370
    15
100
AcDbSpline
210
0.0
220
0.0
230
1.0
 70
     8
 71
     3
 72
    14
 73
    10
 74
     0
 42
0.0000000001
 43
0.0000000001
 40
0.0
 40
0.0
 40
0.0
 40
0.0
 40
0.25
 40
0.25
 40
0.5
 40
0.5
 40
0.75
 40
0.75
 40
1.0
 40
1.0
 40
1.0
 40
1.0
 10
2.809535382992388
 20
1.68655916627407
 30
0.0
 10
2.809535382992388
 20
1.685967777898789
 30
0.0
 10
2.809831783220443
 20
1.685519184391373
 30
0.0
 10
2.810561196247305
 20
1.684893066818548
 30
0.0
 10
2.810992690347482
 20
1.684717882129318
 30
0.0
 10
2.811710789793065
 20
1.684643744981872
 30
0.0
 10
2.812226565168872
 20
1.684727013147601
 30
0.0
 10
2.813691968981866
 20
1.685134222957963
 30
0.0
 10
2.814646509208463
 20
1.685456076013537
 30
0.0
 10
2.815785383097351
 20
1.685902442986679
 30
0.0
  0
SPLINE
  5
88
330
1F
100
AcDbEntity
  8
0
  6
Continuous
 62
     7
370
    15
100
AcDbSpline
210
0.0
220
0.0
230
1.0
 70
     8
 71
     3
 72
     9
 73
     5
 74
     0
 42
0.0000000001
 43
0.0000000001
 40
0.0
 40
0.0
 40
0.0
 40
0.0
 40
0.7443218421001499
 40
1.0
 40
1.0
 40
1.0
 40
1.0
 10
2.815785383097351
 20
1.293387185359864
 30
0.0
 10
2.814366229682645
 20
1.293592642013452
 30
0.0
 10
2.812459590196288
 20
1.293868674022682
 30
0.0
 10
2.810704276750365
 20
1.294070582403624
 30
0.0
 10
2.810255481441974
 20
1.294122205966527
 30
0.0
  0
SPLINE
  5
89
330
1F
100
AcDbEntity
  8
0
  6
Continuous
 62
     7
370
    15
100
AcDbSpline
210
0.0
220
0.0
230
1.0
 70
     8
 71
     3
 72
    14
 73
    10
 74
     0
 42
0.0000000001
 43
0.0000000001
 40
0.0
 40
0.0
 40
0.0
 40
0.0
 40
0.25
 40
0.25
 40
0.5
 40
0.5
 40
0.75
 40
0.75
 40
1.0
 40
1.0
 40
1.0
 40
1.0
 10
2.815785383097351
 20
1.293387185359864
 30
0.0
 10
2.814646459271584
 20
1.293832785903783
 30
0.0
 10
2.813691591894862
 20
1.29415425783786
 30
0.0
 10
2.812225285926542
 20
1.29456145058536
 30
0.0
 10
2.811708078140466
 20
1.294644998334903
 30
0.0
 10
2.810990602129504
 20
1.294572528869829
 30
0.0
 10
2.810560577098215
 20
1.294397886376071
 30
0.0
 10
2.809831823049331
 20
1.293771785866105
 30
0.0
 10
2.809535382992388
 20
1.293322753484606
 30
0.0
 10
2.809535382992388
 20
1.292730462072472
 30
0.0
  0
SPLINE
  5
8A
330
1F
100
AcDbEntity
  8
0
  6
Continuous
 62
     7
370
    15
100
AcDbSpline
210
0.0
220
0.0
230
1.0
 70
     8
 71
     3
 72
    14
 73
    10
 74
     0
 42
0.0000000001
 43
0.0000000001
 40
0.0
 40
0.0
 40
0.0
 40
0.0
 40
0.25
 40
0.25
 40
0.5
 40
0.5
 40
0.75
 40
0.75
 40
1.0
 40
1.0
 40
1.0
 40
1.0
 10
3.115685383097351
 20
1.685902442986679
 30
0.0
 10
3.11682430692286
 20
1.685456842442618
 30
0.0
 10
3.117779174299478
 20
1.685135370508468
 30
0.0
 10
3.119245480267843
 20
1.684728177760966
 30
0.0
 10
3.119762688054043
 20
1.684644630011495
 30
0.0
 10
3.120480164065393
 20
1.684717099476858
 30
0.0
 10
3.120910189096721
 20
1.684891741970689
 30
0.0
 10
3.121638943145508
 20
1.685517842480654
 30
0.0
 10
3.121935383202316
 20
1.685966874862084
 30
0.0
 10
3.121935383202316
 20
1.68655916627407
 30
0.0
  0
SPLINE
  5
8B
330
1F
100
AcDbEntity
  8
0
  6
Continuous
 62
     7
370
    15
100
AcDbSpline
210
0.0
220
0.0
230
1.0
 70
     8
 71
     3
 72
    10
 73
     6
 74
     0
 42
0.0000000001
 43
0.0000000001
 40
0.0
 40
0.0
 40
0.0
 40
0.0
 40
0.5
 40
0.5
 40
1.0
 40
1.0
 40
1.0
 40
1.0
 10
2.816624516350363
 20
0.9232605949413851
 30
0.0
 10
2.816685255439026
 20
0.9238063179968182
 30
0.0
 10
2.816745926033451
 20
0.9246035664570101
 30
0.0
 10
2.81686733571654
 20
0.9264929406693237
 30
0.0
 10
2.816928006310966
 20
0.9275818072448409
 30
0.0
 10
2.816988745399628
 20
0.9286732533557067
 30
0.0
  0
SPLINE
  5
8C
330
1F
100
AcDbEntity
  8
0
  6
Continuous
 62
     7
370
    15
100
AcDbSpline
210
0.0
220
0.0
230
1.0
 70
     8
 71
     3
 72
    12
 73
     8
 74
     0
 42
0.0000000001
 43
0.0000000001
 40
0.0
 40
0.0
 40
0.0
 40
0.0
 40
0.25
 40
0.25
 40
0.5
 40
0.5
 40
1.0
 40
1.0
 40
1.0
 40
1.0
 10
3.114482020795076
 20
0.9286732533557071
 30
0.0
 10
3.114433733062186
 20
0.9279368254048879
 30
0.0
 10
3.114405218492443
 20
0.9272525780284876
 30
0.0
 10
3.114387347823028
 20
0.9260409194242344
 30
0.0
 10
3.114398056366061
 20
0.9255137646093491
 30
0.0
 10
3.114489113628378
 20
0.9241771444525369
 30
0.0
 10
3.114630315664971
 20
0.9236128487091724
 30
0.0
 10
3.114846249844339
 20
0.9232605949413851
 30
0.0
  0
LINE
  5
8D
330
1F
100
AcDbEntity
  8
0
  6
Continuous
 62
     7
370
    15
100
AcDbLine
 10
3.087704766299999
 20
1.935924814199999
 30
0.0
 11
3.092754213399999
 21
1.935924814199999
 31
0.0
  0
LINE
  5
8E
330
1F
100
AcDbEntity
  8
0
  6
Continuous
 62
     7
370
    15
100
AcDbLine
 10
3.019576552799999
 20
1.935924814199999
 30
0.0
 11
3.0246259999
 21
1.935924814199999
 31
0.0
  0
LINE
  5
8F
330
1F
100
AcDbEntity
  8
0
  6
Continuous
 62
     7
370
    15
100
AcDbLine
 10
2.906844766299999
 20
1.935924814199999
 30
0.0
 11
2.911894213399999
 21
1.935924814199999
 31
0.0
  0
LINE
  5
90
330
1F
100
AcDbEntity
  8
0
  6
Continuous
 62
     7
370
    15
100
AcDbLine
 10
2.838716552799999
 20
1.935924814199999
 30
0.0
 11
2.8437659999
 21
1.935924814199999
 31
0.0
  0
LINE
  5
91
330
1F
100
AcDbEntity
  8
0
  6
Continuous
 62
     7
370
    15
100
AcDbLine
 10
2.796909645299999
 20
0.9508512740999998
 30
0.0
 11
2.4464153831
 21
1.035044814199999
 31
0.0
  0
LINE
  5
92
330
1F
100
AcDbEntity
  8
0
  6
Continuous
 62
     7
370
    15
100
AcDbLine
 10
2.4464153831
 20
1.860564814199999
 30
0.0
 11
2.4464153831
 21
1.035044814199999
 31
0.0
  0
LINE
  5
93
330
1F
100
AcDbEntity
  8
0
  6
Continuous
 62
     7
370
    15
100
AcDbLine
 10
2.4464153831
 20
1.860564814199999
 30
0.0
 11
2.681535383099999
 21
1.935924814199999
 31
0.0
  0
LINE
  5
94
330
1F
100
AcDbEntity
  8
0
  6
Continuous
 62
     7
370
    15
100
AcDbLine
 10
3.249935383099999
 20
1.935924814199999
 30
0.0
 11
3.4850553831
 21
1.860564814199999
 31
0.0
  0
LINE
  5
95
330
1F
100
AcDbEntity
  8
0
  6
Continuous
 62
     7
370
    15
100
AcDbLine
 10
3.4850553831
 20
1.035044814199999
 30
0.0
 11
3.4850553831
 21
1.860564814199999
 31
0.0
  0
LINE
  5
96
330
1F
100
AcDbEntity
  8
0
  6
Continuous
 62
     7
370
    15
100
AcDbLine
 10
3.4850553831
 20
1.035044814199999
 30
0.0
 11
3.154238061999999
 21
0.9555779459
 31
0.0
  0
LINE
  5
97
330
1F
100
AcDbEntity
  8
0
  6
Continuous
 62
     7
370
    15
100
AcDbLine
 10
2.793157488099999
 20
1.700213605099999
 30
0.0
 11
2.619125187399999
 21
1.680474436999999
 31
0.0
  0
ARC
  5
98
330
1F
100
AcDbEntity
  8
0
  6
Continuous
 62
     7
370
    15
100
AcDbCircle
 10
2.6220553831
 20
1.6546400809
 30
0.0
 40
0.0260000000000002
100
AcDbArc
 50
96.4709727261
 51
180.0
  0
LINE
  5
99
330
1F
100
AcDbEntity
  8
0
  6
Continuous
 62
     7
370
    15
100
AcDbLine
 10
2.596055383099999
 20
1.6546400809
 30
0.0
 11
2.596055383099999
 21
1.324649547399999
 31
0.0
  0
ARC
  5
9A
330
1F
100
AcDbEntity
  8
0
  6
Continuous
 62
     7
370
    15
100
AcDbCircle
 10
2.6220553831
 20
1.324649547399999
 30
0.0
 40
0.0260000000000002
100
AcDbArc
 50
180.0
 51
263.5290272739
  0
LINE
  5
9B
330
1F
100
AcDbEntity
  8
0
  6
Continuous
 62
     7
370
    15
100
AcDbLine
 10
2.619125187399999
 20
1.298815191399999
 30
0.0
 11
2.793157488099999
 21
1.2790760232
 31
0.0
  0
ARC
  5
9C
330
1F
100
AcDbEntity
  8
0
  6
Continuous
 62
     7
370
    15
100
AcDbCircle
 10
2.8095353831
 20
1.701064814199999
 30
0.0
 40
0.0163999999999999
100
AcDbArc
 50
292.4016846903
 51
182.9751590937
  0
LINE
  5
9D
330
1F
100
AcDbEntity
  8
0
  6
Continuous
 62
     7
370
    15
100
AcDbLine
 10
3.1164353831
 20
1.872384814199999
 30
0.0
 11
3.1164353831
 21
1.794384814199999
 31
0.0
  0
ARC
  5
9E
330
1F
100
AcDbEntity
  8
0
  6
Continuous
 62
     7
370
    15
100
AcDbCircle
 10
3.1344353831
 20
1.794384814199999
 30
0.0
 40
0.0180000000000002
100
AcDbArc
 50
180.0
 51
0.0
  0
LINE
  5
9F
330
1F
100
AcDbEntity
  8
0
  6
Continuous
 62
     7
370
    15
100
AcDbLine
 10
3.152435383099999
 20
1.794384814199999
 30
0.0
 11
3.152435383099999
 21
1.872384814199999
 31
0.0
  0
ARC
  5
A0
330
1F
100
AcDbEntity
  8
0
  6
Continuous
 62
     7
370
    15
100
AcDbCircle
 10
3.1344353831
 20
1.872384814199999
 30
0.0
 40
0.0180000000000002
100
AcDbArc
 50
0.0
 51
180.0
  0
ARC
  5
A1
330
1F
100
AcDbEntity
  8
0
  6
Continuous
 62
     7
370
    15
100
AcDbCircle
 10
2.797035383099999
 20
1.794384814199999
 30
0.0
 40
0.0180000000000002
100
AcDbArc
 50
180.0
 51
0.0
  0
LINE
  5
A2
330
1F
100
AcDbEntity
  8
0
  6
Continuous
 62
     7
370
    15
100
AcDbLine
 10
2.8150353831
 20
1.872384814199999
 30
0.0
 11
2.8150353831
 21
1.794384814199999
 31
0.0
  0
ARC
  5
A3
330
1F
100
AcDbEntity
  8
0
  6
Continuous
 62
     7
370
    15
100
AcDbCircle
 10
2.797035383099999
 20
1.872384814199999
 30
0.0
 40
0.0180000000000002
100
AcDbArc
 50
0.0
 51
180.0
  0
LINE
  5
A4
330
1F
100
AcDbEntity
  8
0
  6
Continuous
 62
     7
370
    15
100
AcDbLine
 10
2.7790353831
 20
1.794384814199999
 30
0.0
 11
2.7790353831
 21
1.872384814199999
 31
0.0
  0
LINE
  5
A5
330
1F
100
AcDbEntity
  8
0
  6
Continuous
 62
     7
370
    15
100
AcDbLine
 10
3.4381953831
 20
1.485504814199999
 30
0.0
 11
3.4021953831
 21
1.485504814199999
 31
0.0
  0
ARC
  5
A6
330
1F
100
AcDbEntity
  8
0
  6
Continuous
 62
     7
370
    15
100
AcDbCircle
 10
3.4021953831
 20
1.467504814199999
 30
0.0
 40
0.0180000000000002
100
AcDbArc
 50
90.0
 51
270.0
  0
LINE
  5
A7
330
1F
100
AcDbEntity
  8
0
  6
Continuous
 62
     7
370
    15
100
AcDbLine
 10
3.4021953831
 20
1.449504814199999
 30
0.0
 11
3.4381953831
 21
1.449504814199999
 31
0.0
  0
ARC
  5
A8
330
1F
100
AcDbEntity
  8
0
  6
Continuous
 62
     7
370
    15
100
AcDbCircle
 10
3.4381953831
 20
1.467504814199999
 30
0.0
 40
0.0180000000000002
100
AcDbArc
 50
270.0
 51
90.0
  0
ARC
  5
A9
330
1F
100
AcDbEntity
  8
0
  6
Continuous
 62
     7
370
    15
100
AcDbCircle
 10
2.529275383099999
 20
1.0945848142
 30
0.0
 40
0.0180000000000011
100
AcDbArc
 50
270.0
 51
90.0
  0
LINE
  5
AA
330
1F
100
AcDbEntity
  8
0
  6
Continuous
 62
     7
370
    15
100
AcDbLine
 10
2.493275383099999
 20
1.1125848142
 30
0.0
 11
2.529275383099999
 21
1.1125848142
 31
0.0
  0
ARC
  5
AB
330
1F
100
AcDbEntity
  8
0
  6
Continuous
 62
     7
370
    15
100
AcDbCircle
 10
2.493275383099999
 20
1.0945848142
 30
0.0
 40
0.018
100
AcDbArc
 50
90.0
 51
270.0
  0
LINE
  5
AC
330
1F
100
AcDbEntity
  8
0
  6
Continuous
 62
     7
370
    15
100
AcDbLine
 10
2.529275383099999
 20
1.0765848142
 30
0.0
 11
2.493275383099999
 21
1.0765848142
 31
0.0
  0
ARC
  5
AD
330
1F
100
AcDbEntity
  8
0
  6
Continuous
 62
     7
370
    15
100
AcDbCircle
 10
2.529275383099999
 20
1.467504814199999
 30
0.0
 40
0.0179999999999982
100
AcDbArc
 50
270.0
 51
90.0
  0
LINE
  5
AE
330
1F
100
AcDbEntity
  8
0
  6
Continuous
 62
     7
370
    15
100
AcDbLine
 10
2.493275383099999
 20
1.485504814199999
 30
0.0
 11
2.529275383099999
 21
1.485504814199999
 31
0.0
  0
ARC
  5
AF
330
1F
100
AcDbEntity
  8
0
  6
Continuous
 62
     7
370
    15
100
AcDbCircle
 10
2.493275383099999
 20
1.467504814199999
 30
0.0
 40
0.0180000000000002
100
AcDbArc
 50
90.0
 51
270.0
  0
LINE
  5
B0
330
1F
100
AcDbEntity
  8
0
  6
Continuous
 62
     7
370
    15
100
AcDbLine
 10
2.529275383099999
 20
1.449504814199999
 30
0.0
 11
2.493275383099999
 21
1.449504814199999
 31
0.0
  0
ARC
  5
B1
330
1F
100
AcDbEntity
  8
0
  6
Continuous
 62
     7
370
    15
100
AcDbCircle
 10
2.529275383099999
 20
1.840444814199999
 30
0.0
 40
0.018
100
AcDbArc
 50
270.0
 51
90.0
  0
LINE
  5
B2
330
1F
100
AcDbEntity
  8
0
  6
Continuous
 62
     7
370
    15
100
AcDbLine
 10
2.493275383099999
 20
1.858444814199999
 30
0.0
 11
2.529275383099999
 21
1.858444814199999
 31
0.0
  0
ARC
  5
B3
330
1F
100
AcDbEntity
  8
0
  6
Continuous
 62
     7
370
    15
100
AcDbCircle
 10
2.493275383099999
 20
1.840444814199999
 30
0.0
 40
0.018
100
AcDbArc
 50
90.0
 51
270.0
  0
LINE
  5
B4
330
1F
100
AcDbEntity
  8
0
  6
Continuous
 62
     7
370
    15
100
AcDbLine
 10
2.529275383099999
 20
1.822444814199999
 30
0.0
 11
2.493275383099999
 21
1.822444814199999
 31
0.0
  0
LINE
  5
B5
330
1F
100
AcDbEntity
  8
0
  6
Continuous
 62
     7
370
    15
100
AcDbLine
 10
3.4381953831
 20
1.858444814199999
 30
0.0
 11
3.4021953831
 21
1.858444814199999
 31
0.0
  0
ARC
  5
B6
330
1F
100
AcDbEntity
  8
0
  6
Continuous
 62
     7
370
    15
100
AcDbCircle
 10
3.4021953831
 20
1.840444814199999
 30
0.0
 40
0.018
100
AcDbArc
 50
90.0
 51
270.0
  0
LINE
  5
B7
330
1F
100
AcDbEntity
  8
0
  6
Continuous
 62
     7
370
    15
100
AcDbLine
 10
3.4021953831
 20
1.822444814199999
 30
0.0
 11
3.4381953831
 21
1.822444814199999
 31
0.0
  0
ARC
  5
B8
330
1F
100
AcDbEntity
  8
0
  6
Continuous
 62
     7
370
    15
100
AcDbCircle
 10
3.4381953831
 20
1.840444814199999
 30
0.0
 40
0.018
100
AcDbArc
 50
270.0
 51
90.0
  0
LINE
  5
B9
330
1F
100
AcDbEntity
  8
0
  6
Continuous
 62
     7
370
    15
100
AcDbLine
 10
3.4381953831
 20
1.1125848142
 30
0.0
 11
3.4021953831
 21
1.1125848142
 31
0.0
  0
ARC
  5
BA
330
1F
100
AcDbEntity
  8
0
  6
Continuous
 62
     7
370
    15
100
AcDbCircle
 10
3.4021953831
 20
1.0945848142
 30
0.0
 40
0.0180000000000011
100
AcDbArc
 50
90.0
 51
270.0
  0
LINE
  5
BB
330
1F
100
AcDbEntity
  8
0
  6
Continuous
 62
     7
370
    15
100
AcDbLine
 10
3.4021953831
 20
1.0765848142
 30
0.0
 11
3.4381953831
 21
1.0765848142
 31
0.0
  0
ARC
  5
BC
330
1F
100
AcDbEntity
  8
0
  6
Continuous
 62
     7
370
    15
100
AcDbCircle
 10
3.4381953831
 20
1.0945848142
 30
0.0
 40
0.0180000000000011
100
AcDbArc
 50
270.0
 51
90.0
  0
ARC
  5
BD
330
1F
100
AcDbEntity
  8
0
  6
Continuous
 62
     7
370
    15
100
AcDbCircle
 10
2.797035383099999
 20
1.1670848142
 30
0.0
 40
0.0180000000000002
100
AcDbArc
 50
0.0
 51
180.0
  0
LINE
  5
BE
330
1F
100
AcDbEntity
  8
0
  6
Continuous
 62
     7
370
    15
100
AcDbLine
 10
2.7790353831
 20
1.053084814199999
 30
0.0
 11
2.7790353831
 21
1.1670848142
 31
0.0
  0
ARC
  5
BF
330
1F
100
AcDbEntity
  8
0
  6
Continuous
 62
     7
370
    15
100
AcDbCircle
 10
2.797035383099999
 20
1.053084814199999
 30
0.0
 40
0.018
100
AcDbArc
 50
180.0
 51
276.6997651778
  0
ARC
  5
C0
330
1F
100
AcDbEntity
  8
0
  6
Continuous
 62
     7
370
    15
100
AcDbCircle
 10
2.797035383099999
 20
1.053084814199999
 30
0.0
 40
0.0180000000000002
100
AcDbArc
 50
313.9829631304
 51
0.0
  0
LINE
  5
C1
330
1F
100
AcDbEntity
  8
0
  6
Continuous
 62
     7
370
    15
100
AcDbLine
 10
2.8150353831
 20
1.1670848142
 30
0.0
 11
2.8150353831
 21
1.053084814199999
 31
0.0
  0
LINE
  5
C2
330
1F
100
AcDbEntity
  8
0
  6
Continuous
 62
     7
370
    15
100
AcDbLine
 10
3.152435383099999
 20
1.053084814199999
 30
0.0
 11
3.152435383099999
 21
1.1670848142
 31
0.0
  0
ARC
  5
C3
330
1F
100
AcDbEntity
  8
0
  6
Continuous
 62
     7
370
    15
100
AcDbCircle
 10
3.1344353831
 20
1.1670848142
 30
0.0
 40
0.0180000000000002
100
AcDbArc
 50
0.0
 51
180.0
  0
LINE
  5
C4
330
1F
100
AcDbEntity
  8
0
  6
Continuous
 62
     7
370
    15
100
AcDbLine
 10
3.1164353831
 20
1.1670848142
 30
0.0
 11
3.1164353831
 21
1.053084814199999
 31
0.0
  0
ARC
  5
C5
330
1F
100
AcDbEntity
  8
0
  6
Continuous
 62
     7
370
    15
100
AcDbCircle
 10
3.1344353831
 20
1.053084814199999
 30
0.0
 40
0.0180000000000002
100
AcDbArc
 50
263.3002348222
 51
0.0
  0
ARC
  5
C6
330
1F
100
AcDbEntity
  8
0
  6
Continuous
 62
     7
370
    15
100
AcDbCircle
 10
3.1344353831
 20
1.053084814199999
 30
0.0
 40
0.0179999999999999
100
AcDbArc
 50
180.0
 51
226.0170368696
  0
LINE
  5
C7
330
1F
100
AcDbEntity
  8
0
  6
Continuous
 62
     7
370
    15
100
AcDbLine
 10
3.1383132781
 20
1.2790760232
 30
0.0
 11
3.3123455788
 21
1.298815191399999
 31
0.0
  0
ARC
  5
C8
330
1F
100
AcDbEntity
  8
0
  6
Continuous
 62
     7
370
    15
100
AcDbCircle
 10
3.3094153831
 20
1.324649547399999
 30
0.0
 40
0.026
100
AcDbArc
 50
276.4709727261
 51
0.0
  0
LINE
  5
C9
330
1F
100
AcDbEntity
  8
0
  6
Continuous
 62
     7
370
    15
100
AcDbLine
 10
3.335415383099999
 20
1.324649547399999
 30
0.0
 11
3.335415383099999
 21
1.6546400809
 31
0.0
  0
ARC
  5
CA
330
1F
100
AcDbEntity
  8
0
  6
Continuous
 62
     7
370
    15
100
AcDbCircle
 10
3.3094153831
 20
1.6546400809
 30
0.0
 40
0.0260000000000002
100
AcDbArc
 50
0.0
 51
83.5290272739
  0
LINE
  5
CB
330
1F
100
AcDbEntity
  8
0
  6
Continuous
 62
     7
370
    15
100
AcDbLine
 10
3.3123455788
 20
1.680474436999999
 30
0.0
 11
3.1383132781
 21
1.700213605099999
 31
0.0
  0
ARC
  5
CC
330
1F
100
AcDbEntity
  8
0
  6
Continuous
 62
     7
370
    15
100
AcDbCircle
 10
2.8095353831
 20
1.2782248142
 30
0.0
 40
0.0164000000000003
100
AcDbArc
 50
177.0248409063
 51
67.5983153097
  0
ARC
  5
CD
330
1F
100
AcDbEntity
  8
0
  6
Continuous
 62
     7
370
    15
100
AcDbCircle
 10
3.1407553831
 20
0.9250648141999999
 30
0.0
 40
0.02652
100
AcDbArc
 50
135.2066969478
 51
172.1798018917
  0
ARC
  5
CE
330
1F
100
AcDbEntity
  8
0
  6
Continuous
 62
     7
370
    15
100
AcDbCircle
 10
3.121935383099999
 20
1.2782248142
 30
0.0
 40
0.0164000000000008
100
AcDbArc
 50
112.4016846903
 51
2.975159093699999
  0
ARC
  5
CF
330
1F
100
AcDbEntity
  8
0
  6
Continuous
 62
     7
370
    15
100
AcDbCircle
 10
2.7907153831
 20
0.9250648141999999
 30
0.0
 40
0.0265200000000002
100
AcDbArc
 50
7.820198108300001
 51
44.7933030522
  0
LINE
  5
D0
330
1F
100
AcDbEntity
  8
0
  6
Continuous
 62
     7
370
    15
100
AcDbLine
 10
2.798314637999999
 20
0.9504727209
 30
0.0
 11
2.796909645299999
 21
0.9508512740999998
 31
0.0
  0
ARC
  5
D1
330
1F
100
AcDbEntity
  8
0
  6
Continuous
 62
     7
370
    15
100
AcDbCircle
 10
3.121935383099999
 20
1.701064814199999
 30
0.0
 40
0.0163999999999999
100
AcDbArc
 50
357.0248409063
 51
247.5983153097
  0
LINE
  5
D2
330
1F
100
AcDbEntity
  8
0
  6
Continuous
 62
     7
370
    15
100
AcDbLine
 10
3.249935383099999
 20
1.935924814199999
 30
0.0
 11
3.092754213399999
 21
1.935924814199999
 31
0.0
  0
LINE
  5
D3
330
1F
100
AcDbEntity
  8
0
  6
Continuous
 62
     7
370
    15
100
AcDbLine
 10
3.019576552799999
 20
1.935924814199999
 30
0.0
 11
2.911894213399999
 21
1.935924814199999
 31
0.0
  0
LINE
  5
D4
330
1F
100
AcDbEntity
  8
0
  6
Continuous
 62
     7
370
    15
100
AcDbLine
 10
2.838716552799999
 20
1.935924814199999
 30
0.0
 11
2.681535383099999
 21
1.935924814199999
 31
0.0
  0
ARC
  5
D5
330
1F
100
AcDbEntity
  8
0
  6
Continuous
 62
     7
370
    15
100
AcDbCircle
 10
3.1353353831
 20
3.3357460497
 30
0.0
 40
0.0029999999999996
100
AcDbArc
 50
180.0
 51
249.5763846362
  0
ARC
  5
D6
330
1F
100
AcDbEntity
  8
0
  6
Continuous
 62
     7
370
    15
100
AcDbCircle
 10
3.1353353831
 20
3.263773832799999
 30
0.0
 40
0.0029999999999996
100
AcDbArc
 50
110.4236153638
 51
180.0
  0
ARC
  5
D7
330
1F
100
AcDbEntity
  8
0
  6
Continuous
 62
     7
370
    15
100
AcDbCircle
 10
3.121935383099999
 20
3.2997599413
 30
0.0
 40
0.0354000000000002
100
AcDbArc
 50
290.4236153638
 51
69.5763846362
  0
ARC
  5
D8
330
1F
100
AcDbEntity
  8
0
  6
Continuous
 62
     7
370
    15
100
AcDbCircle
 10
2.7961353831
 20
3.220915575299999
 30
0.0
 40
0.0030000000000005
100
AcDbArc
 50
0.0
 51
69.5763846362
  0
ARC
  5
D9
330
1F
100
AcDbEntity
  8
0
  6
Continuous
 62
     7
370
    15
100
AcDbCircle
 10
2.7961353831
 20
3.2928877922
 30
0.0
 40
0.0030000000000005
100
AcDbArc
 50
290.4236153638
 51
0.0
  0
ARC
  5
DA
330
1F
100
AcDbEntity
  8
0
  6
Continuous
 62
     7
370
    15
100
AcDbCircle
 10
2.8095353831
 20
3.256901683799999
 30
0.0
 40
0.0354000000000001
100
AcDbArc
 50
110.4236153638
 51
249.5763846362
  0
LINE
  5
DB
330
1F
100
AcDbEntity
  8
0
  6
Continuous
 62
     7
370
    15
100
AcDbLine
 10
2.4464153831
 20
3.8242495012
 30
0.0
 11
2.681535383099999
 21
3.8242495012
 31
0.0
  0
LINE
  5
DC
330
1F
100
AcDbEntity
  8
0
  6
Continuous
 62
     7
370
    15
100
AcDbLine
 10
2.681535383099999
 20
3.813849501199999
 30
0.0
 11
2.681535383099999
 21
3.8242495012
 31
0.0
  0
LINE
  5
DD
330
1F
100
AcDbEntity
  8
0
  6
Continuous
 62
     7
370
    15
100
AcDbLine
 10
2.4464153831
 20
3.813849501199999
 30
0.0
 11
2.681535383099999
 21
3.813849501199999
 31
0.0
  0
LINE
  5
DE
330
1F
100
AcDbEntity
  8
0
  6
Continuous
 62
     7
370
    15
100
AcDbLine
 10
2.4464153831
 20
3.813849501199999
 30
0.0
 11
2.4464153831
 21
3.8242495012
 31
0.0
  0
LINE
  5
DF
330
1F
100
AcDbEntity
  8
0
  6
Continuous
 62
     7
370
    15
100
AcDbLine
 10
3.249935383099999
 20
3.813849501199999
 30
0.0
 11
3.249935383099999
 21
3.8242495012
 31
0.0
  0
ARC
  5
E0
330
1F
100
AcDbEntity
  8
0
  6
Continuous
 62
     7
370
    15
100
AcDbCircle
 10
3.092754213399999
 20
3.8042495012
 30
0.0
 40
0.0096000000000005
100
AcDbArc
 50
90.0
 51
121.7345141822
  0
LINE
  5
E1
330
1F
100
AcDbEntity
  8
0
  6
Continuous
 62
     7
370
    15
100
AcDbLine
 10
2.838716552799999
 20
3.8242495012
 30
0.0
 11
2.681535383099999
 21
3.8242495012
 31
0.0
  0
ARC
  5
E2
330
1F
100
AcDbEntity
  8
0
  6
Continuous
 62
     7
370
    15
100
AcDbCircle
 10
2.838716552799999
 20
3.8042495012
 30
0.0
 40
0.0199999999999999
100
AcDbArc
 50
58.26548581779999
 51
90.0
  0
ARC
  5
E3
330
1F
100
AcDbEntity
  8
0
  6
Continuous
 62
     7
370
    15
100
AcDbCircle
 10
2.911894213399999
 20
3.8042495012
 30
0.0
 40
0.0200000000000002
100
AcDbArc
 50
90.0
 51
121.7345141822
  0
LINE
  5
E4
330
1F
100
AcDbEntity
  8
0
  6
Continuous
 62
     7
370
    15
100
AcDbLine
 10
3.019576552799999
 20
3.8242495012
 30
0.0
 11
2.911894213399999
 21
3.8242495012
 31
0.0
  0
ARC
  5
E5
330
1F
100
AcDbEntity
  8
0
  6
Continuous
 62
     7
370
    15
100
AcDbCircle
 10
3.019576552799999
 20
3.8042495012
 30
0.0
 40
0.0200000000000002
100
AcDbArc
 50
58.26548581779999
 51
90.0
  0
ARC
  5
E6
330
1F
100
AcDbEntity
  8
0
  6
Continuous
 62
     7
370
    15
100
AcDbCircle
 10
3.092754213399999
 20
3.8042495012
 30
0.0
 40
0.0200000000000004
100
AcDbArc
 50
90.0
 51
121.7345141822
  0
LINE
  5
E7
330
1F
100
AcDbEntity
  8
0
  6
Continuous
 62
     7
370
    15
100
AcDbLine
 10
3.249935383099999
 20
3.8242495012
 30
0.0
 11
3.092754213399999
 21
3.8242495012
 31
0.0
  0
ARC
  5
E8
330
1F
100
AcDbEntity
  8
0
  6
Continuous
 62
     7
370
    15
100
AcDbCircle
 10
3.019576552799999
 20
3.8042495012
 30
0.0
 40
0.0096000000000005
100
AcDbArc
 50
58.26548581779999
 51
90.0
  0
ARC
  5
E9
330
1F
100
AcDbEntity
  8
0
  6
Continuous
 62
     7
370
    15
100
AcDbCircle
 10
2.911894213399999
 20
3.8042495012
 30
0.0
 40
0.0096000000000003
100
AcDbArc
 50
90.0
 51
121.7345141822
  0
LINE
  5
EA
330
1F
100
AcDbEntity
  8
0
  6
Continuous
 62
     7
370
    15
100
AcDbLine
 10
2.838716552799999
 20
3.813849501199999
 30
0.0
 11
2.681535383099999
 21
3.813849501199999
 31
0.0
  0
LINE
  5
EB
330
1F
100
AcDbEntity
  8
0
  6
Continuous
 62
     7
370
    15
100
AcDbLine
 10
3.019576552799999
 20
3.813849501199999
 30
0.0
 11
2.911894213399999
 21
3.813849501199999
 31
0.0
  0
LINE
  5
EC
330
1F
100
AcDbEntity
  8
0
  6
Continuous
 62
     7
370
    15
100
AcDbLine
 10
3.249935383099999
 20
3.813849501199999
 30
0.0
 11
3.092754213399999
 21
3.813849501199999
 31
0.0
  0
ARC
  5
ED
330
1F
100
AcDbEntity
  8
0
  6
Continuous
 62
     7
370
    15
100
AcDbCircle
 10
2.838716552799999
 20
3.8042495012
 30
0.0
 40
0.0096000000000003
100
AcDbArc
 50
58.26548581779999
 51
90.0
  0
ARC
  5
EE
330
1F
100
AcDbEntity
  8
0
  6
Continuous
 62
     7
370
    15
100
AcDbCircle
 10
3.0561653831
 20
3.8634121213
 30
0.0
 40
0.0495626201923078
100
AcDbArc
 50
238.2654858178
 51
301.7345141822
  0
ARC
  5
EF
330
1F
100
AcDbEntity
  8
0
  6
Continuous
 62
     7
370
    15
100
AcDbCircle
 10
2.8753053831
 20
3.8634121213
 30
0.0
 40
0.049562620192308
100
AcDbArc
 50
238.2654858178
 51
301.7345141822
  0
ARC
  5
F0
330
1F
100
AcDbEntity
  8
0
  6
Continuous
 62
     7
370
    15
100
AcDbCircle
 10
2.8753053831
 20
3.8634121213
 30
0.0
 40
0.0599626201923077
100
AcDbArc
 50
238.2654858178
 51
301.7345141822
  0
ARC
  5
F1
330
1F
100
AcDbEntity
  8
0
  6
Continuous
 62
     7
370
    15
100
AcDbCircle
 10
3.0561653831
 20
3.8634121213
 30
0.0
 40
0.0599626201923077
100
AcDbArc
 50
238.2654858178
 51
301.7345141822
  0
LINE
  5
F2
330
1F
100
AcDbEntity
  8
0
  6
Continuous
 62
     7
370
    15
100
AcDbLine
 10
3.249935383099999
 20
3.8242495012
 30
0.0
 11
3.4850553831
 21
3.8242495012
 31
0.0
  0
LINE
  5
F3
330
1F
100
AcDbEntity
  8
0
  6
Continuous
 62
     7
370
    15
100
AcDbLine
 10
3.4850553831
 20
3.813849501199999
 30
0.0
 11
3.4850553831
 21
3.8242495012
 31
0.0
  0
LINE
  5
F4
330
1F
100
AcDbEntity
  8
0
  6
Continuous
 62
     7
370
    15
100
AcDbLine
 10
3.249935383099999
 20
3.813849501199999
 30
0.0
 11
3.4850553831
 21
3.813849501199999
 31
0.0
  0
LINE
  5
F5
330
1F
100
AcDbEntity
  8
0
  6
Continuous
 62
     7
370
    15
100
AcDbLine
 10
2.8095353831
 20
3.7989555317
 30
0.0
 11
2.8095353831
 21
3.807599501199999
 31
0.0
  0
LINE
  5
F6
330
1F
100
AcDbEntity
  8
0
  6
Continuous
 62
     7
370
    15
100
AcDbLine
 10
2.799135383099999
 20
3.7989555317
 30
0.0
 11
2.8095353831
 21
3.7989555317
 31
0.0
  0
LINE
  5
F7
330
1F
100
AcDbEntity
  8
0
  6
Continuous
 62
     7
370
    15
100
AcDbLine
 10
2.799135383099999
 20
3.7989555317
 30
0.0
 11
2.799135383099999
 21
3.807599501199999
 31
0.0
  0
SPLINE
  5
F8
330
1F
100
AcDbEntity
  8
0
  6
Continuous
 62
     7
370
    15
100
AcDbSpline
210
0.0
220
0.0
230
1.0
 70
    24
 71
     3
 72
     8
 73
     4
 74
     0
 42
0.0000000001
 43
0.0000000001
 40
0.0
 40
0.0
 40
0.0
 40
0.0
 40
1.0
 40
1.0
 40
1.0
 40
1.0
 10
2.799135382992388
 20
3.807599501151983
 30
0.0
 10
2.802602049659055
 20
3.807599501151983
 30
0.0
 10
2.80606871632572
 20
3.807599501151983
 30
0.0
 10
2.809535382992388
 20
3.807599501151983
 30
0.0
  0
LINE
  5
F9
330
1F
100
AcDbEntity
  8
0
  6
Continuous
 62
     7
370
    15
100
AcDbLine
 10
3.1323353831
 20
3.7989555317
 30
0.0
 11
3.121935383099999
 21
3.7989555317
 31
0.0
  0
LINE
  5
FA
330
1F
100
AcDbEntity
  8
0
  6
Continuous
 62
     7
370
    15
100
AcDbLine
 10
3.121935383099999
 20
3.807599501199999
 30
0.0
 11
3.121935383099999
 21
3.7989555317
 31
0.0
  0
SPLINE
  5
FB
330
1F
100
AcDbEntity
  8
0
  6
Continuous
 62
     7
370
    15
100
AcDbSpline
210
0.0
220
0.0
230
1.0
 70
    24
 71
     3
 72
     8
 73
     4
 74
     0
 42
0.0000000001
 43
0.0000000001
 40
0.0
 40
0.0
 40
0.0
 40
0.0
 40
1.0
 40
1.0
 40
1.0
 40
1.0
 10
3.132335383097351
 20
3.807599501151983
 30
0.0
 10
3.128868716430684
 20
3.807599501151983
 30
0.0
 10
3.125402049764018
 20
3.807599501151983
 30
0.0
 10
3.121935383097351
 20
3.807599501151983
 30
0.0
  0
LINE
  5
FC
330
1F
100
AcDbEntity
  8
0
  6
Continuous
 62
     7
370
    15
100
AcDbLine
 10
3.1323353831
 20
3.807599501199999
 30
0.0
 11
3.1323353831
 21
3.7989555317
 31
0.0
  0
LINE
  5
FD
330
1F
100
AcDbEntity
  8
0
  6
Continuous
 62
     7
370
    15
100
AcDbLine
 10
3.121935383099999
 20
3.7989555317
 30
0.0
 11
3.121935383099999
 21
3.624953552799999
 31
0.0
  0
LINE
  5
FE
330
1F
100
AcDbEntity
  8
0
  6
Continuous
 62
     7
370
    15
100
AcDbLine
 10
3.1323353831
 20
3.7989555317
 30
0.0
 11
3.1323353831
 21
3.624953552799999
 31
0.0
  0
LINE
  5
FF
330
1F
100
AcDbEntity
  8
0
  6
Continuous
 62
     7
370
    15
100
AcDbLine
 10
2.8095353831
 20
3.624953552799999
 30
0.0
 11
2.8095353831
 21
3.7989555317
 31
0.0
  0
LINE
  5
100
330
1F
100
AcDbEntity
  8
0
  6
Continuous
 62
     7
370
    15
100
AcDbLine
 10
2.799135383099999
 20
3.624953552799999
 30
0.0
 11
2.799135383099999
 21
3.7989555317
 31
0.0
  0
SPLINE
  5
101
330
1F
100
AcDbEntity
  8
0
  6
Continuous
 62
     7
370
    15
100
AcDbSpline
210
0.0
220
0.0
230
1.0
 70
     8
 71
     3
 72
     9
 73
     5
 74
     0
 42
0.0000000001
 43
0.0000000001
 40
0.0
 40
0.0
 40
0.0
 40
0.0
 40
0.6479060982411853
 40
1.0
 40
1.0
 40
1.0
 40
1.0
 10
2.799135382992388
 20
3.807599501151983
 30
0.0
 10
2.79920672033901
 20
3.808997182563685
 30
0.0
 10
2.799316824792136
 20
3.811154410926709
 30
0.0
 10
2.800153160110118
 20
3.81314768241604
 30
0.0
 10
2.800447628675406
 20
3.813849501151983
 30
0.0
  0
SPLINE
  5
102
330
1F
100
AcDbEntity
  8
0
  6
Continuous
 62
     7
370
    15
100
AcDbSpline
210
0.0
220
0.0
230
1.0
 70
     8
 71
     3
 72
    14
 73
    10
 74
     0
 42
0.0000000001
 43
0.0000000001
 40
0.0
 40
0.0
 40
0.0
 40
0.0
 40
0.25
 40
0.25
 40
0.5
 40
0.5
 40
0.75
 40
0.75
 40
1.0
 40
1.0
 40
1.0
 40
1.0
 10
2.809535382992388
 20
3.807599501151983
 30
0.0
 10
2.809535382992388
 20
3.808723101765572
 30
0.0
 10
2.809831783220443
 20
3.809668556807201
 30
0.0
 10
2.810561196247305
 20
3.811125719318027
 30
0.0
 10
2.810992690347482
 20
3.811643274668723
 30
0.0
 10
2.811710789793065
 20
3.812366019530633
 30
0.0
 10
2.812226565168872
 20
3.812802591402091
 30
0.0
 10
2.813691968981866
 20
3.81354550405645
 30
0.0
 10
2.814646509208463
 20
3.813849501256948
 30
0.0
 10
2.815785383097351
 20
3.813849501256948
 30
0.0
  0
SPLINE
  5
103
330
1F
100
AcDbEntity
  8
0
  6
Continuous
 62
     7
370
    15
100
AcDbSpline
210
0.0
220
0.0
230
1.0
 70
     8
 71
     3
 72
    14
 73
    10
 74
     0
 42
0.0000000001
 43
0.0000000001
 40
0.0
 40
0.0
 40
0.0
 40
0.0
 40
0.25
 40
0.25
 40
0.5
 40
0.5
 40
0.75
 40
0.75
 40
1.0
 40
1.0
 40
1.0
 40
1.0
 10
3.115685383097351
 20
3.813849501256948
 30
0.0
 10
3.11682430692286
 20
3.813849501256948
 30
0.0
 10
3.117779174299478
 20
3.813545449736094
 30
0.0
 10
3.119245480267843
 20
3.812801805862365
 30
0.0
 10
3.119762688054043
 20
3.812363682763338
 30
0.0
 10
3.120480164065393
 20
3.811640777881476
 30
0.0
 10
3.120910189096721
 20
3.811124670704463
 30
0.0
 10
3.121638943145508
 20
3.809668447951145
 30
0.0
 10
3.121935383202316
 20
3.808723242134254
 30
0.0
 10
3.121935383202316
 20
3.807599501151983
 30
0.0
  0
SPLINE
  5
104
330
1F
100
AcDbEntity
  8
0
  6
Continuous
 62
     7
370
    15
100
AcDbSpline
210
0.0
220
0.0
230
1.0
 70
     8
 71
     3
 72
     9
 73
     5
 74
     0
 42
0.0000000001
 43
0.0000000001
 40
0.0
 40
0.0
 40
0.0
 40
0.0
 40
0.3521097829683973
 40
1.0
 40
1.0
 40
1.0
 40
1.0
 10
3.131023256377721
 20
3.813849501151983
 30
0.0
 10
3.131317695232176
 20
3.813147626627491
 30
0.0
 10
3.132153908449462
 20
3.811154286599916
 30
0.0
 10
3.132264033960845
 20
3.808997112893079
 30
0.0
 10
3.132335383202315
 20
3.807599501151983
 30
0.0
  0
LINE
  5
105
330
1F
100
AcDbEntity
  8
0
  6
Continuous
 62
     7
370
    15
100
AcDbLine
 10
3.1323353831
 20
3.6027710486
 30
0.0
 11
3.121935383099999
 21
3.6027710486
 31
0.0
  0
LINE
  5
106
330
1F
100
AcDbEntity
  8
0
  6
Continuous
 62
     7
370
    15
100
AcDbLine
 10
3.121935383099999
 20
3.624953552799999
 30
0.0
 11
3.121935383099999
 21
3.6027710486
 31
0.0
  0
LINE
  5
107
330
1F
100
AcDbEntity
  8
0
  6
Continuous
 62
     7
370
    15
100
AcDbLine
 10
3.1323353831
 20
3.624953552799999
 30
0.0
 11
3.1323353831
 21
3.6027710486
 31
0.0
  0
LINE
  5
108
330
1F
100
AcDbEntity
  8
0
  6
Continuous
 62
     7
370
    15
100
AcDbLine
 10
2.799135383099999
 20
3.6027710486
 30
0.0
 11
2.8095353831
 21
3.6027710486
 31
0.0
  0
LINE
  5
109
330
1F
100
AcDbEntity
  8
0
  6
Continuous
 62
     7
370
    15
100
AcDbLine
 10
2.8095353831
 20
3.6027710486
 30
0.0
 11
2.8095353831
 21
3.624953552799999
 31
0.0
  0
LINE
  5
10A
330
1F
100
AcDbEntity
  8
0
  6
Continuous
 62
     7
370
    15
100
AcDbLine
 10
2.799135383099999
 20
3.6027710486
 30
0.0
 11
2.799135383099999
 21
3.624953552799999
 31
0.0
  0
LINE
  5
10B
330
1F
100
AcDbEntity
  8
0
  6
Continuous
 62
     7
370
    15
100
AcDbLine
 10
2.8095353831
 20
3.3061096963
 30
0.0
 11
2.799135383099999
 21
3.3061096963
 31
0.0
  0
LINE
  5
10C
330
1F
100
AcDbEntity
  8
0
  6
Continuous
 62
     7
370
    15
100
AcDbLine
 10
2.799135383099999
 20
3.3061096963
 30
0.0
 11
2.799135383099999
 21
3.6027710486
 31
0.0
  0
LINE
  5
10D
330
1F
100
AcDbEntity
  8
0
  6
Continuous
 62
     7
370
    15
100
AcDbLine
 10
2.8095353831
 20
3.3061096963
 30
0.0
 11
2.8095353831
 21
3.6027710486
 31
0.0
  0
LINE
  5
10E
330
1F
100
AcDbEntity
  8
0
  6
Continuous
 62
     7
370
    15
100
AcDbLine
 10
3.1323353831
 20
3.6027710486
 30
0.0
 11
3.1323353831
 21
3.3061096963
 31
0.0
  0
LINE
  5
10F
330
1F
100
AcDbEntity
  8
0
  6
Continuous
 62
     7
370
    15
100
AcDbLine
 10
3.121935383099999
 20
3.3061096963
 30
0.0
 11
3.1323353831
 21
3.3061096963
 31
0.0
  0
LINE
  5
110
330
1F
100
AcDbEntity
  8
0
  6
Continuous
 62
     7
370
    15
100
AcDbLine
 10
3.121935383099999
 20
3.6027710486
 30
0.0
 11
3.121935383099999
 21
3.3061096963
 31
0.0
  0
LINE
  5
111
330
1F
100
AcDbEntity
  8
0
  6
Continuous
 62
     7
370
    15
100
AcDbLine
 10
2.799135383099999
 20
3.124556130699999
 30
0.0
 11
2.8095353831
 21
3.124556130699999
 31
0.0
  0
LINE
  5
112
330
1F
100
AcDbEntity
  8
0
  6
Continuous
 62
     7
370
    15
100
AcDbLine
 10
2.799135383099999
 20
3.3061096963
 30
0.0
 11
2.799135383099999
 21
3.124556130699999
 31
0.0
  0
LINE
  5
113
330
1F
100
AcDbEntity
  8
0
  6
Continuous
 62
     7
370
    15
100
AcDbLine
 10
2.8095353831
 20
3.3061096963
 30
0.0
 11
2.8095353831
 21
3.124556130699999
 31
0.0
  0
LINE
  5
114
330
1F
100
AcDbEntity
  8
0
  6
Continuous
 62
     7
370
    15
100
AcDbLine
 10
3.1323353831
 20
3.124556130699999
 30
0.0
 11
3.121935383099999
 21
3.124556130699999
 31
0.0
  0
LINE
  5
115
330
1F
100
AcDbEntity
  8
0
  6
Continuous
 62
     7
370
    15
100
AcDbLine
 10
3.1323353831
 20
3.124556130699999
 30
0.0
 11
3.1323353831
 21
3.3061096963
 31
0.0
  0
LINE
  5
116
330
1F
100
AcDbEntity
  8
0
  6
Continuous
 62
     7
370
    15
100
AcDbLine
 10
3.121935383099999
 20
3.124556130699999
 30
0.0
 11
3.121935383099999
 21
3.3061096963
 31
0.0
  0
LINE
  5
117
330
1F
100
AcDbEntity
  8
0
  6
Continuous
 62
     7
370
    15
100
AcDbLine
 10
2.838716552799999
 20
3.8242495012
 30
0.0
 11
2.911894213399999
 21
3.8242495012
 31
0.0
  0
LINE
  5
118
330
1F
100
AcDbEntity
  8
0
  6
Continuous
 62
     7
370
    15
100
AcDbLine
 10
3.019576552799999
 20
3.8242495012
 30
0.0
 11
3.092754213399999
 21
3.8242495012
 31
0.0
  0
LWPOLYLINE
  5
119
330
1F
100
AcDbEntity
  8
0
  6
Continuous
 62
     7
370
    15
100
AcDbPolyline
 90
       19
 70
   128
 43
0.0
 10
3.1553877887
 20
3.2894685029
 10
3.1562180054
 20
3.2944955485
 10
3.155838518799999
 20
3.298916258199999
 10
3.154295100699999
 20
3.3021974292
 10
3.15177391
 20
3.3039433038
 10
3.1485790397
 20
3.3039433038
 10
3.145095838
 20
3.3021974292
 10
3.141744430699999
 20
3.298916258199999
 10
3.138929046899999
 20
3.2944955485
 10
3.136989263399999
 20
3.2894685029
 10
3.1361590468
 20
3.2844414574
 10
3.136538533399999
 20
3.280020747699999
 10
3.138081951499999
 20
3.2767395767
 10
3.140603142099999
 20
3.274993702099999
 10
3.1437980125
 20
3.274993702099999
 10
3.1472812141
 20
3.2767395767
 10
3.150632621399999
 20
3.280020747699999
 10
3.1534480052
 20
3.2844414574
 10
3.1553877887
 20
3.2894685029
  0
LWPOLYLINE
  5
11A
330
1F
100
AcDbEntity
  8
0
  6
Continuous
 62
     7
370
    15
100
AcDbPolyline
 90
        8
 70
   128
 43
0.0
 10
3.136197640699999
 20
3.2821119679
 10
3.1387864936
 20
3.282835816499999
 10
3.141586694299999
 20
3.285098926799999
 10
3.143983677
 20
3.2885433907
 10
3.145594421999999
 20
3.292618808899999
 10
3.1461615442
 20
3.296673960199999
 10
3.145594421999999
 20
3.300060862
 10
3.1445371922
 20
3.301765229899999
  0
LWPOLYLINE
  5
11B
330
1F
100
AcDbEntity
  8
0
  6
Continuous
 62
     7
370
    15
100
AcDbPolyline
 90
       19
 70
   128
 43
0.0
 10
2.794618922699999
 20
3.247365424299999
 10
2.7927829581
 20
3.252433842699999
 10
2.7900422962
 20
3.256890934899999
 10
2.7867275013
 20
3.260199110099999
 10
2.7832383866
 20
3.261959353299999
 10
2.779995790799999
 20
3.261959353299999
 10
2.777390818799999
 20
3.260199110099999
 10
2.7757376686
 20
3.256890934899999
 10
2.7752357347
 20
3.252433842699999
 10
2.7759455575
 20
3.247365424299999
 10
2.777781522099999
 20
3.242297006
 10
2.780522183999999
 20
3.2378399137
 10
2.783836978899999
 20
3.2345317386
 10
2.787326093599999
 20
3.2327714954
 10
2.7905686894
 20
3.2327714954
 10
2.793173661499999
 20
3.2345317386
 10
2.7948268116
 20
3.2378399137
 10
2.795328745499999
 20
3.242297006
 10
2.794618922699999
 20
3.247365424299999
  0
LWPOLYLINE
  5
11C
330
1F
100
AcDbEntity
  8
0
  6
Continuous
 62
     7
370
    15
100
AcDbPolyline
 90
        8
 70
   128
 43
0.0
 10
2.787325313299999
 20
3.2597284148
 10
2.7858763442
 20
3.257540236399999
 10
2.785309221999999
 20
3.2540421499
 10
2.7858763442
 20
3.249924849599999
 10
2.7874870892
 20
3.2458462491
 10
2.789884071899999
 20
3.2424580779
 10
2.792684272599999
 20
3.2403017405
 10
2.795198528799999
 20
3.2397048172
  0
SPLINE
  5
11D
330
1F
100
AcDbEntity
  8
0
  6
Continuous
 62
     7
370
    15
100
AcDbSpline
210
0.0
220
0.0
230
1.0
 70
    24
 71
     3
 72
     8
 73
     4
 74
     0
 42
0.0000000001
 43
0.0000000001
 40
0.0
 40
0.0
 40
0.0
 40
0.0
 40
1.0
 40
1.0
 40
1.0
 40
1.0
 10
3.114846249844339
 20
3.813629793876047
 30
0.0
 10
3.114846249844339
 20
3.812661362968027
 30
0.0
 10
3.114846249844339
 20
3.811692932060006
 30
0.0
 10
3.114846249844339
 20
3.810724501151986
 30
0.0
  0
SPLINE
  5
11E
330
1F
100
AcDbEntity
  8
0
  6
Continuous
 62
     7
370
    15
100
AcDbSpline
210
0.0
220
0.0
230
1.0
 70
     8
 71
     3
 72
    12
 73
     8
 74
     0
 42
0.0000000001
 43
0.0000000001
 40
0.0
 40
0.0
 40
0.0
 40
0.0
 40
0.25
 40
0.25
 40
0.5
 40
0.5
 40
1.0
 40
1.0
 40
1.0
 40
1.0
 10
3.114482020795076
 20
3.813849500737066
 30
0.0
 10
3.114433733062186
 20
3.813849500737066
 30
0.0
 10
3.114405218492443
 20
3.813719495055627
 30
0.0
 10
3.114387347823028
 20
3.813304188859406
 30
0.0
 10
3.114398056366061
 20
3.813019612182643
 30
0.0
 10
3.114489113628378
 20
3.812075817850164
 30
0.0
 10
3.114630315664971
 20
3.811334622367491
 30
0.0
 10
3.114846249844339
 20
3.810724500944526
 30
0.0
  0
SPLINE
  5
11F
330
1F
100
AcDbEntity
  8
0
  6
Continuous
 62
     7
370
    15
100
AcDbSpline
210
0.0
220
0.0
230
1.0
 70
     8
 71
     3
 72
    10
 73
     6
 74
     0
 42
0.0000000001
 43
0.0000000001
 40
0.0
 40
0.0
 40
0.0
 40
0.0
 40
0.5
 40
0.5
 40
1.0
 40
1.0
 40
1.0
 40
1.0
 10
2.816624516350363
 20
3.810724500944526
 30
0.0
 10
2.816685255439026
 20
3.811669721003397
 30
0.0
 10
2.816745926033451
 20
3.812466744211267
 30
0.0
 10
2.81686733571654
 20
3.813557574921348
 30
0.0
 10
2.816928006310966
 20
3.813849500737066
 30
0.0
 10
2.816988745399628
 20
3.813849500737066
 30
0.0
  0
SPLINE
  5
120
330
1F
100
AcDbEntity
  8
0
  6
Continuous
 62
     7
370
    15
100
AcDbSpline
210
0.0
220
0.0
230
1.0
 70
    24
 71
     3
 72
     8
 73
     4
 74
     0
 42
0.0000000001
 43
0.0000000001
 40
0.0
 40
0.0
 40
0.0
 40
0.0
 40
1.0
 40
1.0
 40
1.0
 40
1.0
 10
2.816624516350363
 20
3.810724501151986
 30
0.0
 10
2.816624516350363
 20
3.811766167818651
 30
0.0
 10
2.816624516350363
 20
3.812807834485317
 30
0.0
 10
2.816624516350363
 20
3.813849501151983
 30
0.0
  0
SPLINE
  5
121
330
1F
100
AcDbEntity
  8
0
  6
Continuous
 62
     7
370
    15
100
AcDbSpline
210
0.0
220
0.0
230
1.0
 70
    24
 71
     3
 72
     8
 73
     4
 74
     0
 42
0.0000000001
 43
0.0000000001
 40
0.0
 40
0.0
 40
0.0
 40
0.0
 40
1.0
 40
1.0
 40
1.0
 40
1.0
 10
3.115685383097351
 20
3.808135294651953
 30
0.0
 10
3.115685383097351
 20
3.809868628002781
 30
0.0
 10
3.115685383097351
 20
3.811601961353607
 30
0.0
 10
3.115685383097351
 20
3.813335294704435
 30
0.0
  0
ARC
  5
122
330
1F
100
AcDbEntity
  8
0
  6
Continuous
 62
     7
370
    15
100
AcDbCircle
 10
3.134844425899999
 20
3.8157751092
 30
0.0
 40
0.0206260923628028
100
AcDbArc
 50
194.1738554817
 51
201.7400189432
  0
LWPOLYLINE
  5
123
330
1F
100
AcDbEntity
  8
0
  6
Continuous
 62
     7
370
    15
100
AcDbPolyline
 90
        3
 70
   128
 43
0.0
 10
3.115488346399999
 20
3.813849501199999
 10
3.115561411999999
 20
3.813654045699999
 10
3.1156853831
 20
3.8133352947
  0
LWPOLYLINE
  5
124
330
1F
100
AcDbEntity
  8
0
  6
Continuous
 62
     7
370
    15
100
AcDbPolyline
 90
       27
 70
   128
 43
0.0
 10
2.9969853831
 20
3.435319167499999
 10
2.996077314899999
 20
3.441795837699999
 10
2.993405883899999
 20
3.4478961073
 10
2.989126343999999
 20
3.453265450899999
 10
2.983487406399999
 20
3.4575918217
 10
2.976816785799999
 20
3.460623786899999
 10
2.969502154399999
 20
3.462185139499999
 10
2.9619686118
 20
3.462185139499999
 10
2.9546539804
 20
3.460623786899999
 10
2.9479833598
 20
3.4575918217
 10
2.9423444222
 20
3.453265450899999
 10
2.9380648823
 20
3.4478961073
 10
2.935393451299999
 20
3.441795837699999
 10
2.9344853831
 20
3.435319167499999
 10
2.935393451299999
 20
3.4288424974
 10
2.9380648823
 20
3.422742227699999
 10
2.9423444222
 20
3.4173728842
 10
2.9479833598
 20
3.413046513299999
 10
2.9546539804
 20
3.410014548199999
 10
2.9619686118
 20
3.408453195499999
 10
2.969502154399999
 20
3.408453195499999
 10
2.976816785799999
 20
3.410014548199999
 10
2.983487406399999
 20
3.413046513299999
 10
2.989126343999999
 20
3.4173728842
 10
2.993405883899999
 20
3.422742227699999
 10
2.996077314899999
 20
3.4288424974
 10
2.9969853831
 20
3.435319167499999
  0
LWPOLYLINE
  5
125
330
1F
100
AcDbEntity
  8
0
  6
Continuous
 62
     7
370
    15
100
AcDbPolyline
 90
       19
 70
   128
 43
0.0
 10
2.9821353831
 20
3.5322966922
 10
2.981146342099999
 20
3.5371543416
 10
2.978298511999999
 20
3.5414260868
 10
2.9739353831
 20
3.5445966922
 10
2.9685832132
 20
3.546283736199999
 10
2.962887553
 20
3.546283736199999
 10
2.9575353831
 20
3.5445966922
 10
2.9531722542
 20
3.5414260868
 10
2.9503244241
 20
3.5371543416
 10
2.9493353831
 20
3.5322966922
 10
2.9503244241
 20
3.5274390429
 10
2.9531722542
 20
3.523167297699999
 10
2.9575353831
 20
3.5199966922
 10
2.962887553
 20
3.518309648299999
 10
2.9685832132
 20
3.518309648299999
 10
2.9739353831
 20
3.5199966922
 10
2.978298511999999
 20
3.523167297699999
 10
2.981146342099999
 20
3.5274390429
 10
2.9821353831
 20
3.5322966922
  0
LINE
  5
126
330
1F
100
AcDbEntity
  8
0
  6
Continuous
 62
     7
370
    15
100
AcDbLine
 10
2.8157853831
 20
3.305415356999999
 30
0.0
 11
3.1156853831
 21
3.305415356999999
 31
0.0
  0
ARC
  5
127
330
1F
100
AcDbEntity
  8
0
  6
Continuous
 62
     7
370
    15
100
AcDbCircle
 10
2.796626340299999
 20
3.8157751092
 30
0.0
 40
0.020626092362868
100
AcDbArc
 50
338.2599810568
 51
345.8261445183
  0
SPLINE
  5
128
330
1F
100
AcDbEntity
  8
0
  6
Continuous
 62
     7
370
    15
100
AcDbSpline
210
0.0
220
0.0
230
1.0
 70
    24
 71
     3
 72
     8
 73
     4
 74
     0
 42
0.0000000001
 43
0.0000000001
 40
0.0
 40
0.0
 40
0.0
 40
0.0
 40
1.0
 40
1.0
 40
1.0
 40
1.0
 10
2.815785383097351
 20
3.808135294704434
 30
0.0
 10
2.815785383097351
 20
3.809868628037768
 30
0.0
 10
2.815785383097351
 20
3.811601961371102
 30
0.0
 10
2.815785383097351
 20
3.813335294704435
 30
0.0
  0
LWPOLYLINE
  5
129
330
1F
100
AcDbEntity
  8
0
  6
Continuous
 62
     7
370
    15
100
AcDbPolyline
 90
        3
 70
   128
 43
0.0
 10
2.8157853831
 20
3.8133352947
 10
2.8159093542
 20
3.813654045699999
 10
2.8159824198
 20
3.813849501199999
  0
SPLINE
  5
12A
330
1F
100
AcDbEntity
  8
0
  6
Continuous
 62
     7
370
    15
100
AcDbSpline
210
0.0
220
0.0
230
1.0
 70
     8
 71
     3
 72
    10
 73
     6
 74
     0
 42
0.0000000001
 43
0.0000000001
 40
0.0
 40
0.0
 40
0.0
 40
0.0
 40
0.5
 40
0.5
 40
1.0
 40
1.0
 40
1.0
 40
1.0
 10
3.115685383097351
 20
3.808135294704436
 30
0.0
 10
3.116489966927356
 20
3.806079613638441
 30
0.0
 10
3.117265346307271
 20
3.804240335335788
 30
0.0
 10
3.118663248891923
 20
3.801032807305155
 30
0.0
 10
3.119285954422411
 20
3.799664916083955
 30
0.0
 10
3.119809374575599
 20
3.798556955959738
 30
0.0
  0
SPLINE
  5
12B
330
1F
100
AcDbEntity
  8
0
  6
Continuous
 62
     7
370
    15
100
AcDbSpline
210
0.0
220
0.0
230
1.0
 70
     8
 71
     3
 72
    10
 73
     6
 74
     0
 42
0.0000000001
 43
0.0000000001
 40
0.0
 40
0.0
 40
0.0
 40
0.0
 40
0.5
 40
0.5
 40
1.0
 40
1.0
 40
1.0
 40
1.0
 10
3.119809374575599
 20
3.798556955959738
 30
0.0
 10
3.12047488892888
 20
3.797185530486156
 30
0.0
 10
3.121013891497596
 20
3.795742723322836
 30
0.0
 10
3.121744363312596
 20
3.792777667928509
 30
0.0
 10
3.121935383202316
 20
3.791256095054274
 30
0.0
 10
3.121935383202316
 20
3.789734030729033
 30
0.0
  0
LWPOLYLINE
  5
12C
330
1F
100
AcDbEntity
  8
0
  6
Continuous
 62
     7
370
    15
100
AcDbPolyline
 90
        9
 70
   128
 43
0.0
 10
3.121935383099999
 20
3.302290356999999
 10
3.1218152911
 20
3.3029000142
 10
3.121459630199999
 20
3.3034862427
 10
3.120882068199999
 20
3.304026513899999
 10
3.1201048005
 20
3.3045000656
 10
3.119157697099999
 20
3.304888699499999
 10
3.118077154499999
 20
3.3051774805
 10
3.116904697599999
 20
3.305355311
 10
3.1156853831
 20
3.305415356999999
  0
SPLINE
  5
12D
330
1F
100
AcDbEntity
  8
0
  6
Continuous
 62
     7
370
    15
100
AcDbSpline
210
0.0
220
0.0
230
1.0
 70
     8
 71
     3
 72
     9
 73
     5
 74
     0
 42
0.0000000001
 43
0.0000000001
 40
0.0
 40
0.0
 40
0.0
 40
0.0
 40
0.9713089741568873
 40
1.0
 40
1.0
 40
1.0
 40
1.0
 10
3.115685383097351
 20
3.813335294704435
 30
0.0
 10
3.11771101751143
 20
3.811435546194571
 30
0.0
 10
3.119796486160411
 20
3.809479681932621
 30
0.0
 10
3.121875727529498
 20
3.807356899579394
 30
0.0
 10
3.121935383097351
 20
3.80729599477604
 30
0.0
  0
SPLINE
  5
12E
330
1F
100
AcDbEntity
  8
0
  6
Continuous
 62
     7
370
    15
100
AcDbSpline
210
0.0
220
0.0
230
1.0
 70
    24
 71
     3
 72
     8
 73
     4
 74
     0
 42
0.0000000001
 43
0.0000000001
 40
0.7502625192280612
 40
0.7502625192280612
 40
0.7502625192280612
 40
0.7502625192280612
 40
1.0
 40
1.0
 40
1.0
 40
1.0
 10
3.119809374575599
 20
3.798556955959738
 30
0.0
 10
3.120380634220512
 20
3.798882223891048
 30
0.0
 10
3.120951893865426
 20
3.799207491822357
 30
0.0
 10
3.121523153510341
 20
3.799532759753667
 30
0.0
  0
SPLINE
  5
12F
330
1F
100
AcDbEntity
  8
0
  6
Continuous
 62
     7
370
    15
100
AcDbSpline
210
0.0
220
0.0
230
1.0
 70
     8
 71
     3
 72
     9
 73
     5
 74
     0
 42
0.0000000001
 43
0.0000000001
 40
0.0
 40
0.0
 40
0.0
 40
0.0
 40
0.2261763092315236
 40
1.0
 40
1.0
 40
1.0
 40
1.0
 10
2.809535383097351
 20
3.807140070137451
 30
0.0
 10
2.810023799585594
 20
3.807621969636936
 30
0.0
 10
2.812183249838815
 20
3.809752606135171
 30
0.0
 10
2.814213966463744
 20
3.811772360740946
 30
0.0
 10
2.815785383097351
 20
3.813335294704435
 30
0.0
  0
SPLINE
  5
130
330
1F
100
AcDbEntity
  8
0
  6
Continuous
 62
     7
370
    15
100
AcDbSpline
210
0.0
220
0.0
230
1.0
 70
     8
 71
     3
 72
    10
 73
     6
 74
     0
 42
0.0000000001
 43
0.0000000001
 40
0.0
 40
0.0
 40
0.0
 40
0.0
 40
0.5
 40
0.5
 40
1.0
 40
1.0
 40
1.0
 40
1.0
 10
2.811661391619104
 20
3.798556955959738
 30
0.0
 10
2.812440547423298
 20
3.800366233519464
 30
0.0
 10
2.813267955857824
 20
3.802025137552723
 30
0.0
 10
2.814705711202234
 20
3.805174973436226
 30
0.0
 10
2.815319953118168
 20
3.806667382017542
 30
0.0
 10
2.815785383097351
 20
3.808135294704434
 30
0.0
  0
SPLINE
  5
131
330
1F
100
AcDbEntity
  8
0
  6
Continuous
 62
     7
370
    15
100
AcDbSpline
210
0.0
220
0.0
230
1.0
 70
    24
 71
     3
 72
     8
 73
     4
 74
     0
 42
0.0000000001
 43
0.0000000001
 40
0.7502625192280404
 40
0.7502625192280404
 40
0.7502625192280404
 40
0.7502625192280404
 40
1.0
 40
1.0
 40
1.0
 40
1.0
 10
2.811661391619104
 20
3.798556955959738
 30
0.0
 10
2.811090131974191
 20
3.798882223891048
 30
0.0
 10
2.810518872329276
 20
3.799207491822357
 30
0.0
 10
2.809947612684362
 20
3.799532759753667
 30
0.0
  0
LWPOLYLINE
  5
132
330
1F
100
AcDbEntity
  8
0
  6
Continuous
 62
     7
370
    15
100
AcDbPolyline
 90
        9
 70
   128
 43
0.0
 10
2.8157853831
 20
3.305415356999999
 10
2.814566068599999
 20
3.305355311
 10
2.8133936116
 20
3.3051774805
 10
2.8123130691
 20
3.304888699499999
 10
2.811365965699999
 20
3.3045000656
 10
2.810588698
 20
3.304026513899999
 10
2.810011136
 20
3.3034862427
 10
2.809655475099999
 20
3.3029000142
 10
2.8095353831
 20
3.302290356999999
  0
SPLINE
  5
133
330
1F
100
AcDbEntity
  8
0
  6
Continuous
 62
     7
370
    15
100
AcDbSpline
210
0.0
220
0.0
230
1.0
 70
     8
 71
     3
 72
    10
 73
     6
 74
     0
 42
0.0000000001
 43
0.0000000001
 40
0.0
 40
0.0
 40
0.0
 40
0.0
 40
0.5
 40
0.5
 40
1.0
 40
1.0
 40
1.0
 40
1.0
 10
2.809535382992388
 20
3.789734030729033
 30
0.0
 10
2.809535382992388
 20
3.791256095054274
 30
0.0
 10
2.809726402882105
 20
3.792777667928509
 30
0.0
 10
2.810456874697107
 20
3.795742723322836
 30
0.0
 10
2.810995877265824
 20
3.797185530486156
 30
0.0
 10
2.811661391619104
 20
3.798556955959738
 30
0.0
  0
ARC
  5
134
330
1F
100
AcDbEntity
  8
0
  6
Continuous
 62
     7
370
    15
100
AcDbCircle
 10
2.9657353831
 20
3.5397214607
 30
0.0
 40
0.016829291659344
100
AcDbArc
 50
196.6598194529
 51
343.3401805471
  0
ARC
  5
135
330
1F
100
AcDbEntity
  8
0
  6
Continuous
 62
     7
370
    15
100
AcDbCircle
 10
2.9657353831
 20
3.4444390863
 30
0.0
 40
0.0317814176534333
100
AcDbArc
 50
191.8382081824
 51
348.1617918176
  0
LINE
  5
136
330
1F
100
AcDbEntity
  8
0
100
AcDbLine
 10
0.7204298643000002
 20
0.9232605948999999
 30
0.0
 11
1.224701508299999
 21
0.6297232214
 31
0.0
  0
ARC
  5
137
330
1F
100
AcDbEntity
  8
0
  6
Continuous
 62
     7
370
    15
100
AcDbCircle
 10
0.7269048641
 20
0.9926559838999999
 30
0.0
 40
0.0096000000000001
100
AcDbArc
 50
148.2654858178
 51
180.0
  0
LINE
  5
138
330
1F
100
AcDbEntity
  8
0
  6
Continuous
 62
     7
370
    15
100
AcDbLine
 10
0.7277048641000001
 20
1.029244814199999
 30
0.0
 11
0.7277048641000001
 21
1.2896126795
 31
0.0
  0
LINE
  5
139
330
1F
100
AcDbEntity
  8
0
  6
Continuous
 62
     7
370
    15
100
AcDbLine
 10
0.7277048641000001
 20
1.689676948799999
 30
0.0
 11
0.7277048641000001
 21
1.935924814199999
 31
0.0
  0
ARC
  5
13A
330
1F
100
AcDbEntity
  8
0
  6
Continuous
 62
     7
370
    15
100
AcDbCircle
 10
0.6677422439000001
 20
1.029244814199999
 30
0.0
 40
0.0599626201923078
100
AcDbArc
 50
328.2654858178
 51
0.0
  0
LINE
  5
13B
330
1F
100
AcDbEntity
  8
0
  6
Continuous
 62
     7
370
    15
100
AcDbLine
 10
0.7069048641000001
 20
1.860564814199999
 30
0.0
 11
0.7069048641000001
 21
1.935924814199999
 31
0.0
  0
LINE
  5
13C
330
1F
100
AcDbEntity
  8
0
  6
Continuous
 62
     7
370
    15
100
AcDbLine
 10
0.7173048641
 20
1.935924814199999
 30
0.0
 11
0.7069048641000001
 21
1.935924814199999
 31
0.0
  0
LINE
  5
13D
330
1F
100
AcDbEntity
  8
0
  6
Continuous
 62
     7
370
    15
100
AcDbLine
 10
0.7173048641
 20
1.860564814199999
 30
0.0
 11
0.7173048641
 21
1.935924814199999
 31
0.0
  0
LINE
  5
13E
330
1F
100
AcDbEntity
  8
0
  6
Continuous
 62
     7
370
    15
100
AcDbLine
 10
0.7173048641
 20
1.860564814199999
 30
0.0
 11
0.7069048641000001
 21
1.860564814199999
 31
0.0
  0
LINE
  5
13F
330
1F
100
AcDbEntity
  8
0
  6
Continuous
 62
     7
370
    15
100
AcDbLine
 10
0.7173048641
 20
1.035044814199999
 30
0.0
 11
0.7069048641000001
 21
1.035044814199999
 31
0.0
  0
LINE
  5
140
330
1F
100
AcDbEntity
  8
0
  6
Continuous
 62
     7
370
    15
100
AcDbLine
 10
0.7069048641000001
 20
1.860564814199999
 30
0.0
 11
0.7069048641000001
 21
1.035044814199999
 31
0.0
  0
LINE
  5
141
330
1F
100
AcDbEntity
  8
0
  6
Continuous
 62
     7
370
    15
100
AcDbLine
 10
0.7173048641
 20
1.860564814199999
 30
0.0
 11
0.7173048641
 21
1.035044814199999
 31
0.0
  0
LINE
  5
142
330
1F
100
AcDbEntity
  8
0
  6
Continuous
 62
     7
370
    15
100
AcDbLine
 10
0.7069048641000001
 20
0.9508512740999998
 30
0.0
 11
0.7069048641000001
 21
1.035044814199999
 31
0.0
  0
LINE
  5
143
330
1F
100
AcDbEntity
  8
0
  6
Continuous
 62
     7
370
    15
100
AcDbLine
 10
0.7173048641
 20
0.9508512740999998
 30
0.0
 11
0.7173048641
 21
1.035044814199999
 31
0.0
  0
LWPOLYLINE
  5
144
330
1F
100
AcDbEntity
  8
0
  6
Continuous
 62
     7
370
    15
100
AcDbPolyline
 90
       19
 70
   128
 43
0.0
 10
1.2837889409
 20
0.9472032068999999
 10
1.2787205226
 20
0.9474118551
 10
1.274263430299999
 20
0.9460979809000001
 10
1.270955255199999
 20
0.9434200569999999
 10
1.269195011999999
 20
0.9397010804
 10
1.269195011999999
 20
0.9353896147
 10
1.270955255199999
 20
0.9310056861999999
 10
1.274263430299999
 20
0.9270780613999999
 10
1.2787205226
 20
0.9240804697999999
 10
1.2837889409
 20
0.9223744653
 10
1.2888573593
 20
0.9221658169999999
 10
1.2933144515
 20
0.9234796912
 10
1.2966226267
 20
0.9261576151999999
 10
1.298382869899999
 20
0.9298765917
 10
1.298382869899999
 20
0.9341880574999999
 10
1.2966226267
 20
0.9385719859999998
 10
1.2933144515
 20
0.9424996106999998
 10
1.2888573593
 20
0.9454972022999999
 10
1.2837889409
 20
0.9472032068999999
  0
ARC
  5
145
330
1F
100
AcDbEntity
  8
0
  6
Continuous
 62
     7
370
    15
100
AcDbCircle
 10
1.278552912999999
 20
0.9305405555
 30
0.0
 40
0.00811345550689
100
AcDbArc
 50
68.2356968779
 51
171.4358567981
  0
ARC
  5
146
330
1F
100
AcDbEntity
  8
0
  6
Continuous
 62
     7
370
    15
100
AcDbCircle
 10
1.2832885239
 20
0.9280647406999998
 30
0.0
 40
0.0081134555073525
100
AcDbArc
 50
313.3622943814
 51
56.5624542723
  0
ELLIPSE
  5
147
330
1F
100
AcDbEntity
  8
0
  6
Continuous
 62
     7
370
    15
100
AcDbEllipse
 10
1.280367205999999
 20
0.9282439179999999
 30
0.0
 11
0.0048869609942441
 21
0.0093475268805165
 31
-0.0000000000000002
210
0.0000000000000232
220
0.0000000000000116
230
0.9999999999999998
 40
0.6938842233
 41
5.785049940005017
 42
6.781320674354147
  0
SPLINE
  5
148
330
1F
100
AcDbEntity
  8
0
  6
Continuous
 62
     7
370
    15
100
AcDbSpline
210
0.0
220
0.0
230
1.0
 70
    24
 71
     3
 72
     8
 73
     4
 74
     0
 42
0.0000000001
 43
0.0000000001
 40
0.0
 40
0.0
 40
0.0
 40
0.0
 40
1.0
 40
1.0
 40
1.0
 40
1.0
 10
0.7173048645262256
 20
0.9286732533557067
 30
0.0
 10
0.713838197859559
 20
0.9286732533557067
 30
0.0
 10
0.7103715311928925
 20
0.9286732533557067
 30
0.0
 10
0.7069048645262256
 20
0.9286732533557067
 30
0.0
  0
LINE
  5
149
330
1F
100
AcDbEntity
  8
0
  6
Continuous
 62
     7
370
    15
100
AcDbLine
 10
0.7173048641
 20
0.9286732534
 30
0.0
 11
0.7173048641
 21
0.9508512740999998
 31
0.0
  0
LINE
  5
14A
330
1F
100
AcDbEntity
  8
0
  6
Continuous
 62
     7
370
    15
100
AcDbLine
 10
0.7069048641000001
 20
0.9286732534
 30
0.0
 11
0.7069048641000001
 21
0.9508512740999998
 31
0.0
  0
SPLINE
  5
14B
330
1F
100
AcDbEntity
  8
0
  6
Continuous
 62
     7
370
    15
100
AcDbSpline
210
0.0
220
0.0
230
1.0
 70
     8
 71
     3
 72
    21
 73
    17
 74
     0
 42
0.0000000001
 43
0.0000000001
 40
0.0
 40
0.0
 40
0.0
 40
0.0
 40
0.0864366230108025
 40
0.1704013473195214
 40
0.2519249585035669
 40
0.3310411117753017
 40
0.4077866493143622
 40
0.4822019537672969
 40
0.5543313407980843
 40
0.6242234931361877
 40
0.6919319377632482
 40
0.7575155665660534
 40
0.8210391987883598
 40
0.8825741807372072
 40
0.9421990142285793
 40
1.0
 40
1.0
 40
1.0
 40
1.0
 10
0.7286900911432549
 20
0.9112620484241954
 30
0.0
 10
0.7283571987825468
 20
0.9111659191140384
 30
0.0
 10
0.7277009340558474
 20
0.9109764095821157
 30
0.0
 10
0.7267516077858299
 20
0.9107846373045251
 30
0.0
 10
0.7258435896769501
 20
0.9106618846919259
 30
0.0
 10
0.7249757080652942
 20
0.9106095933572358
 30
0.0
 10
0.7241447105322071
 20
0.9106212482509523
 30
0.0
 10
0.723347678718892
 20
0.9106920305663424
 30
0.0
 10
0.7225814923139825
 20
0.9108164848150464
 30
0.0
 10
0.7218430350307742
 20
0.9109892472938218
 30
0.0
 10
0.7211292138482711
 20
0.9112049423786624
 30
0.0
 10
0.7204369702098862
 20
0.9114583873826752
 30
0.0
 10
0.7197634500724654
 20
0.9117443054316208
 30
0.0
 10
0.7191055366975875
 20
0.9120585667698319
 30
0.0
 10
0.7184616348339866
 20
0.9123939854710407
 30
0.0
 10
0.7180310292744016
 20
0.9126386292336448
 30
0.0
 10
0.7178190705588574
 20
0.9127590512220129
 30
0.0
  0
SPLINE
  5
14C
330
1F
100
AcDbEntity
  8
0
  6
Continuous
 62
     7
370
    15
100
AcDbSpline
210
0.0
220
0.0
230
1.0
 70
     8
 71
     3
 72
    10
 73
     6
 74
     0
 42
0.0000000001
 43
0.0000000001
 40
0.0
 40
0.0
 40
0.0
 40
0.0
 40
0.5
 40
0.5
 40
1.0
 40
1.0
 40
1.0
 40
1.0
 10
0.74142033453426
 20
0.9183586191978148
 30
0.0
 10
0.7391615630991422
 20
0.9169384552382256
 30
0.0
 10
0.7369034281789207
 20
0.9155193937547764
 30
0.0
 10
0.7325958637503093
 20
0.9130427591649844
 30
0.0
 10
0.7305475939708815
 20
0.9119871947681275
 30
0.0
 10
0.7286900911432549
 20
0.9112620484241954
 30
0.0
  0
LINE
  5
14D
330
1F
100
AcDbEntity
  8
0
  6
Continuous
 62
     7
370
    15
100
AcDbLine
 10
1.2205390083
 20
0.62251356
 30
0.0
 11
1.228864008299999
 21
0.6369328829
 31
0.0
  0
LINE
  5
14E
330
1F
100
AcDbEntity
  8
0
  6
Continuous
 62
     7
370
    15
100
AcDbLine
 10
0.7178190706000001
 20
0.9127590512999999
 30
0.0
 11
1.2205390083
 21
0.62251356
 31
0.0
  0
SPLINE
  5
14F
330
1F
100
AcDbEntity
  8
0
  6
Continuous
 62
     7
370
    15
100
AcDbSpline
210
0.0
220
0.0
230
1.0
 70
    24
 71
     3
 72
     8
 73
     4
 74
     0
 42
0.0000000001
 43
0.0000000001
 40
0.0
 40
0.0
 40
0.0
 40
0.0
 40
1.0
 40
1.0
 40
1.0
 40
1.0
 10
0.7325974093035532
 20
0.9180297219991691
 30
0.0
 10
0.731294969916787
 20
0.9157738308075112
 30
0.0
 10
0.7299925305300209
 20
0.9135179396158534
 30
0.0
 10
0.7286900911432549
 20
0.9112620484241954
 30
0.0
  0
SPLINE
  5
150
330
1F
100
AcDbEntity
  8
0
  6
Continuous
 62
     7
370
    15
100
AcDbSpline
210
0.0
220
0.0
230
1.0
 70
     8
 71
     3
 72
    10
 73
     6
 74
     0
 42
0.0000000001
 43
0.0000000001
 40
0.0
 40
0.0
 40
0.0
 40
0.0
 40
0.5
 40
0.5
 40
1.0
 40
1.0
 40
1.0
 40
1.0
 10
0.74142033453426
 20
0.9183586191978148
 30
0.0
 10
0.7398982702090188
 20
0.9182146761302048
 30
0.0
 10
0.7383766973347826
 20
0.9180711707859535
 30
0.0
 10
0.7354116419404571
 20
0.9179198300531652
 30
0.0
 10
0.7339688347771368
 20
0.9179127509221149
 30
0.0
 10
0.7325974093035532
 20
0.9180297219991691
 30
0.0
  0
SPLINE
  5
151
330
1F
100
AcDbEntity
  8
0
  6
Continuous
 62
     7
370
    15
100
AcDbSpline
210
0.0
220
0.0
230
1.0
 70
     8
 71
     3
 72
     9
 73
     5
 74
     0
 42
0.0000000001
 43
0.0000000001
 40
0.0
 40
0.0
 40
0.0
 40
0.0
 40
0.6479060982412232
 40
1.0
 40
1.0
 40
1.0
 40
1.0
 10
0.723554864111306
 20
1.68655916627407
 30
0.0
 10
0.7221571826996043
 20
1.686287664823288
 30
0.0
 10
0.7199999543365811
 20
1.685868620379164
 30
0.0
 10
0.7180066828472503
 20
1.685531804126474
 30
0.0
 10
0.7173048641113072
 20
1.685413213177888
 30
0.0
  0
LINE
  5
152
330
1F
100
AcDbEntity
  8
0
  6
Continuous
 62
     7
370
    15
100
AcDbLine
 10
1.2250446689
 20
1.049597592999999
 30
0.0
 11
1.4065982346
 21
0.9447775929999998
 31
0.0
  0
LINE
  5
153
330
1F
100
AcDbEntity
  8
0
  6
Continuous
 62
     7
370
    15
100
AcDbLine
 10
1.4065982346
 20
0.9447775929999998
 30
0.0
 11
1.228864008299999
 21
0.6369328829
 31
0.0
  0
LINE
  5
154
330
1F
100
AcDbEntity
  8
0
  6
Continuous
 62
     7
370
    15
100
AcDbLine
 10
1.2250446689
 20
1.049597592999999
 30
0.0
 11
0.7414203345
 21
0.9183586191999999
 31
0.0
  0
SPLINE
  5
155
330
1F
100
AcDbEntity
  8
0
  6
Continuous
 62
     7
370
    15
100
AcDbSpline
210
0.0
220
0.0
230
1.0
 70
     8
 71
     3
 72
     9
 73
     5
 74
     0
 42
0.0000000001
 43
0.0000000001
 40
0.0
 40
0.0
 40
0.0
 40
0.0
 40
0.3521097828425779
 40
1.0
 40
1.0
 40
1.0
 40
1.0
 10
0.7173048641113072
 20
1.293877809655785
 30
0.0
 10
0.7180067386355351
 20
1.29375910056673
 30
0.0
 10
0.7200000786630732
 20
1.293421963983652
 30
0.0
 10
0.7221572523699266
 20
1.293002335355495
 30
0.0
 10
0.723554864111306
 20
1.292730462072472
 30
0.0
  0
LINE
  5
156
330
1F
100
AcDbEntity
  8
0
  6
Continuous
 62
     7
370
    15
100
AcDbLine
 10
0.9062008125
 20
1.679480807899999
 30
0.0
 11
0.7321988335
 21
1.6992165369
 31
0.0
  0
ARC
  5
157
330
1F
100
AcDbEntity
  8
0
  6
Continuous
 62
     7
370
    15
100
AcDbCircle
 10
0.9033833165999999
 20
1.6546400809
 30
0.0
 40
0.025
100
AcDbArc
 50
0.0
 51
83.5290272739
  0
LINE
  5
158
330
1F
100
AcDbEntity
  8
0
  6
Continuous
 62
     7
370
    15
100
AcDbLine
 10
0.9283833165999999
 20
1.324649547399999
 30
0.0
 11
0.9283833165999999
 21
1.6546400809
 31
0.0
  0
ARC
  5
159
330
1F
100
AcDbEntity
  8
0
  6
Continuous
 62
     7
370
    15
100
AcDbCircle
 10
0.9033833165999999
 20
1.324649547399999
 30
0.0
 40
0.0249999999999999
100
AcDbArc
 50
276.4709727261
 51
0.0
  0
LINE
  5
15A
330
1F
100
AcDbEntity
  8
0
  6
Continuous
 62
     7
370
    15
100
AcDbLine
 10
0.7321988335
 20
1.2800730915
 30
0.0
 11
0.9062008125
 21
1.2998088204
 31
0.0
  0
ARC
  5
15B
330
1F
100
AcDbEntity
  8
0
  6
Continuous
 62
     7
370
    15
100
AcDbCircle
 10
0.7159033166
 20
1.2782248142
 30
0.0
 40
0.0164000000000001
100
AcDbArc
 50
6.4709727261
 51
62.1889148288
  0
CIRCLE
  5
15C
330
1F
100
AcDbEntity
  8
0
  6
Continuous
 62
     7
370
    15
100
AcDbCircle
 10
0.8309633165999999
 20
1.622964814199999
 30
0.0
 40
0.0164
  0
CIRCLE
  5
15D
330
1F
100
AcDbEntity
  8
0
  6
Continuous
 62
     7
370
    15
100
AcDbCircle
 10
0.8783833166
 20
1.406904814199999
 30
0.0
 40
0.0163999999999999
  0
ARC
  5
15E
330
1F
100
AcDbEntity
  8
0
  6
Continuous
 62
     7
370
    15
100
AcDbCircle
 10
0.7159033166
 20
1.701064814199999
 30
0.0
 40
0.0164
100
AcDbArc
 50
297.8110851711999
 51
353.5290272739
  0
ARC
  5
15F
330
1F
100
AcDbEntity
  8
0
  6
Continuous
 62
     7
370
    15
100
AcDbCircle
 10
1.2742526815
 20
0.916548371
 30
0.0
 40
0.022734115333058
100
AcDbArc
 50
53.55073824779999
 51
71.247412904
  0
SPLINE
  5
160
330
1F
100
AcDbEntity
  8
0
  6
Continuous
 62
     7
370
    15
100
AcDbSpline
210
0.0
220
0.0
230
1.0
 70
    24
 71
     3
 72
     8
 73
     4
 74
     0
 42
0.0000000001
 43
0.0000000001
 40
0.0
 40
0.0
 40
0.0
 40
0.0
 40
1.0
 40
1.0
 40
1.0
 40
1.0
 10
0.7230190705588573
 20
0.9217657154213707
 30
0.0
 10
0.721285737225524
 20
0.9187634940215847
 30
0.0
 10
0.7195524038921906
 20
0.9157612726217985
 30
0.0
 10
0.7178190705588571
 20
0.9127590512220123
 30
0.0
  0
SPLINE
  5
161
330
1F
100
AcDbEntity
  8
0
  6
Continuous
 62
     7
370
    15
100
AcDbSpline
210
0.0
220
0.0
230
1.0
 70
     8
 71
     3
 72
    10
 73
     6
 74
     0
 42
0.0000000001
 43
0.0000000001
 40
0.0
 40
0.0
 40
0.0
 40
0.0
 40
0.5
 40
0.5
 40
1.0
 40
1.0
 40
1.0
 40
1.0
 10
0.7325974093035532
 20
0.9180297219991691
 30
0.0
 10
0.7307881317438275
 20
0.918284256332231
 30
0.0
 10
0.7291292277105703
 20
0.9187927106524035
 30
0.0
 10
0.7259793918270657
 20
0.9201124224600439
 30
0.0
 10
0.7244869832457511
 20
0.9209182156364457
 30
0.0
 10
0.7230190705588573
 20
0.9217657154213707
 30
0.0
  0
SPLINE
  5
162
330
1F
100
AcDbEntity
  8
0
  6
Continuous
 62
     7
370
    15
100
AcDbSpline
210
0.0
220
0.0
230
1.0
 70
    24
 71
     3
 72
     8
 73
     4
 74
     0
 42
0.0000000001
 43
0.0000000001
 40
0.0
 40
0.0
 40
0.0
 40
0.0
 40
1.0
 40
1.0
 40
1.0
 40
1.0
 10
0.720429864111306
 20
0.9232605945820539
 30
0.0
 10
0.7186965308471259
 20
0.9202583733020452
 30
0.0
 10
0.7169631975829458
 20
0.917256152022036
 30
0.0
 10
0.7152298643187659
 20
0.9142539307420271
 30
0.0
  0
LINE
  5
163
330
1F
100
AcDbEntity
  8
0
  6
Continuous
 62
     7
370
    15
100
AcDbLine
 10
0.7230190706000001
 20
0.9217657154999999
 30
0.0
 11
0.7204298641
 21
0.9232605945999999
 31
0.0
  0
LINE
  5
164
330
1F
100
AcDbEntity
  8
0
  6
Continuous
 62
     7
370
    15
100
AcDbLine
 10
0.7178190706000001
 20
0.9127590512999999
 30
0.0
 11
0.7152298641
 21
0.9142539303999999
 31
0.0
  0
SPLINE
  5
165
330
1F
100
AcDbEntity
  8
0
  6
Continuous
 62
     7
370
    15
100
AcDbSpline
210
0.0
220
0.0
230
1.0
 70
     8
 71
     3
 72
    10
 73
     6
 74
     0
 42
0.0000000001
 43
0.0000000001
 40
0.0
 40
0.0
 40
0.0
 40
0.0
 40
0.5
 40
0.5
 40
1.0
 40
1.0
 40
1.0
 40
1.0
 10
0.7204298643187657
 20
0.9232605949413851
 30
0.0
 10
0.7194846442598943
 20
0.9238063179968182
 30
0.0
 10
0.718687621052024
 20
0.9246035664570101
 30
0.0
 10
0.7175967903419445
 20
0.9264929406693237
 30
0.0
 10
0.7173048645262256
 20
0.9275818072448409
 30
0.0
 10
0.7173048645262256
 20
0.9286732533557067
 30
0.0
  0
SPLINE
  5
166
330
1F
100
AcDbEntity
  8
0
  6
Continuous
 62
     7
370
    15
100
AcDbSpline
210
0.0
220
0.0
230
1.0
 70
     8
 71
     3
 72
    10
 73
     6
 74
     0
 42
0.0000000001
 43
0.0000000001
 40
0.0
 40
0.0
 40
0.0
 40
0.0
 40
0.5
 40
0.5
 40
1.0
 40
1.0
 40
1.0
 40
1.0
 10
0.7152298643187659
 20
0.9142539307420271
 30
0.0
 10
0.712713217763606
 20
0.9157069173081035
 30
0.0
 10
0.7105885280637028
 20
0.917831607008007
 30
0.0
 10
0.7076825549315494
 20
0.9228649001183267
 30
0.0
 10
0.7069048645262256
 20
0.9257672802235536
 30
0.0
 10
0.7069048645262256
 20
0.9286732533557067
 30
0.0
  0
LINE
  5
167
330
1F
100
AcDbEntity
  8
0
  6
Continuous
 62
     7
370
    15
100
AcDbLine
 10
0.7173048641
 20
1.935924814199999
 30
0.0
 11
0.7187401176999999
 21
1.935924814199999
 31
0.0
  0
LINE
  5
168
330
1F
100
AcDbEntity
  8
0
  6
Continuous
 62
     7
370
    15
100
AcDbLine
 10
0.7187401176999999
 20
1.935924814199999
 30
0.0
 11
0.7277048641000001
 21
1.935924814199999
 31
0.0
  0
ENDSEC
  0
SECTION
  2
OBJECTS
  0
DICTIONARY
  5
C
330
0
100
AcDbDictionary
281
     1
  3
ACAD_COLOR
350
16C
  3
ACAD_GROUP
350
D
  3
ACAD_LAYOUT
350
1A
  3
ACAD_MATERIAL
350
16B
  3
ACAD_MLINESTYLE
350
17
  3
ACAD_PLOTSETTINGS
350
19
  3
ACAD_PLOTSTYLENAME
350
E
  3
ACDBHEADERROUNDTRIPXREC
350
173
  3
AcDbVariableDictionary
350
16F
  0
DICTIONARY
  5
16C
102
{ACAD_REACTORS
330
C
102
}
330
C
100
AcDbDictionary
281
     1
  0
DICTIONARY
  5
D
102
{ACAD_REACTORS
330
C
102
}
330
C
100
AcDbDictionary
281
     1
  0
DICTIONARY
  5
1A
102
{ACAD_REACTORS
330
C
102
}
330
C
100
AcDbDictionary
281
     1
  3
Layout1
350
1E
  3
Layout2
350
26
  3
Model
350
22
  0
DICTIONARY
  5
16B
102
{ACAD_REACTORS
330
C
102
}
330
C
100
AcDbDictionary
281
     1
  0
DICTIONARY
  5
17
102
{ACAD_REACTORS
330
C
102
}
330
C
100
AcDbDictionary
281
     1
  3
Standard
350
18
  0
DICTIONARY
  5
19
102
{ACAD_REACTORS
330
C
102
}
330
C
100
AcDbDictionary
281
     1
  0
ACDBDICTIONARYWDFLT
  5
E
102
{ACAD_REACTORS
330
C
102
}
330
C
100
AcDbDictionary
281
     1
  3
Normal
350
F
100
AcDbDictionaryWithDefault
340
F
  0
DICTIONARY
  5
173
102
{ACAD_REACTORS
330
C
102
}
330
C
100
AcDbDictionary
281
     1
  3
COLORDICT
350
175
  3
MATERIALDICT
350
174
  0
DICTIONARY
  5
16F
102
{ACAD_REACTORS
330
C
102
}
330
C
100
AcDbDictionary
281
     1
  3
DIMASSOC
350
170
  3
PROJECTNAME
350
171
  0
LAYOUT
  5
1E
102
{ACAD_XDICTIONARY
360
176
102
}
102
{ACAD_REACTORS
330
1A
102
}
330
1A
100
AcDbPlotSettings
  1

  2
none_device
  4

  6

 40
0.0
 41
0.0
 42
0.0
 43
0.0
 44
0.0
 45
0.0
 46
0.0
 47
0.0
 48
0.0
 49
0.0
140
0.0
141
0.0
142
1.0
143
1.0
 70
   688
 72
     0
 73
     0
 74
     5
  7

 75
    16
147
1.0
148
0.0
149
0.0
100
AcDbLayout
  1
Layout1
 70
     1
 71
     1
 10
0.0
 20
0.0
 11
12.0
 21
9.0
 12
0.0
 22
0.0
 32
0.0
 14
1.000000000000000E+20
 24
1.000000000000000E+20
 34
1.000000000000000E+20
 15
-1.000000000000000E+20
 25
-1.000000000000000E+20
 35
-1.000000000000000E+20
146
0.0
 13
0.0
 23
0.0
 33
0.0
 16
1.0
 26
0.0
 36
0.0
 17
0.0
 27
1.0
 37
0.0
 76
     0
330
1B
  0
LAYOUT
  5
26
102
{ACAD_XDICTIONARY
360
17A
102
}
102
{ACAD_REACTORS
330
1A
102
}
330
1A
100
AcDbPlotSettings
  1

  2
none_device
  4

  6

 40
0.0
 41
0.0
 42
0.0
 43
0.0
 44
0.0
 45
0.0
 46
0.0
 47
0.0
 48
0.0
 49
0.0
140
0.0
141
0.0
142
1.0
143
1.0
 70
   688
 72
     0
 73
     0
 74
     5
  7

 75
    16
147
1.0
148
0.0
149
0.0
100
AcDbLayout
  1
Layout2
 70
     1
 71
     2
 10
0.0
 20
0.0
 11
0.0
 21
0.0
 12
0.0
 22
0.0
 32
0.0
 14
0.0
 24
0.0
 34
0.0
 15
0.0
 25
0.0
 35
0.0
146
0.0
 13
0.0
 23
0.0
 33
0.0
 16
1.0
 26
0.0
 36
0.0
 17
0.0
 27
1.0
 37
0.0
 76
     0
330
23
  0
LAYOUT
  5
22
102
{ACAD_XDICTIONARY
360
178
102
}
102
{ACAD_REACTORS
330
1A
102
}
330
1A
100
AcDbPlotSettings
  1

  2
none_device
  4

  6

 40
0.0
 41
0.0
 42
0.0
 43
0.0
 44
0.0
 45
0.0
 46
0.0
 47
0.0
 48
0.0
 49
0.0
140
0.0
141
0.0
142
1.0
143
1.0
 70
  1712
 72
     0
 73
     0
 74
     0
  7

 75
     0
147
1.0
148
0.0
149
0.0
100
AcDbLayout
  1
Model
 70
     1
 71
     0
 10
0.0
 20
0.0
 11
0.0
 21
0.0
 12
0.0
 22
0.0
 32
0.0
 14
0.0
 24
0.0
 34
0.0
 15
4.0
 25
4.0
 35
0.0
146
0.0
 13
0.0
 23
0.0
 33
0.0
 16
1.0
 26
0.0
 36
0.0
 17
0.0
 27
1.0
 37
0.0
 76
     0
330
1F
  0
MLINESTYLE
  5
18
102
{ACAD_REACTORS
330
17
102
}
330
17
100
AcDbMlineStyle
  2
STANDARD
 70
     0
  3

 62
   256
 51
90.0
 52
90.0
 71
     2
 49
0.5
 62
   256
  6
BYLAYER
 49
-0.5
 62
   256
  6
BYLAYER
  0
ACDBPLACEHOLDER
  5
F
102
{ACAD_REACTORS
330
E
102
}
330
E
  0
XRECORD
  5
175
102
{ACAD_REACTORS
330
173
102
}
330
173
100
AcDbXrecord
280
     1
340
16C
  0
XRECORD
  5
174
102
{ACAD_REACTORS
330
173
102
}
330
173
100
AcDbXrecord
280
     1
340
16B
  0
DICTIONARYVAR
  5
170
102
{ACAD_REACTORS
330
16F
102
}
330
16F
100
DictionaryVariables
280
     0
  1
1
  0
DICTIONARYVAR
  5
171
102
{ACAD_REACTORS
330
16F
102
}
330
16F
100
DictionaryVariables
280
     0
  1

  0
DICTIONARY
  5
176
330
1E
100
AcDbDictionary
280
     1
281
     1
  3
ACAD_XREC_ROUNDTRIP
360
177
  0
DICTIONARY
  5
17A
330
26
100
AcDbDictionary
280
     1
281
     1
  3
ACAD_XREC_ROUNDTRIP
360
17B
  0
DICTIONARY
  5
178
330
22
100
AcDbDictionary
280
     1
281
     1
  3
ACAD_XREC_ROUNDTRIP
360
179
  0
XRECORD
  5
177
102
{ACAD_REACTORS
330
176
102
}
330
176
100
AcDbXrecord
280
     1
102
SHADEPLOT
 70
     0
102
SHADEPLOTRESLEVEL
 70
     2
102
SHADEPLOTCUSTOMDPI
 70
   300
  0
XRECORD
  5
17B
102
{ACAD_REACTORS
330
17A
102
}
330
17A
100
AcDbXrecord
280
     1
102
SHADEPLOT
 70
     0
102
SHADEPLOTRESLEVEL
 70
     2
102
SHADEPLOTCUSTOMDPI
 70
   300
  0
XRECORD
  5
179
102
{ACAD_REACTORS
330
178
102
}
330
178
100
AcDbXrecord
280
     1
102
SHADEPLOT
 70
     0
102
SHADEPLOTRESLEVEL
 70
     2
102
SHADEPLOTCUSTOMDPI
 70
   300
  0
ENDSEC
  0
EOF
