  0
SECTION
  2
HEADER
  9
$ACADVER
  1
AC1014
  9
$ACADMAINTVER
 70
     9
  9
$DWGCODEPAGE
  3
ANSI_1252
  9
$INSBASE
 10
0.0
 20
0.0
 30
0.0
  9
$EXTMIN
 10
0.0
 20
0.0
 30
0.0
  9
$EXTMAX
 10
12.09156421507937
 20
16.15743162156188
 30
0.0
  9
$LIMMIN
 10
0.0
 20
0.0
  9
$LIMMAX
 10
12.0
 20
9.0
  9
$ORTHOMODE
 70
     1
  9
$REGENMODE
 70
     1
  9
$FILLMODE
 70
     1
  9
$QTEXTMODE
 70
     0
  9
$MIRRTEXT
 70
     0
  9
$DRAGMODE
 70
     2
  9
$LTSCALE
 40
1.5
  9
$OSMODE
 70
     0
  9
$ATTMODE
 70
     2
  9
$TEXTSIZE
 40
0.5
  9
$TRACEWID
 40
0.05
  9
$TEXTSTYLE
  7
STANDARD
  9
$CLAYER
  8
USP
  9
$CELTYPE
  6
BYLAYER
  9
$CECOLOR
 62
   256
  9
$CELTSCALE
 40
1.0
  9
$DELOBJ
 70
     1
  9
$DISPSILH
 70
     1
  9
$DIMSCALE
 40
4.0
  9
$DIMASZ
 40
0.09375
  9
$DIMEXO
 40
0.0625
  9
$DIMDLI
 40
0.38
  9
$DIMRND
 40
0.0
  9
$DIMDLE
 40
0.0
  9
$DIMEXE
 40
0.09375
  9
$DIMTP
 40
0.0
  9
$DIMTM
 40
0.0
  9
$DIMTXT
 40
0.09375
  9
$DIMCEN
 40
0.0
  9
$DIMTSZ
 40
0.0
  9
$DIMTOL
 70
     0
  9
$DIMLIM
 70
     0
  9
$DIMTIH
 70
     1
  9
$DIMTOH
 70
     1
  9
$DIMSE1
 70
     0
  9
$DIMSE2
 70
     0
  9
$DIMTAD
 70
     0
  9
$DIMZIN
 70
     0
  9
$DIMBLK
  1

  9
$DIMASO
 70
     1
  9
$DIMSHO
 70
     1
  9
$DIMPOST
  1

  9
$DIMAPOST
  1

  9
$DIMALT
 70
     0
  9
$DIMALTD
 70
     2
  9
$DIMALTF
 40
25.4
  9
$DIMLFAC
 40
1.0
  9
$DIMTOFL
 70
     0
  9
$DIMTVP
 40
0.0
  9
$DIMTIX
 70
     0
  9
$DIMSOXD
 70
     0
  9
$DIMSAH
 70
     0
  9
$DIMBLK1
  1

  9
$DIMBLK2
  1

  9
$DIMSTYLE
  2
FRACTIONAL
  9
$DIMCLRD
 70
     0
  9
$DIMCLRE
 70
     0
  9
$DIMCLRT
 70
     0
  9
$DIMTFAC
 40
1.0
  9
$DIMGAP
 40
0.09
  9
$DIMJUST
 70
     0
  9
$DIMSD1
 70
     0
  9
$DIMSD2
 70
     0
  9
$DIMTOLJ
 70
     1
  9
$DIMTZIN
 70
     0
  9
$DIMALTZ
 70
     0
  9
$DIMALTTZ
 70
     0
  9
$DIMFIT
 70
     3
  9
$DIMUPT
 70
     0
  9
$DIMUNIT
 70
     7
  9
$DIMDEC
 70
     4
  9
$DIMTDEC
 70
     4
  9
$DIMALTU
 70
     2
  9
$DIMALTTD
 70
     2
  9
$DIMTXSTY
  7
STANDARD
  9
$DIMAUNIT
 70
     0
  9
$LUNITS
 70
     5
  9
$LUPREC
 70
     6
  9
$SKETCHINC
 40
0.1
  9
$FILLETRAD
 40
0.375
  9
$AUNITS
 70
     0
  9
$AUPREC
 70
     1
  9
$MENU
  1
CUSTOM
  9
$ELEVATION
 40
0.0
  9
$PELEVATION
 40
0.0
  9
$THICKNESS
 40
0.0
  9
$LIMCHECK
 70
     0
  9
$BLIPMODE
 70
     0
  9
$CHAMFERA
 40
0.0
  9
$CHAMFERB
 40
0.0
  9
$CHAMFERC
 40
0.0
  9
$CHAMFERD
 40
0.0
  9
$SKPOLY
 70
     0
  9
$TDCREATE
 40
2451263.621564698
  9
$TDUPDATE
 40
2452759.745783229
  9
$TDINDWG
 40
6.6316680787
  9
$TDUSRTIMER
 40
6.6316680787
  9
$USRTIMER
 70
     1
  9
$ANGBASE
 50
0.0
  9
$ANGDIR
 70
     0
  9
$PDMODE
 70
     0
  9
$PDSIZE
 40
0.0
  9
$PLINEWID
 40
0.0
  9
$COORDS
 70
     1
  9
$SPLFRAME
 70
     0
  9
$SPLINETYPE
 70
     6
  9
$SPLINESEGS
 70
     8
  9
$ATTDIA
 70
     0
  9
$ATTREQ
 70
     0
  9
$HANDLING
 70
     1
  9
$HANDSEED
  5
F2
  9
$SURFTAB1
 70
     6
  9
$SURFTAB2
 70
     6
  9
$SURFTYPE
 70
     6
  9
$SURFU
 70
     6
  9
$SURFV
 70
     6
  9
$UCSNAME
  2

  9
$UCSORG
 10
0.0
 20
0.0
 30
0.0
  9
$UCSXDIR
 10
1.0
 20
0.0
 30
0.0
  9
$UCSYDIR
 10
0.0
 20
1.0
 30
0.0
  9
$PUCSNAME
  2

  9
$PUCSORG
 10
0.0
 20
0.0
 30
0.0
  9
$PUCSXDIR
 10
1.0
 20
0.0
 30
0.0
  9
$PUCSYDIR
 10
0.0
 20
1.0
 30
0.0
  9
$USERI1
 70
     0
  9
$USERI2
 70
     0
  9
$USERI3
 70
     0
  9
$USERI4
 70
     0
  9
$USERI5
 70
     0
  9
$USERR1
 40
0.0
  9
$USERR2
 40
0.0
  9
$USERR3
 40
0.0
  9
$USERR4
 40
0.0
  9
$USERR5
 40
0.0
  9
$WORLDVIEW
 70
     1
  9
$SHADEDGE
 70
     3
  9
$SHADEDIF
 70
    70
  9
$TILEMODE
 70
     1
  9
$MAXACTVP
 70
    16
  9
$PINSBASE
 10
0.0
 20
0.0
 30
0.0
  9
$PLIMCHECK
 70
     0
  9
$PEXTMIN
 10
1.049999952316284
 20
0.7999999523162842
 30
0.0
  9
$PEXTMAX
 10
9.449999570846555
 20
7.199999570846556
 30
0.0
  9
$PLIMMIN
 10
0.0
 20
0.0
  9
$PLIMMAX
 10
12.0
 20
9.0
  9
$UNITMODE
 70
     0
  9
$VISRETAIN
 70
     0
  9
$PLINEGEN
 70
     0
  9
$PSLTSCALE
 70
     1
  9
$TREEDEPTH
 70
  3020
  9
$PICKSTYLE
 70
     1
  9
$CMLSTYLE
  2
STANDARD
  9
$CMLJUST
 70
     0
  9
$CMLSCALE
 40
1.0
  9
$PROXYGRAPHICS
 70
     1
  9
$MEASUREMENT
 70
     0
  0
ENDSEC
  0
SECTION
  2
CLASSES
  0
CLASS
  1
ACDBDICTIONARYWDFLT
  2
AcDbDictionaryWithDefault
  3
AutoCAD 2000
 90
        0
280
     1
281
     0
  0
CLASS
  1
ACDBPLACEHOLDER
  2
AcDbPlaceHolder
  3
AutoCAD 2000
 90
        0
280
     1
281
     0
  0
CLASS
  1
LAYOUT
  2
AcDbLayout
  3
AutoCAD 2000
 90
        0
280
     1
281
     0
  0
CLASS
  1
DICTIONARYVAR
  2
AcDbDictionaryVar
  3
"AutoCAD"
 90
        0
280
     1
281
     0
  0
CLASS
  1
LONG_TRANSACTION
  2
AcDbLongTransaction
  3
AutoCAD 2000
 90
        0
280
     1
281
     0
  0
CLASS
  1
LWPOLYLINE
  2
AcDbPolyline
  3
"AutoCAD"
 90
        0
280
     1
281
     1
  0
CLASS
  1
HATCH
  2
AcDbHatch
  3
"ACAD_SEDONA"
 90
        0
280
     1
281
     1
  0
CLASS
  1
XRECORD
  2
AcDbXrecord
  3
"<Built In>"
 90
        0
280
     0
281
     0
  0
CLASS
  1
LONG_TRANSACTION
  2
AcDbLongTransaction
  3
AutoCAD 2000
 90
        0
280
     1
281
     0
  0
CLASS
  1
LWPOLYLINE
  2
AcDbPolyline
  3
"AutoCAD"
 90
        0
280
     1
281
     1
  0
CLASS
  1
HATCH
  2
AcDbHatch
  3
"ACAD_SEDONA"
 90
        0
280
     1
281
     1
  0
CLASS
  1
XRECORD
  2
AcDbXrecord
  3
"<Built In>"
 90
        0
280
     0
281
     0
  0
CLASS
  1
LONG_TRANSACTION
  2
AcDbLongTransaction
  3
AutoCAD 2000
 90
        0
280
     1
281
     0
  0
CLASS
  1
LWPOLYLINE
  2
AcDbPolyline
  3
"AutoCAD"
 90
        0
280
     1
281
     1
  0
CLASS
  1
HATCH
  2
AcDbHatch
  3
"ACAD_SEDONA"
 90
        0
280
     1
281
     1
  0
CLASS
  1
XRECORD
  2
AcDbXrecord
  3
"<Built In>"
 90
        0
280
     0
281
     0
  0
CLASS
  1
LONG_TRANSACTION
  2
AcDbLongTransaction
  3
AutoCAD 2000
 90
        0
280
     1
281
     0
  0
CLASS
  1
LWPOLYLINE
  2
AcDbPolyline
  3
"AutoCAD"
 90
        0
280
     1
281
     1
  0
CLASS
  1
HATCH
  2
AcDbHatch
  3
"ACAD_SEDONA"
 90
        0
280
     1
281
     1
  0
CLASS
  1
XRECORD
  2
AcDbXrecord
  3
"<Built In>"
 90
        0
280
     0
281
     0
  0
CLASS
  1
LONG_TRANSACTION
  2
AcDbLongTransaction
  3
AutoCAD 2000
 90
        0
280
     1
281
     0
  0
CLASS
  1
LWPOLYLINE
  2
AcDbPolyline
  3
"AutoCAD"
 90
        0
280
     1
281
     1
  0
CLASS
  1
HATCH
  2
AcDbHatch
  3
"ACAD_SEDONA"
 90
        0
280
     1
281
     1
  0
CLASS
  1
XRECORD
  2
AcDbXrecord
  3
"<Built In>"
 90
        0
280
     0
281
     0
  0
ENDSEC
  0
SECTION
  2
TABLES
  0
TABLE
  2
VPORT
  5
DE
100
AcDbSymbolTable
 70
     1
  0
VPORT
  5
EE
100
AcDbSymbolTableRecord
100
AcDbViewportTableRecord
  2
*ACTIVE
 70
     0
 10
0.0
 20
0.0
 11
1.0
 21
1.0
 12
-13.31772001544309
 22
-44.84390034627383
 13
0.0
 23
0.0
 14
1.0
 24
1.0
 15
0.0
 25
0.0
 16
0.0
 26
0.0
 36
1.0
 17
19.36309421033953
 27
53.25326149505883
 37
10.18021917006588
 40
16.93650287213909
 41
1.457627118644067
 42
50.0
 43
-103.2099474547936
 44
-103.2099474547936
 50
0.0
 51
0.0
 71
     0
 72
   100
 73
     1
 74
     1
 75
     0
 76
     0
 77
     0
 78
     0
  0
ENDTAB
  0
TABLE
  2
LTYPE
  5
DA
100
AcDbSymbolTable
 70
     2
  0
LTYPE
  5
DB
100
AcDbSymbolTableRecord
100
AcDbLinetypeTableRecord
  2
BYBLOCK
 70
     0
  3

 72
    65
 73
     0
 40
0.0
  0
LTYPE
  5
8
100
AcDbSymbolTableRecord
100
AcDbLinetypeTableRecord
  2
BYLAYER
 70
     0
  3

 72
    65
 73
     0
 40
0.0
  0
LTYPE
  5
7
100
AcDbSymbolTableRecord
100
AcDbLinetypeTableRecord
  2
CONTINUOUS
 70
     0
  3
Solid line
 72
    65
 73
     0
 40
0.0
  0
LTYPE
  5
1D
100
AcDbSymbolTableRecord
100
AcDbLinetypeTableRecord
  2
HIDDEN
 70
     0
  3
Hidden __ __ __ __ __ __ __ __ __ __ __ __ __ _
 72
    65
 73
     2
 40
0.375
 49
0.25
 74
     0
 49
-0.125
 74
     0
  0
ENDTAB
  0
TABLE
  2
LAYER
  5
D8
100
AcDbSymbolTable
 70
     5
  0
LAYER
  5
4F
102
{ACAD_XDICTIONARY
360
50
102
}
100
AcDbSymbolTableRecord
100
AcDbLayerTableRecord
  2
0
 70
     0
 62
     7
  6
CONTINUOUS
  0
LAYER
  5
15
102
{ACAD_XDICTIONARY
360
16
102
}
100
AcDbSymbolTableRecord
100
AcDbLayerTableRecord
  2
USP-GEO
 70
     0
 62
     7
  6
CONTINUOUS
  0
LAYER
  5
4
102
{ACAD_XDICTIONARY
360
5
102
}
100
AcDbSymbolTableRecord
100
AcDbLayerTableRecord
  2
USP-TXT
 70
     0
 62
     7
  6
CONTINUOUS
  0
LAYER
  5
1B
102
{ACAD_XDICTIONARY
360
1C
102
}
100
AcDbSymbolTableRecord
100
AcDbLayerTableRecord
  2
USP-HID
 70
     0
 62
     7
  6
HIDDEN
  0
LAYER
  5
11
100
AcDbSymbolTableRecord
100
AcDbLayerTableRecord
  2
USP
 70
     0
 62
     7
  6
CONTINUOUS
  0
ENDTAB
  0
TABLE
  2
STYLE
  5
D9
100
AcDbSymbolTable
 70
     1
  0
STYLE
  5
9
100
AcDbSymbolTableRecord
100
AcDbTextStyleTableRecord
  2
STANDARD
 70
     0
 40
0.0
 41
1.0
 50
0.0
 71
     0
 42
0.5
  3
txt
  4

  0
ENDTAB
  0
TABLE
  2
VIEW
  5
DC
100
AcDbSymbolTable
 70
     0
  0
ENDTAB
  0
TABLE
  2
UCS
  5
DD
100
AcDbSymbolTable
 70
     0
  0
ENDTAB
  0
TABLE
  2
APPID
  5
E1
100
AcDbSymbolTable
 70
     1
  0
APPID
  5
6
100
AcDbSymbolTableRecord
100
AcDbRegAppTableRecord
  2
ACAD
 70
     0
  0
ENDTAB
  0
TABLE
  2
DIMSTYLE
  5
E2
100
AcDbSymbolTable
 70
     1
  0
DIMSTYLE
105
E9
102
{ACAD_XDICTIONARY
360
EA
102
}
100
AcDbSymbolTableRecord
100
AcDbDimStyleTableRecord
  2
FRACTIONAL
 70
     0
  3

  4

  5

  6

  7

 40
4.0
 41
0.09375
 42
0.0625
 43
0.38
 44
0.09375
 45
0.0
 46
0.0
 47
0.0
 48
0.0
140
0.09375
141
0.0
142
0.0
143
25.4
144
1.0
145
0.0
146
1.0
147
0.09
 71
     0
 72
     0
 73
     1
 74
     1
 75
     0
 76
     0
 77
     0
 78
     0
170
     0
171
     2
172
     0
173
     0
174
     0
175
     0
176
     0
177
     0
178
     0
270
     7
271
     4
272
     4
273
     2
274
     2
340
9
275
     0
280
     0
281
     0
282
     0
283
     1
284
     0
285
     0
286
     0
287
     3
288
     0
  0
ENDTAB
  0
TABLE
  2
BLOCK_RECORD
  5
1
100
AcDbSymbolTable
 70
     3
  0
BLOCK_RECORD
  5
2
102
{ACAD_XDICTIONARY
360
D1
102
}
100
AcDbSymbolTableRecord
100
AcDbBlockTableRecord
  2
*MODEL_SPACE
  0
BLOCK_RECORD
  5
D4
102
{ACAD_XDICTIONARY
360
D5
102
}
100
AcDbSymbolTableRecord
100
AcDbBlockTableRecord
  2
*PAPER_SPACE
  0
BLOCK_RECORD
  5
12
100
AcDbSymbolTableRecord
100
AcDbBlockTableRecord
  2
LPTA_T
  0
BLOCK_RECORD
  5
53
100
AcDbSymbolTableRecord
100
AcDbBlockTableRecord
  2
LPTA_F
  0
BLOCK_RECORD
  5
98
100
AcDbSymbolTableRecord
100
AcDbBlockTableRecord
  2
LPTA_S
  0
ENDTAB
  0
ENDSEC
  0
SECTION
  2
BLOCKS
  0
BLOCK
  5
D2
100
AcDbEntity
  8
0
100
AcDbBlockBegin
  2
*MODEL_SPACE
 70
     0
 10
0.0
 20
0.0
 30
0.0
  3
*MODEL_SPACE
  1

  0
ENDBLK
  5
D3
100
AcDbEntity
  8
0
100
AcDbBlockEnd
  0
BLOCK
  5
D6
100
AcDbEntity
 67
     1
  8
0
100
AcDbBlockBegin
  2
*PAPER_SPACE
 70
     0
 10
0.0
 20
0.0
 30
0.0
  3
*PAPER_SPACE
  1

  0
ENDBLK
  5
D7
100
AcDbEntity
 67
     1
  8
0
100
AcDbBlockEnd
  0
BLOCK
  5
4E
100
AcDbEntity
  8
0
100
AcDbBlockBegin
  2
LPTA_T
 70
     0
 10
0.0
 20
0.0
 30
0.0
  3
LPTA_T
  1

  0
TEXT
  5
13
100
AcDbEntity
  8
USP-TXT
100
AcDbText
 10
0.6249999999999854
 20
-1.338031017331545
 30
0.0
 40
0.25
  1
LPTA - TOP VIEW
 72
     1
 11
2.499999999999985
 21
-1.338031017331545
 31
0.0
100
AcDbText
  0
LINE
  5
14
100
AcDbEntity
  8
USP-GEO
100
AcDbLine
 10
2.50000194518823
 20
1.174626533400299
 30
0.0
 11
2.21229665058054
 21
1.75
 31
0.0
  0
LINE
  5
17
100
AcDbEntity
  8
USP-GEO
100
AcDbLine
 10
2.90625
 20
0.0000000000000142
 30
0.0
 11
2.093749999999985
 21
0.0
 31
0.0
  0
LINE
  5
18
100
AcDbEntity
  8
USP-GEO
100
AcDbLine
 10
0.4062499999999858
 20
1.749999999999857
 30
0.0
 11
4.59375
 21
1.749999999999701
 31
0.0
  0
LINE
  5
19
100
AcDbEntity
  8
USP-GEO
100
AcDbLine
 10
0.4062499999999858
 20
1.80199999999985
 30
0.0
 11
4.593749999999985
 21
1.801999999999694
 31
0.0
  0
LINE
  5
1A
100
AcDbEntity
  8
USP-HID
100
AcDbLine
 10
2.250000000000056
 20
1.75
 30
0.0
 11
2.500000000000056
 21
1.25
 31
0.0
  0
LINE
  5
1E
100
AcDbEntity
  8
USP-HID
100
AcDbLine
 10
2.499985755087479
 20
1.801971509991091
 30
0.0
 11
2.250000000000056
 21
1.801965058691891
 31
0.0
  0
LINE
  5
1F
100
AcDbEntity
  8
USP-GEO
100
AcDbLine
 10
0.09375
 20
1.749999999999872
 30
0.0
 11
0.4062499999999858
 21
1.749999999999857
 31
0.0
  0
LINE
  5
20
100
AcDbEntity
  8
USP-GEO
100
AcDbLine
 10
0.4062499999999858
 20
1.80199999999985
 30
0.0
 11
0.0937499999999858
 21
1.801999999999864
 31
0.0
  0
LINE
  5
21
100
AcDbEntity
  8
USP-GEO
100
AcDbLine
 10
0.0000000000000142
 20
1.749999999999914
 30
0.0
 11
0.0937500000000142
 21
1.749999999999914
 31
0.0
  0
LINE
  5
22
100
AcDbEntity
  8
USP-GEO
100
AcDbLine
 10
0.0
 20
1.801999999999907
 30
0.0
 11
0.0
 21
1.749999999999914
 31
0.0
  0
LINE
  5
23
100
AcDbEntity
  8
USP-GEO
100
AcDbLine
 10
0.0
 20
1.801999999999907
 30
0.0
 11
0.09375
 21
1.801999999999907
 31
0.0
  0
LINE
  5
24
100
AcDbEntity
  8
USP-GEO
100
AcDbLine
 10
0.0937499999999858
 20
1.801999999999878
 30
0.0
 11
0.0937499999999858
 21
1.749999999999886
 31
0.0
  0
LINE
  5
25
100
AcDbEntity
  8
USP-HID
100
AcDbLine
 10
0.1250000000000284
 20
1.801999999999964
 30
0.0
 11
0.1250000000000284
 21
1.749999999999971
 31
0.0
  0
LINE
  5
26
100
AcDbEntity
  8
USP-GEO
100
AcDbLine
 10
1.781250000000014
 20
0.3125000000000568
 30
0.0
 11
1.781250000000042
 21
1.75
 31
0.0
  0
LINE
  5
27
100
AcDbEntity
  8
USP-GEO
100
AcDbLine
 10
2.093749999999985
 20
0.0
 30
0.0
 11
1.781250000000014
 21
0.3125000000000568
 31
0.0
  0
LINE
  5
28
100
AcDbEntity
  8
USP-GEO
100
AcDbLine
 10
0.4062499999999858
 20
1.80199999999985
 30
0.0
 11
0.4062499999999858
 21
1.749999999999857
 31
0.0
  0
LINE
  5
29
100
AcDbEntity
  8
USP-HID
100
AcDbLine
 10
0.4064999999999941
 20
1.801999999999878
 30
0.0
 11
0.4064999999999941
 21
1.749999999999886
 31
0.0
  0
LINE
  5
2A
100
AcDbEntity
  8
USP-HID
100
AcDbLine
 10
0.593500000000006
 20
1.801999999999878
 30
0.0
 11
0.593500000000006
 21
1.749999999999886
 31
0.0
  0
LINE
  5
2B
100
AcDbEntity
  8
USP-HID
100
AcDbLine
 10
1.406499999999979
 20
1.801999999999821
 30
0.0
 11
1.406499999999979
 21
1.749999999999829
 31
0.0
  0
LINE
  5
2C
100
AcDbEntity
  8
USP-HID
100
AcDbLine
 10
1.593499999999991
 20
1.801999999999821
 30
0.0
 11
1.593499999999991
 21
1.749999999999829
 31
0.0
  0
LINE
  5
2D
100
AcDbEntity
  8
USP-HID
100
AcDbLine
 10
1.781250000000028
 20
1.801999999999935
 30
0.0
 11
1.781250000000028
 21
1.749999999999943
 31
0.0
  0
LINE
  5
2E
100
AcDbEntity
  8
USP-HID
100
AcDbLine
 10
1.687500000000056
 20
1.801999999999964
 30
0.0
 11
1.687500000000056
 21
1.749999999999971
 31
0.0
  0
LINE
  5
2F
100
AcDbEntity
  8
USP-HID
100
AcDbLine
 10
2.250000000000056
 20
1.801999999999992
 30
0.0
 11
2.250000000000056
 21
1.801965058691877
 31
0.0
  0
LINE
  5
30
100
AcDbEntity
  8
USP-HID
100
AcDbLine
 10
2.250000000000056
 20
1.801965058691862
 30
0.0
 11
2.250000000000056
 21
1.749999999999985
 31
0.0
  0
LINE
  5
31
100
AcDbEntity
  8
USP-GEO
100
AcDbLine
 10
2.50000194518823
 20
1.174626533400299
 30
0.0
 11
2.499987096333555
 21
1.749999999999985
 31
0.0
  0
LINE
  5
32
100
AcDbEntity
  8
USP-GEO
100
AcDbLine
 10
2.787670117659203
 20
1.749999999999971
 30
0.0
 11
2.50000194518823
 21
1.174626533400299
 31
0.0
  0
LINE
  5
33
100
AcDbEntity
  8
USP-GEO
100
AcDbLine
 10
3.218750000000056
 20
1.749999999999943
 30
0.0
 11
3.218750000000014
 21
0.3124999999999432
 31
0.0
  0
LINE
  5
34
100
AcDbEntity
  8
USP-HID
100
AcDbLine
 10
2.749987096250293
 20
1.750006451666678
 30
0.0
 11
2.500000000000099
 21
1.249999999999985
 31
0.0
  0
LINE
  5
35
100
AcDbEntity
  8
USP-GEO
100
AcDbLine
 10
3.218749999999971
 20
0.3124999999999432
 30
0.0
 11
2.906250000000014
 21
-0.0000000000000142
 31
0.0
  0
LINE
  5
36
100
AcDbEntity
  8
USP-HID
100
AcDbLine
 10
2.406499999999994
 20
1.801999999999793
 30
0.0
 11
2.406499999999994
 21
1.749999999999801
 31
0.0
  0
LINE
  5
37
100
AcDbEntity
  8
USP-HID
100
AcDbLine
 10
2.593500000000005
 20
1.801999999999793
 30
0.0
 11
2.593500000000005
 21
1.749999999999801
 31
0.0
  0
LINE
  5
38
100
AcDbEntity
  8
USP-HID
100
AcDbLine
 10
2.750000000000056
 20
1.801999999999992
 30
0.0
 11
2.750000000000056
 21
1.801992206653608
 31
0.0
  0
LINE
  5
39
100
AcDbEntity
  8
USP-HID
100
AcDbLine
 10
3.312500000000042
 20
1.801999999999907
 30
0.0
 11
3.312500000000042
 21
1.749999999999886
 31
0.0
  0
LINE
  5
3A
100
AcDbEntity
  8
USP-HID
100
AcDbLine
 10
3.218750000000042
 20
1.801999999999907
 30
0.0
 11
3.218750000000042
 21
1.749999999999886
 31
0.0
  0
LINE
  5
3B
100
AcDbEntity
  8
USP-HID
100
AcDbLine
 10
2.749997849490696
 20
1.74999569898128
 30
0.0
 11
2.750000000000042
 21
1.749999999999971
 31
0.0
  0
LINE
  5
3C
100
AcDbEntity
  8
USP-HID
100
AcDbLine
 10
2.750000000000056
 20
1.749999999999957
 30
0.0
 11
2.750000000000056
 21
1.801992206653594
 31
0.0
  0
LINE
  5
3D
100
AcDbEntity
  8
USP-HID
100
AcDbLine
 10
2.750000000000056
 20
1.801992206653594
 30
0.0
 11
2.749997402128542
 21
1.801999999999964
 31
0.0
  0
LINE
  5
3E
100
AcDbEntity
  8
USP-HID
100
AcDbLine
 10
2.749997849490711
 20
1.74999569898128
 30
0.0
 11
2.749987096250308
 21
1.750006451666678
 31
0.0
  0
LINE
  5
3F
100
AcDbEntity
  8
USP-HID
100
AcDbLine
 10
2.749987096250308
 20
1.750006451666692
 30
0.0
 11
2.749985754435485
 21
1.801999999999978
 31
0.0
  0
LINE
  5
40
100
AcDbEntity
  8
USP-HID
100
AcDbLine
 10
2.499992877176126
 20
1.801999999999964
 30
0.0
 11
2.499985755087479
 21
1.801971509991091
 31
0.0
  0
LINE
  5
41
100
AcDbEntity
  8
USP-HID
100
AcDbLine
 10
2.499987096333541
 20
1.749999999999971
 30
0.0
 11
2.499985755087479
 21
1.801971509991076
 31
0.0
  0
LINE
  5
42
100
AcDbEntity
  8
USP-HID
100
AcDbLine
 10
3.406499999999979
 20
1.801999999999736
 30
0.0
 11
3.406499999999979
 21
1.749999999999744
 31
0.0
  0
LINE
  5
43
100
AcDbEntity
  8
USP-HID
100
AcDbLine
 10
3.593499999999991
 20
1.801999999999736
 30
0.0
 11
3.593499999999991
 21
1.749999999999744
 31
0.0
  0
LINE
  5
44
100
AcDbEntity
  8
USP-GEO
100
AcDbLine
 10
4.906250000000028
 20
1.749999999999744
 30
0.0
 11
5.000000000000014
 21
1.749999999999744
 31
0.0
  0
LINE
  5
45
100
AcDbEntity
  8
USP-GEO
100
AcDbLine
 10
4.59375
 20
1.749999999999687
 30
0.0
 11
4.90625
 21
1.749999999999687
 31
0.0
  0
LINE
  5
46
100
AcDbEntity
  8
USP-GEO
100
AcDbLine
 10
4.593749999999985
 20
1.801999999999679
 30
0.0
 11
4.593749999999985
 21
1.749999999999687
 31
0.0
  0
LINE
  5
47
100
AcDbEntity
  8
USP-GEO
100
AcDbLine
 10
4.906249999999985
 20
1.801999999999679
 30
0.0
 11
4.906249999999985
 21
1.749999999999687
 31
0.0
  0
LINE
  5
48
100
AcDbEntity
  8
USP-GEO
100
AcDbLine
 10
4.593749999999985
 20
1.801999999999679
 30
0.0
 11
4.906249999999985
 21
1.801999999999679
 31
0.0
  0
LINE
  5
49
100
AcDbEntity
  8
USP-GEO
100
AcDbLine
 10
5.000000000000014
 20
1.801999999999736
 30
0.0
 11
5.000000000000014
 21
1.749999999999744
 31
0.0
  0
LINE
  5
4A
100
AcDbEntity
  8
USP-GEO
100
AcDbLine
 10
4.906250000000028
 20
1.801999999999736
 30
0.0
 11
5.000000000000014
 21
1.801999999999736
 31
0.0
  0
LINE
  5
4B
100
AcDbEntity
  8
USP-HID
100
AcDbLine
 10
4.406499999999979
 20
1.801999999999708
 30
0.0
 11
4.406499999999979
 21
1.749999999999715
 31
0.0
  0
LINE
  5
4C
100
AcDbEntity
  8
USP-HID
100
AcDbLine
 10
4.593499999999991
 20
1.801999999999708
 30
0.0
 11
4.593499999999991
 21
1.749999999999715
 31
0.0
  0
LINE
  5
4D
100
AcDbEntity
  8
USP-HID
100
AcDbLine
 10
4.875000000000028
 20
1.801999999999793
 30
0.0
 11
4.875000000000028
 21
1.749999999999772
 31
0.0
  0
ENDBLK
  5
51
100
AcDbEntity
  8
0
100
AcDbBlockEnd
  0
BLOCK
  5
95
100
AcDbEntity
  8
0
100
AcDbBlockBegin
  2
LPTA_F
 70
     0
 10
0.0
 20
0.0
 30
0.0
  3
LPTA_F
  1

  0
LINE
  5
54
100
AcDbEntity
  8
USP-GEO
100
AcDbLine
 10
3.218750000000014
 20
2.677000000000091
 30
0.0
 11
3.218750000000014
 21
2.114500000000091
 31
0.0
  0
LINE
  5
55
100
AcDbEntity
  8
USP-GEO
100
AcDbLine
 10
1.781250000000014
 20
2.114500000000077
 30
0.0
 11
1.781250000000014
 21
2.677000000000063
 31
0.0
  0
TEXT
  5
56
100
AcDbEntity
  8
USP-TXT
100
AcDbText
 10
0.3749999999999574
 20
-1.729250035356258
 30
0.0
 40
0.25
  1
LPTA - FRONT VIEW
 72
     1
 11
2.499999999999957
 21
-1.729250035356258
 31
0.0
100
AcDbText
  0
LINE
  5
57
100
AcDbEntity
  8
USP-GEO
100
AcDbLine
 10
2.212296650580512
 20
0.0520000000000351
 30
0.0
 11
2.499987096333541
 21
0.6273734667912266
 31
0.0
  0
LINE
  5
58
100
AcDbEntity
  8
USP-GEO
100
AcDbLine
 10
2.906249999999971
 20
0.0519999999999925
 30
0.0
 11
2.093749999999957
 21
0.0519999999999925
 31
0.0
  0
LINE
  5
59
100
AcDbEntity
  8
USP-GEO
100
AcDbLine
 10
2.093749999999957
 20
0.0
 30
0.0
 11
2.906249999999971
 21
0.0
 31
0.0
  0
LINE
  5
5A
100
AcDbEntity
  8
USP-HID
100
AcDbLine
 10
2.250000000000028
 20
0.000032259166332
 30
0.0
 11
2.500000000000042
 21
0.0000000000000711
 31
0.0
  0
LINE
  5
5B
100
AcDbEntity
  8
USP-HID
100
AcDbLine
 10
2.49998575508745
 20
0.5519715101749228
 30
0.0
 11
2.250000000000028
 21
0.0520000000000636
 31
0.0
  0
LINE
  5
5C
100
AcDbEntity
  8
USP-GEO
100
AcDbLine
 10
2.093749999999957
 20
0.0519999999999925
 30
0.0
 11
1.781249999999985
 21
0.0519999999999925
 31
0.0
  0
LINE
  5
5D
100
AcDbEntity
  8
USP-GEO
100
AcDbLine
 10
1.781249999999985
 20
0.0
 30
0.0
 11
2.093749999999957
 21
0.0
 31
0.0
  0
LINE
  5
5E
100
AcDbEntity
  8
USP-GEO
100
AcDbLine
 10
2.093749999999957
 20
0.0
 30
0.0
 11
2.093749999999957
 21
0.0519999999999925
 31
0.0
  0
LINE
  5
5F
100
AcDbEntity
  8
USP-GEO
100
AcDbLine
 10
1.781249999999985
 20
0.0
 30
0.0
 11
1.781249999999985
 21
0.0519999999999925
 31
0.0
  0
LINE
  5
60
100
AcDbEntity
  8
USP-GEO
100
AcDbLine
 10
1.687500000000028
 20
2.114500000000091
 30
0.0
 11
1.781250000000014
 21
2.114500000000106
 31
0.0
  0
LINE
  5
61
100
AcDbEntity
  8
USP-GEO
100
AcDbLine
 10
1.687500000000042
 20
0.4895000000000778
 30
0.0
 11
1.687500000000028
 21
2.114500000000091
 31
0.0
  0
LINE
  5
62
100
AcDbEntity
  8
USP-GEO
100
AcDbLine
 10
1.781250000000028
 20
0.4895000000000636
 30
0.0
 11
1.687500000000042
 21
0.4895000000000778
 31
0.0
  0
LINE
  5
63
100
AcDbEntity
  8
USP-GEO
100
AcDbLine
 10
1.781250000000028
 20
0.0520000000000351
 30
0.0
 11
1.781250000000028
 21
0.4895000000000778
 31
0.0
  0
LINE
  5
64
100
AcDbEntity
  8
USP-HID
100
AcDbLine
 10
2.250000000000028
 20
0.0000322591663178
 30
0.0
 11
2.250000000000028
 21
0.0000000000000426
 31
0.0
  0
LINE
  5
65
100
AcDbEntity
  8
USP-HID
100
AcDbLine
 10
2.250000000000028
 20
0.0520000000000636
 30
0.0
 11
2.250000000000028
 21
0.000032259166332
 31
0.0
  0
LINE
  5
66
100
AcDbEntity
  8
USP-GEO
100
AcDbLine
 10
2.500001945188202
 20
0.0520000000000209
 30
0.0
 11
2.499987096333526
 21
0.6273734667912266
 31
0.0
  0
LINE
  5
67
100
AcDbEntity
  8
USP-GEO
100
AcDbLine
 10
2.499987096333526
 20
0.6273734667912266
 30
0.0
 11
2.787670117659175
 21
0.0520000000000351
 31
0.0
  0
LINE
  5
68
100
AcDbEntity
  8
USP-GEO
100
AcDbLine
 10
3.218749999999943
 20
0.0520000000000209
 30
0.0
 11
2.906249999999985
 21
0.0520000000000067
 31
0.0
  0
LINE
  5
69
100
AcDbEntity
  8
USP-GEO
100
AcDbLine
 10
3.218749999999943
 20
0.0000000000000142
 30
0.0
 11
2.906249999999985
 21
0.0
 31
0.0
  0
LINE
  5
6A
100
AcDbEntity
  8
USP-GEO
100
AcDbLine
 10
2.906249999999971
 20
0.0
 30
0.0
 11
2.906249999999971
 21
0.0519999999999925
 31
0.0
  0
LINE
  5
6B
100
AcDbEntity
  8
USP-GEO
100
AcDbLine
 10
3.218749999999943
 20
0.0000000000000142
 30
0.0
 11
3.218749999999943
 21
0.0520000000000209
 31
0.0
  0
LINE
  5
6C
100
AcDbEntity
  8
USP-GEO
100
AcDbLine
 10
3.218750000000028
 20
0.489500000000092
 30
0.0
 11
3.218750000000028
 21
0.0520000000000494
 31
0.0
  0
LINE
  5
6D
100
AcDbEntity
  8
USP-GEO
100
AcDbLine
 10
3.312500000000014
 20
0.489500000000092
 30
0.0
 11
3.218750000000028
 21
0.489500000000092
 31
0.0
  0
LINE
  5
6E
100
AcDbEntity
  8
USP-GEO
100
AcDbLine
 10
3.312500000000014
 20
2.114500000000091
 30
0.0
 11
3.312500000000028
 21
0.489500000000092
 31
0.0
  0
LINE
  5
6F
100
AcDbEntity
  8
USP-GEO
100
AcDbLine
 10
3.218750000000014
 20
2.114500000000091
 30
0.0
 11
3.312500000000014
 21
2.114500000000091
 31
0.0
  0
LINE
  5
70
100
AcDbEntity
  8
USP-HID
100
AcDbLine
 10
2.750000000000028
 20
0.0000000000000568
 30
0.0
 11
2.750000000000028
 21
0.0000064515835589
 31
0.0
  0
LINE
  5
71
100
AcDbEntity
  8
USP-HID
100
AcDbLine
 10
2.749997849490668
 20
0.0000000000000426
 30
0.0
 11
2.750000000000014
 21
0.0000064515835589
 31
0.0
  0
LINE
  5
72
100
AcDbEntity
  8
USP-HID
100
AcDbLine
 10
2.750000000000028
 20
0.0000064515835732
 30
0.0
 11
2.750000000000028
 21
0.0520000000000636
 31
0.0
  0
LINE
  5
73
100
AcDbEntity
  8
USP-HID
100
AcDbLine
 10
2.750000000000028
 20
0.0520000000000778
 30
0.0
 11
2.749997402128514
 21
0.0520051957431065
 31
0.0
  0
LINE
  5
74
100
AcDbEntity
  8
USP-HID
100
AcDbLine
 10
2.749985754435456
 20
0.0519935483506231
 30
0.0
 11
2.749997402128514
 21
0.0520051957430923
 31
0.0
  0
LINE
  5
75
100
AcDbEntity
  8
USP-HID
100
AcDbLine
 10
2.749987096250279
 20
0.0000000000000426
 30
0.0
 11
2.749985754435456
 21
0.0519935483506231
 31
0.0
  0
LINE
  5
76
100
AcDbEntity
  8
USP-HID
100
AcDbLine
 10
2.499992877176111
 20
0.5519857543522165
 30
0.0
 11
2.749985754435456
 21
0.0519935483506231
 31
0.0
  0
LINE
  5
77
100
AcDbEntity
  8
USP-HID
100
AcDbLine
 10
2.499992877176097
 20
0.5519857543522165
 30
0.0
 11
2.49998575508745
 21
0.5519715101749228
 31
0.0
  0
LINE
  5
78
100
AcDbEntity
  8
USP-HID
100
AcDbLine
 10
2.500000000000042
 20
0.0000000000000711
 30
0.0
 11
2.49998575508745
 21
0.551971510174937
 31
0.0
  0
LINE
  5
79
100
AcDbEntity
  8
USP-GEO
100
AcDbLine
 10
0.4062499999999574
 20
8.302000000000077
 30
0.0
 11
4.593749999999971
 21
8.30200000000012
 31
0.0
  0
LINE
  5
7A
100
AcDbEntity
  8
USP-GEO
100
AcDbLine
 10
0.0937499999999858
 20
6.177000000000077
 30
0.0
 11
0.0937499999999716
 21
7.989500000000077
 31
0.0
  0
LINE
  5
7B
100
AcDbEntity
  8
USP-GEO
100
AcDbLine
 10
1.781250000000014
 20
2.677000000000063
 30
0.0
 11
0.1249999999999858
 21
4.364500000000077
 31
0.0
  0
LINE
  5
7C
100
AcDbEntity
  8
USP-GEO
100
AcDbLine
 10
0.0
 20
4.364500000000077
 30
0.0
 11
-0.0000000000000142
 21
6.177000000000077
 31
0.0
  0
LINE
  5
7D
100
AcDbEntity
  8
USP-GEO
100
AcDbLine
 10
0.1249999999999858
 20
4.364500000000077
 30
0.0
 11
0.0
 21
4.364500000000077
 31
0.0
  0
LINE
  5
7E
100
AcDbEntity
  8
USP-GEO
100
AcDbLine
 10
-0.0000000000000142
 20
6.177000000000077
 30
0.0
 11
0.0937499999999858
 21
6.177000000000077
 31
0.0
  0
CIRCLE
  5
7F
100
AcDbEntity
  8
USP-GEO
100
AcDbCircle
 10
0.4999999999999858
 20
4.614500000000077
 30
0.0
 40
0.0935
  0
CIRCLE
  5
80
100
AcDbEntity
  8
USP-GEO
100
AcDbCircle
 10
0.4999999999999858
 20
5.989500000000077
 30
0.0
 40
0.0935
  0
CIRCLE
  5
81
100
AcDbEntity
  8
USP-GEO
100
AcDbCircle
 10
1.499999999999985
 20
5.302000000000077
 30
0.0
 40
0.0935
  0
CIRCLE
  5
82
100
AcDbEntity
  8
USP-GEO
100
AcDbCircle
 10
1.499999999999985
 20
6.677000000000077
 30
0.0
 40
0.0935
  0
LINE
  5
83
100
AcDbEntity
  8
USP-GEO
100
AcDbLine
 10
0.0937499999999716
 20
7.989500000000077
 30
0.0
 11
0.4062499999999574
 21
8.302000000000077
 31
0.0
  0
CIRCLE
  5
84
100
AcDbEntity
  8
USP-GEO
100
AcDbCircle
 10
0.4999999999999716
 20
7.364500000000077
 30
0.0
 40
0.0935
  0
CIRCLE
  5
85
100
AcDbEntity
  8
USP-GEO
100
AcDbCircle
 10
1.499999999999971
 20
7.989500000000077
 30
0.0
 40
0.0935
  0
LINE
  5
86
100
AcDbEntity
  8
USP-GEO
100
AcDbLine
 10
4.906249999999971
 20
7.989500000000106
 30
0.0
 11
4.906249999999985
 21
6.177000000000077
 31
0.0
  0
LINE
  5
87
100
AcDbEntity
  8
USP-GEO
100
AcDbLine
 10
4.874999999999985
 20
4.364500000000091
 30
0.0
 11
3.218750000000014
 21
2.677000000000091
 31
0.0
  0
CIRCLE
  5
88
100
AcDbEntity
  8
USP-GEO
100
AcDbCircle
 10
2.5
 20
4.614500000000091
 30
0.0
 40
0.0935
  0
CIRCLE
  5
89
100
AcDbEntity
  8
USP-GEO
100
AcDbCircle
 10
2.499999999999985
 20
5.989500000000077
 30
0.0
 40
0.0935
  0
CIRCLE
  5
8A
100
AcDbEntity
  8
USP-GEO
100
AcDbCircle
 10
3.499999999999985
 20
5.302000000000091
 30
0.0
 40
0.0935
  0
CIRCLE
  5
8B
100
AcDbEntity
  8
USP-GEO
100
AcDbCircle
 10
3.499999999999971
 20
6.677000000000091
 30
0.0
 40
0.0935
  0
LINE
  5
8C
100
AcDbEntity
  8
USP-GEO
100
AcDbLine
 10
4.999999999999985
 20
6.177000000000091
 30
0.0
 11
5.0
 21
4.364500000000091
 31
0.0
  0
CIRCLE
  5
8D
100
AcDbEntity
  8
USP-GEO
100
AcDbCircle
 10
4.499999999999985
 20
4.614500000000106
 30
0.0
 40
0.0935
  0
LINE
  5
8E
100
AcDbEntity
  8
USP-GEO
100
AcDbLine
 10
5.0
 20
4.364500000000091
 30
0.0
 11
4.874999999999985
 21
4.364500000000077
 31
0.0
  0
LINE
  5
8F
100
AcDbEntity
  8
USP-GEO
100
AcDbLine
 10
4.90625
 20
6.177000000000077
 30
0.0
 11
4.999999999999985
 21
6.177000000000091
 31
0.0
  0
CIRCLE
  5
90
100
AcDbEntity
  8
USP-GEO
100
AcDbCircle
 10
4.499999999999985
 20
5.989500000000106
 30
0.0
 40
0.0935
  0
CIRCLE
  5
91
100
AcDbEntity
  8
USP-GEO
100
AcDbCircle
 10
2.499999999999971
 20
7.364500000000091
 30
0.0
 40
0.0935
  0
CIRCLE
  5
92
100
AcDbEntity
  8
USP-GEO
100
AcDbCircle
 10
3.499999999999971
 20
7.989500000000091
 30
0.0
 40
0.0935
  0
LINE
  5
93
100
AcDbEntity
  8
USP-GEO
100
AcDbLine
 10
4.593749999999971
 20
8.302000000000091
 30
0.0
 11
4.906249999999971
 21
7.989500000000106
 31
0.0
  0
CIRCLE
  5
94
100
AcDbEntity
  8
USP-GEO
100
AcDbCircle
 10
4.499999999999971
 20
7.364500000000106
 30
0.0
 40
0.0935
  0
ENDBLK
  5
96
100
AcDbEntity
  8
0
100
AcDbBlockEnd
  0
BLOCK
  5
CF
100
AcDbEntity
  8
0
100
AcDbBlockBegin
  2
LPTA_S
 70
     0
 10
0.0
 20
0.0
 30
0.0
  3
LPTA_S
  1

  0
TEXT
  5
99
100
AcDbEntity
  8
USP-TXT
100
AcDbText
 10
-0.9010833333333804
 20
-1.729250035356258
 30
0.0
 40
0.25
  1
LPTA - SIDE VIEW
 72
     1
 11
1.057249999999953
 21
-1.729250035356258
 31
0.0
100
AcDbText
  0
LINE
  5
9A
100
AcDbEntity
  8
USP-GEO
100
AcDbLine
 10
1.749999999999957
 20
0.0520000000000494
 30
0.0
 11
0.3124999999999574
 21
0.0520000000000067
 31
0.0
  0
LINE
  5
9B
100
AcDbEntity
  8
USP-GEO
100
AcDbLine
 10
1.801999999999964
 20
0.0000000000000853
 30
0.0
 11
0.3124999999999574
 21
0.0000000000000426
 31
0.0
  0
LINE
  5
9C
100
AcDbEntity
  8
USP-GEO
100
AcDbLine
 10
0.3124999999999574
 20
0.0520000000000209
 30
0.0
 11
0.0
 21
0.0520000000000067
 31
0.0
  0
LINE
  5
9D
100
AcDbEntity
  8
USP-GEO
100
AcDbLine
 10
0.3124999999999574
 20
0.0000000000000142
 30
0.0
 11
0.0
 21
0.0
 31
0.0
  0
LINE
  5
9E
100
AcDbEntity
  8
USP-GEO
100
AcDbLine
 10
0.0000000000000142
 20
0.0
 30
0.0
 11
0.0000000000000142
 21
0.0519999999999925
 31
0.0
  0
LINE
  5
9F
100
AcDbEntity
  8
USP-GEO
100
AcDbLine
 10
0.3124999999999574
 20
0.0000000000000142
 30
0.0
 11
0.3124999999999574
 21
0.0520000000000209
 31
0.0
  0
LINE
  5
A0
100
AcDbEntity
  8
USP-GEO
100
AcDbLine
 10
1.7499999999999
 20
2.677000000000091
 30
0.0
 11
1.749999999999914
 21
2.114500000000091
 31
0.0
  0
LINE
  5
A1
100
AcDbEntity
  8
USP-GEO
100
AcDbLine
 10
1.801999999999907
 20
2.677000000000091
 30
0.0
 11
1.801999999999921
 21
2.114500000000091
 31
0.0
  0
LINE
  5
A2
100
AcDbEntity
  8
USP-GEO
100
AcDbLine
 10
1.174626533400299
 20
0.0520000000000209
 30
0.0
 11
1.749999999999971
 21
0.6273734667912266
 31
0.0
  0
LINE
  5
A3
100
AcDbEntity
  8
USP-GEO
100
AcDbLine
 10
1.749999999999943
 20
0.489500000000092
 30
0.0
 11
1.749999999999957
 21
0.0520000000000494
 31
0.0
  0
LINE
  5
A4
100
AcDbEntity
  8
USP-GEO
100
AcDbLine
 10
1.7499999999999
 20
2.114500000000091
 30
0.0
 11
1.749999999999943
 21
0.489500000000092
 31
0.0
  0
LINE
  5
A5
100
AcDbEntity
  8
USP-GEO
100
AcDbLine
 10
1.801999999999907
 20
2.114500000000106
 30
0.0
 11
1.7499999999999
 21
2.114500000000106
 31
0.0
  0
LINE
  5
A6
100
AcDbEntity
  8
USP-GEO
100
AcDbLine
 10
1.801999999999949
 20
0.4895000000001062
 30
0.0
 11
1.749999999999943
 21
0.4895000000001062
 31
0.0
  0
LINE
  5
A7
100
AcDbEntity
  8
USP-GEO
100
AcDbLine
 10
1.801999999999907
 20
2.114500000000106
 30
0.0
 11
1.801999999999949
 21
0.4895000000001062
 31
0.0
  0
LINE
  5
A8
100
AcDbEntity
  8
USP-GEO
100
AcDbLine
 10
1.801999999999949
 20
0.489500000000092
 30
0.0
 11
1.801999999999964
 21
0.0000000000000853
 31
0.0
  0
LINE
  5
A9
100
AcDbEntity
  8
USP-HID
100
AcDbLine
 10
1.801999999999992
 20
0.0520000000000636
 30
0.0
 11
1.801992206653608
 21
0.0520000000000636
 31
0.0
  0
LINE
  5
AA
100
AcDbEntity
  8
USP-HID
100
AcDbLine
 10
1.749999999999971
 20
0.0000000000000568
 30
0.0
 11
1.749999999999971
 21
0.0000064515835589
 31
0.0
  0
LINE
  5
AB
100
AcDbEntity
  8
USP-HID
100
AcDbLine
 10
1.75
 20
0.0000322591663178
 30
0.0
 11
1.75
 21
0.0000064515835589
 31
0.0
  0
LINE
  5
AC
100
AcDbEntity
  8
USP-HID
100
AcDbLine
 10
1.801992206653608
 20
0.0520000000000636
 30
0.0
 11
1.801965058691891
 21
0.0520000000000636
 31
0.0
  0
LINE
  5
AD
100
AcDbEntity
  8
USP-HID
100
AcDbLine
 10
1.801965058691891
 20
0.0520000000000636
 30
0.0
 11
1.749999999999985
 21
0.000032259166332
 31
0.0
  0
LINE
  5
AE
100
AcDbEntity
  8
USP-HID
100
AcDbLine
 10
1.75
 20
0.000032259166332
 30
0.0
 11
1.25
 21
0.0000000000000711
 31
0.0
  0
LINE
  5
AF
100
AcDbEntity
  8
USP-HID
100
AcDbLine
 10
1.801971509991105
 20
0.5519715101749228
 30
0.0
 11
1.801965058691905
 21
0.0520000000000636
 31
0.0
  0
LINE
  5
B0
100
AcDbEntity
  8
USP-HID
100
AcDbLine
 10
1.749995698981308
 20
0.0000000000000426
 30
0.0
 11
1.749999999999985
 21
0.0000064515835589
 31
0.0
  0
LINE
  5
B1
100
AcDbEntity
  8
USP-HID
100
AcDbLine
 10
1.749999999999971
 20
0.0000064515835732
 30
0.0
 11
1.801992206653594
 21
0.0520000000000636
 31
0.0
  0
LINE
  5
B2
100
AcDbEntity
  8
USP-HID
100
AcDbLine
 10
1.801992206653594
 20
0.0520000000000778
 30
0.0
 11
1.801999999999978
 21
0.0520051957431065
 31
0.0
  0
LINE
  5
B3
100
AcDbEntity
  8
USP-HID
100
AcDbLine
 10
1.750006451666692
 20
0.0000000000000426
 30
0.0
 11
1.801999999999978
 21
0.0519935483506231
 31
0.0
  0
LINE
  5
B4
100
AcDbEntity
  8
USP-HID
100
AcDbLine
 10
1.801999999999978
 20
0.5519857543522165
 30
0.0
 11
1.801971509991091
 21
0.5519715101749228
 31
0.0
  0
LINE
  5
B5
100
AcDbEntity
  8
USP-HID
100
AcDbLine
 10
1.249999999999957
 20
0.0000000000000711
 30
0.0
 11
1.801971509991076
 21
0.551971510174937
 31
0.0
  0
LINE
  5
B6
100
AcDbEntity
  8
USP-GEO
100
AcDbLine
 10
1.749999999999701
 20
7.989500000000106
 30
0.0
 11
1.749999999999744
 21
6.177000000000077
 31
0.0
  0
LINE
  5
B7
100
AcDbEntity
  8
USP-GEO
100
AcDbLine
 10
1.801999999999694
 20
7.989500000000106
 30
0.0
 11
1.801999999999736
 21
6.177000000000077
 31
0.0
  0
LINE
  5
B8
100
AcDbEntity
  8
USP-GEO
100
AcDbLine
 10
1.749999999999744
 20
6.177000000000091
 30
0.0
 11
1.749999999999786
 21
4.364500000000091
 31
0.0
  0
LINE
  5
B9
100
AcDbEntity
  8
USP-GEO
100
AcDbLine
 10
1.801999999999736
 20
6.177000000000091
 30
0.0
 11
1.801999999999779
 21
4.364500000000091
 31
0.0
  0
LINE
  5
BA
100
AcDbEntity
  8
USP-GEO
100
AcDbLine
 10
1.749999999999801
 20
4.364500000000091
 30
0.0
 11
1.7499999999999
 21
2.677000000000091
 31
0.0
  0
LINE
  5
BB
100
AcDbEntity
  8
USP-GEO
100
AcDbLine
 10
1.801999999999907
 20
2.677000000000091
 30
0.0
 11
1.7499999999999
 21
2.677000000000091
 31
0.0
  0
LINE
  5
BC
100
AcDbEntity
  8
USP-GEO
100
AcDbLine
 10
1.801999999999779
 20
4.364500000000091
 30
0.0
 11
1.749999999999772
 21
4.364500000000091
 31
0.0
  0
LINE
  5
BD
100
AcDbEntity
  8
USP-GEO
100
AcDbLine
 10
1.801999999999907
 20
2.677000000000091
 30
0.0
 11
1.801999999999807
 21
4.364500000000091
 31
0.0
  0
LINE
  5
BE
100
AcDbEntity
  8
USP-HID
100
AcDbLine
 10
1.801999999999807
 20
4.5210000000001
 30
0.0
 11
1.749999999999801
 21
4.5210000000001
 31
0.0
  0
LINE
  5
BF
100
AcDbEntity
  8
USP-GEO
100
AcDbLine
 10
1.801999999999736
 20
6.177000000000091
 30
0.0
 11
1.749999999999744
 21
6.177000000000091
 31
0.0
  0
LINE
  5
C0
100
AcDbEntity
  8
USP-HID
100
AcDbLine
 10
1.801999999999765
 20
6.770500000000097
 30
0.0
 11
1.749999999999772
 21
6.770500000000097
 31
0.0
  0
LINE
  5
C1
100
AcDbEntity
  8
USP-HID
100
AcDbLine
 10
1.801999999999779
 20
6.583500000000086
 30
0.0
 11
1.749999999999786
 21
6.583500000000086
 31
0.0
  0
LINE
  5
C2
100
AcDbEntity
  8
USP-HID
100
AcDbLine
 10
1.80199999999975
 20
6.083000000000112
 30
0.0
 11
1.749999999999758
 21
6.083000000000112
 31
0.0
  0
LINE
  5
C3
100
AcDbEntity
  8
USP-HID
100
AcDbLine
 10
1.801999999999765
 20
5.8960000000001
 30
0.0
 11
1.749999999999758
 21
5.8960000000001
 31
0.0
  0
LINE
  5
C4
100
AcDbEntity
  8
USP-HID
100
AcDbLine
 10
1.801999999999821
 20
5.395500000000097
 30
0.0
 11
1.749999999999801
 21
5.395500000000097
 31
0.0
  0
LINE
  5
C5
100
AcDbEntity
  8
USP-HID
100
AcDbLine
 10
1.801999999999821
 20
5.208500000000086
 30
0.0
 11
1.749999999999815
 21
5.208500000000086
 31
0.0
  0
LINE
  5
C6
100
AcDbEntity
  8
USP-HID
100
AcDbLine
 10
1.801999999999807
 20
4.708000000000112
 30
0.0
 11
1.749999999999801
 21
4.708000000000112
 31
0.0
  0
LINE
  5
C7
100
AcDbEntity
  8
USP-GEO
100
AcDbLine
 10
1.749999999999701
 20
8.302000000000091
 30
0.0
 11
1.749999999999701
 21
7.989500000000106
 31
0.0
  0
LINE
  5
C8
100
AcDbEntity
  8
USP-GEO
100
AcDbLine
 10
1.801999999999694
 20
8.302000000000091
 30
0.0
 11
1.749999999999701
 21
8.302000000000091
 31
0.0
  0
LINE
  5
C9
100
AcDbEntity
  8
USP-GEO
100
AcDbLine
 10
1.801999999999694
 20
7.989500000000106
 30
0.0
 11
1.749999999999701
 21
7.989500000000106
 31
0.0
  0
LINE
  5
CA
100
AcDbEntity
  8
USP-GEO
100
AcDbLine
 10
1.801999999999694
 20
8.302000000000091
 30
0.0
 11
1.801999999999694
 21
7.989500000000106
 31
0.0
  0
LINE
  5
CB
100
AcDbEntity
  8
USP-HID
100
AcDbLine
 10
1.801999999999736
 20
8.083000000000112
 30
0.0
 11
1.749999999999744
 21
8.083000000000112
 31
0.0
  0
LINE
  5
CC
100
AcDbEntity
  8
USP-HID
100
AcDbLine
 10
1.80199999999975
 20
7.8960000000001
 30
0.0
 11
1.749999999999758
 21
7.8960000000001
 31
0.0
  0
LINE
  5
CD
100
AcDbEntity
  8
USP-HID
100
AcDbLine
 10
1.801999999999722
 20
7.458000000000112
 30
0.0
 11
1.749999999999729
 21
7.458000000000112
 31
0.0
  0
LINE
  5
CE
100
AcDbEntity
  8
USP-HID
100
AcDbLine
 10
1.801999999999722
 20
7.2710000000001
 30
0.0
 11
1.749999999999729
 21
7.2710000000001
 31
0.0
  0
ENDBLK
  5
D0
100
AcDbEntity
  8
0
100
AcDbBlockEnd
  0
ENDSEC
  0
SECTION
  2
ENTITIES
  0
MTEXT
  5
3
100
AcDbEntity
  8
USP-TXT
100
AcDbMText
 10
128.4665429638337
 20
-84.25429571479538
 30
0.0
 40
0.46875
 41
0.0
 71
     9
 72
     5
  1

1001
ACAD
1000
MTEXTBEGIN
1070
    73
1070
     1
1070
    44
1040
1.0
1070
    74
1070
     0
1000
MTEXTEND
  0
MTEXT
  5
A
100
AcDbEntity
  8
USP-TXT
100
AcDbMText
 10
39.57031337000636
 20
165.3789431590327
 30
0.0
 40
0.65625
 41
0.0
 71
     9
 72
     5
  1

1001
ACAD
1000
MTEXTBEGIN
1070
    73
1070
     1
1070
    44
1040
1.0
1070
    74
1070
     0
1000
MTEXTEND
  0
MTEXT
  5
B
100
AcDbEntity
  8
USP-TXT
100
AcDbMText
 10
147.0086011731976
 20
-37.94594792637481
 30
0.0
 40
0.65625
 41
0.0
 71
     9
 72
     5
  1

1001
ACAD
1000
MTEXTBEGIN
1070
    73
1070
     1
1070
    44
1040
1.0
1070
    74
1070
     0
1000
MTEXTEND
  0
MTEXT
  5
C
100
AcDbEntity
  8
USP-TXT
100
AcDbMText
 10
141.5511436734434
 20
-35.22659398381454
 30
0.0
 40
0.65625
 41
0.0
 71
     9
 72
     5
  1

1001
ACAD
1000
MTEXTBEGIN
1070
    73
1070
     1
1070
    44
1040
1.0
1070
    74
1070
     0
1000
MTEXTEND
  0
MTEXT
  5
D
100
AcDbEntity
  8
USP-TXT
100
AcDbMText
 10
21.42159955428185
 20
-164.6546554078126
 30
0.0
 40
0.65625
 41
0.0
 71
     9
 72
     5
  1

1001
ACAD
1000
MTEXTBEGIN
1070
    73
1070
     1
1070
    44
1040
1.0
1070
    74
1070
     0
1000
MTEXTEND
  0
MTEXT
  5
E
100
AcDbEntity
  8
USP-TXT
100
AcDbMText
 10
27.20911424990607
 20
-153.356444659683
 30
0.0
 40
0.65625
 41
0.0
 71
     9
 72
     5
  1

1001
ACAD
1000
MTEXTBEGIN
1070
    73
1070
     1
1070
    44
1040
1.0
1070
    74
1070
     0
1000
MTEXTEND
  0
MTEXT
  5
F
100
AcDbEntity
  8
USP-TXT
100
AcDbMText
 10
69.11715712319416
 20
-85.07675795812906
 30
0.0
 40
0.46875
 41
0.0
 71
     1
 72
     5
  1

1001
ACAD
1000
MTEXTBEGIN
1070
    73
1070
     1
1070
    44
1040
1.0
1070
    74
1070
     0
1000
MTEXTEND
  0
INSERT
  5
10
100
AcDbEntity
  8
USP
100
AcDbBlockReference
  2
LPTA_T
 10
0.0
 20
14.35543162156189
 30
0.0
  0
INSERT
  5
52
100
AcDbEntity
  8
USP
100
AcDbBlockReference
  2
LPTA_F
 10
0.0000000000000284
 20
1.729250035356258
 30
0.0
  0
INSERT
  5
97
100
AcDbEntity
  8
USP
100
AcDbBlockReference
  2
LPTA_S
 10
9.075980881746076
 20
1.729250035356258
 30
0.0
  0
ENDSEC
  0
SECTION
  2
OBJECTS
  0
DICTIONARY
  5
E6
102
{ACAD_XDICTIONARY
360
E7
102
}
100
AcDbDictionary
  3
ACAD_GROUP
350
E4
  3
ACAD_MLINESTYLE
350
E5
1001
ACAD
1000
TREAT_AS_HARD
1070
     0
  0
DICTIONARY
  5
50
100
AcDbDictionary
280
     1
  0
DICTIONARY
  5
16
100
AcDbDictionary
280
     1
1001
ACAD
1000
TREAT_AS_HARD
1070
     1
  0
DICTIONARY
  5
5
100
AcDbDictionary
280
     1
1001
ACAD
1000
TREAT_AS_HARD
1070
     1
  0
DICTIONARY
  5
1C
100
AcDbDictionary
280
     1
1001
ACAD
1000
TREAT_AS_HARD
1070
     1
  0
DICTIONARY
  5
EA
100
AcDbDictionary
280
     1
  0
DICTIONARY
  5
D1
100
AcDbDictionary
280
     1
1001
ACAD
1000
TREAT_AS_HARD
1070
     1
  0
DICTIONARY
  5
D5
100
AcDbDictionary
280
     1
1001
ACAD
1000
TREAT_AS_HARD
1070
     1
  0
DICTIONARY
  5
E7
100
AcDbDictionary
280
     1
  0
DICTIONARY
  5
E4
102
{ACAD_REACTORS
330
E6
102
}
100
AcDbDictionary
1001
ACAD
1000
TREAT_AS_HARD
1070
     0
  0
DICTIONARY
  5
E5
102
{ACAD_REACTORS
330
E6
102
}
100
AcDbDictionary
  3
STANDARD
350
E8
1001
ACAD
1000
TREAT_AS_HARD
1070
     0
  0
MLINESTYLE
  5
E8
102
{ACAD_REACTORS
330
E5
102
}
100
AcDbMlineStyle
  2
STANDARD
 70
     0
  3

 62
     0
 51
90.0
 52
90.0
 71
     2
 49
0.5
 62
   256
  6
BYLAYER
 49
-0.5
 62
   256
  6
BYLAYER
  0
ENDSEC
  0
EOF
