  0
SECTION
  2
HEADER
  9
$ACADVER
  1
AC1014
  9
$ACADMAINTVER
 70
     8
  9
$DWGCODEPAGE
  3
ANSI_1252
  9
$INSBASE
 10
0.0
 20
0.0
 30
0.0
  9
$EXTMIN
 10
-0.1623433255366056
 20
0.0008791306759068
 30
0.0
  9
$EXTMAX
 10
25.48697377789972
 20
25.76247566510069
 30
14.37500000000007
  9
$LIMMIN
 10
0.0
 20
0.0
  9
$LIMMAX
 10
12.0
 20
9.0
  9
$ORTHOMODE
 70
     1
  9
$REGENMODE
 70
     1
  9
$FILLMODE
 70
     1
  9
$QTEXTMODE
 70
     0
  9
$MIRRTEXT
 70
     0
  9
$DRAGMODE
 70
     2
  9
$LTSCALE
 40
1.5
  9
$OSMODE
 70
     0
  9
$ATTMODE
 70
     1
  9
$TEXTSIZE
 40
0.25
  9
$TRACEWID
 40
0.05
  9
$TEXTSTYLE
  7
STANDARD
  9
$CLAYER
  8
USP
  9
$CELTYPE
  6
BYLAYER
  9
$CECOLOR
 62
   256
  9
$CELTSCALE
 40
1.0
  9
$DELOBJ
 70
     1
  9
$DISPSILH
 70
     1
  9
$DIMSCALE
 40
5.0
  9
$DIMASZ
 40
0.125
  9
$DIMEXO
 40
0.0625
  9
$DIMDLI
 40
0.38
  9
$DIMRND
 40
0.0
  9
$DIMDLE
 40
0.0
  9
$DIMEXE
 40
0.09375
  9
$DIMTP
 40
0.0
  9
$DIMTM
 40
0.0
  9
$DIMTXT
 40
0.109375
  9
$DIMCEN
 40
0.0
  9
$DIMTSZ
 40
0.0
  9
$DIMTOL
 70
     0
  9
$DIMLIM
 70
     0
  9
$DIMTIH
 70
     1
  9
$DIMTOH
 70
     1
  9
$DIMSE1
 70
     0
  9
$DIMSE2
 70
     0
  9
$DIMTAD
 70
     0
  9
$DIMZIN
 70
     8
  9
$DIMBLK
  1

  9
$DIMASO
 70
     1
  9
$DIMSHO
 70
     1
  9
$DIMPOST
  1

  9
$DIMAPOST
  1

  9
$DIMALT
 70
     0
  9
$DIMALTD
 70
     2
  9
$DIMALTF
 40
25.4
  9
$DIMLFAC
 40
1.0
  9
$DIMTOFL
 70
     0
  9
$DIMTVP
 40
0.0
  9
$DIMTIX
 70
     0
  9
$DIMSOXD
 70
     0
  9
$DIMSAH
 70
     0
  9
$DIMBLK1
  1

  9
$DIMBLK2
  1

  9
$DIMSTYLE
  2
STANDARD
  9
$DIMCLRD
 70
   256
  9
$DIMCLRE
 70
   256
  9
$DIMCLRT
 70
   256
  9
$DIMTFAC
 40
1.0
  9
$DIMGAP
 40
0.09
  9
$DIMJUST
 70
     0
  9
$DIMSD1
 70
     0
  9
$DIMSD2
 70
     0
  9
$DIMTOLJ
 70
     1
  9
$DIMTZIN
 70
     0
  9
$DIMALTZ
 70
     0
  9
$DIMALTTZ
 70
     0
  9
$DIMFIT
 70
     3
  9
$DIMUPT
 70
     1
  9
$DIMUNIT
 70
     7
  9
$DIMDEC
 70
     4
  9
$DIMTDEC
 70
     4
  9
$DIMALTU
 70
     2
  9
$DIMALTTD
 70
     2
  9
$DIMTXSTY
  7
STANDARD
  9
$DIMAUNIT
 70
     0
  9
$LUNITS
 70
     5
  9
$LUPREC
 70
     6
  9
$SKETCHINC
 40
0.1
  9
$FILLETRAD
 40
0.0
  9
$AUNITS
 70
     0
  9
$AUPREC
 70
     1
  9
$MENU
  1
CUSTOM
  9
$ELEVATION
 40
0.0
  9
$PELEVATION
 40
0.0
  9
$THICKNESS
 40
0.0
  9
$LIMCHECK
 70
     0
  9
$BLIPMODE
 70
     0
  9
$CHAMFERA
 40
0.0
  9
$CHAMFERB
 40
0.0
  9
$CHAMFERC
 40
0.0
  9
$CHAMFERD
 40
0.0
  9
$SKPOLY
 70
     0
  9
$TDCREATE
 40
2451263.621564698
  9
$TDUPDATE
 40
2453354.906918032
  9
$TDINDWG
 40
1.2463548032
  9
$TDUSRTIMER
 40
1.2463548032
  9
$USRTIMER
 70
     1
  9
$ANGBASE
 50
0.0
  9
$ANGDIR
 70
     0
  9
$PDMODE
 70
     0
  9
$PDSIZE
 40
0.0
  9
$PLINEWID
 40
0.0
  9
$COORDS
 70
     0
  9
$SPLFRAME
 70
     0
  9
$SPLINETYPE
 70
     6
  9
$SPLINESEGS
 70
     8
  9
$ATTDIA
 70
     0
  9
$ATTREQ
 70
     1
  9
$HANDLING
 70
     1
  9
$HANDSEED
  5
BA
  9
$SURFTAB1
 70
     6
  9
$SURFTAB2
 70
     6
  9
$SURFTYPE
 70
     6
  9
$SURFU
 70
     6
  9
$SURFV
 70
     6
  9
$UCSNAME
  2

  9
$UCSORG
 10
0.0
 20
0.0
 30
0.0
  9
$UCSXDIR
 10
1.0
 20
0.0
 30
0.0
  9
$UCSYDIR
 10
0.0
 20
1.0
 30
0.0
  9
$PUCSNAME
  2

  9
$PUCSORG
 10
0.0
 20
0.0
 30
0.0
  9
$PUCSXDIR
 10
1.0
 20
0.0
 30
0.0
  9
$PUCSYDIR
 10
0.0
 20
1.0
 30
0.0
  9
$USERI1
 70
     0
  9
$USERI2
 70
     0
  9
$USERI3
 70
     0
  9
$USERI4
 70
     0
  9
$USERI5
 70
     0
  9
$USERR1
 40
0.0
  9
$USERR2
 40
0.0
  9
$USERR3
 40
0.0
  9
$USERR4
 40
0.0
  9
$USERR5
 40
0.0
  9
$WORLDVIEW
 70
     1
  9
$SHADEDGE
 70
     3
  9
$SHADEDIF
 70
    70
  9
$TILEMODE
 70
     1
  9
$MAXACTVP
 70
    16
  9
$PINSBASE
 10
0.0
 20
0.0
 30
0.0
  9
$PLIMCHECK
 70
     0
  9
$PEXTMIN
 10
1.000000000000000E+20
 20
1.000000000000000E+20
 30
1.000000000000000E+20
  9
$PEXTMAX
 10
-1.000000000000000E+20
 20
-1.000000000000000E+20
 30
-1.000000000000000E+20
  9
$PLIMMIN
 10
0.0
 20
0.0
  9
$PLIMMAX
 10
12.0
 20
9.0
  9
$UNITMODE
 70
     0
  9
$VISRETAIN
 70
     0
  9
$PLINEGEN
 70
     0
  9
$PSLTSCALE
 70
     0
  9
$TREEDEPTH
 70
  3020
  9
$PICKSTYLE
 70
     1
  9
$CMLSTYLE
  2
STANDARD
  9
$CMLJUST
 70
     0
  9
$CMLSCALE
 40
1.0
  9
$PROXYGRAPHICS
 70
     1
  9
$MEASUREMENT
 70
     0
  0
ENDSEC
  0
SECTION
  2
CLASSES
  0
CLASS
  1
ACDBDICTIONARYWDFLT
  2
AcDbDictionaryWithDefault
  3
ObjectDBX Classes
 90
        0
280
     0
281
     0
  0
CLASS
  1
ACDBPLACEHOLDER
  2
AcDbPlaceHolder
  3
ObjectDBX Classes
 90
        0
280
     0
281
     0
  0
CLASS
  1
LAYOUT
  2
AcDbLayout
  3
ObjectDBX Classes
 90
        0
280
     0
281
     0
  0
CLASS
  1
DICTIONARYVAR
  2
AcDbDictionaryVar
  3
"AutoCAD"
 90
        0
280
     0
281
     0
  0
CLASS
  1
SORTENTSTABLE
  2
AcDbSortentsTable
  3
"AutoCAD"
 90
        0
280
     0
281
     0
  0
CLASS
  1
XRECORD
  2
AcDbXrecord
  3
"<Built In>"
 90
        0
280
     0
281
     0
  0
ENDSEC
  0
SECTION
  2
TABLES
  0
TABLE
  2
VPORT
  5
A8
100
AcDbSymbolTable
 70
     1
  0
VPORT
  5
A9
100
AcDbSymbolTableRecord
100
AcDbViewportTableRecord
  2
*ACTIVE
 70
     0
 10
0.0
 20
0.0
 11
1.0
 21
1.0
 12
-10.43371543131623
 22
23.15134205764653
 13
0.0
 23
0.0
 14
1.0
 24
1.0
 15
0.0
 25
0.0
 16
0.0
 26
0.0
 36
1.0
 17
23.09603071721725
 27
-10.27010416511325
 37
-10.44050274849355
 40
25.95051887614976
 41
1.379227053140096
 42
50.0
 43
10.55307667737539
 44
10.55307667737539
 50
0.0
 51
0.0
 71
     0
 72
   100
 73
     1
 74
     1
 75
     0
 76
     0
 77
     0
 78
     0
  0
ENDTAB
  0
TABLE
  2
LTYPE
  5
A3
100
AcDbSymbolTable
 70
     1
  0
LTYPE
  5
A4
100
AcDbSymbolTableRecord
100
AcDbLinetypeTableRecord
  2
BYBLOCK
 70
     0
  3

 72
    65
 73
     0
 40
0.0
  0
LTYPE
  5
A5
100
AcDbSymbolTableRecord
100
AcDbLinetypeTableRecord
  2
BYLAYER
 70
     0
  3

 72
    65
 73
     0
 40
0.0
  0
LTYPE
  5
5
100
AcDbSymbolTableRecord
100
AcDbLinetypeTableRecord
  2
CONTINUOUS
 70
     0
  3
Solid line
 72
    65
 73
     0
 40
0.0
  0
ENDTAB
  0
TABLE
  2
LAYER
  5
A1
100
AcDbSymbolTable
 70
     5
  0
LAYER
  5
34
100
AcDbSymbolTableRecord
100
AcDbLayerTableRecord
  2
0
 70
     0
 62
     7
  6
CONTINUOUS
  0
LAYER
  5
D
102
{ACAD_XDICTIONARY
360
E
102
}
100
AcDbSymbolTableRecord
100
AcDbLayerTableRecord
  2
USP-GEO
 70
     0
 62
     7
  6
CONTINUOUS
  0
LAYER
  5
8
102
{ACAD_XDICTIONARY
360
9
102
}
100
AcDbSymbolTableRecord
100
AcDbLayerTableRecord
  2
USP-TXT
 70
     0
 62
     7
  6
CONTINUOUS
  0
LAYER
  5
1F
102
{ACAD_XDICTIONARY
360
20
102
}
100
AcDbSymbolTableRecord
100
AcDbLayerTableRecord
  2
USP-HID
 70
     0
 62
     7
  6
CONTINUOUS
  0
LAYER
  5
4
100
AcDbSymbolTableRecord
100
AcDbLayerTableRecord
  2
USP
 70
     0
 62
     7
  6
CONTINUOUS
  0
ENDTAB
  0
TABLE
  2
STYLE
  5
A2
100
AcDbSymbolTable
 70
     1
  0
STYLE
  5
B
100
AcDbSymbolTableRecord
100
AcDbTextStyleTableRecord
  2
STANDARD
 70
     0
 40
0.0
 41
1.0
 50
0.0
 71
     0
 42
0.25
  3
txt
  4

  0
ENDTAB
  0
TABLE
  2
VIEW
  5
A6
100
AcDbSymbolTable
 70
     0
  0
ENDTAB
  0
TABLE
  2
UCS
  5
A7
100
AcDbSymbolTable
 70
     0
  0
ENDTAB
  0
TABLE
  2
APPID
  5
AA
100
AcDbSymbolTable
 70
     1
  0
APPID
  5
AB
100
AcDbSymbolTableRecord
100
AcDbRegAppTableRecord
  2
ACAD
 70
     0
  0
ENDTAB
  0
TABLE
  2
DIMSTYLE
  5
AC
100
AcDbSymbolTable
 70
     1
  0
DIMSTYLE
105
B4
102
{ACAD_XDICTIONARY
360
B5
102
}
100
AcDbSymbolTableRecord
100
AcDbDimStyleTableRecord
  2
STANDARD
 70
     0
  3

  4

  5

  6

  7

 40
1.0
 41
0.125
 42
0.0625
 43
0.38
 44
0.09375
 45
0.0
 46
0.0
 47
0.0
 48
0.0
140
0.109375
141
0.0
142
0.0
143
25.4
144
1.0
145
0.0
146
1.0
147
0.09
 71
     0
 72
     0
 73
     1
 74
     1
 75
     0
 76
     0
 77
     0
 78
     8
170
     0
171
     2
172
     0
173
     0
174
     0
175
     0
176
     0
177
     0
178
     0
270
     7
271
     4
272
     4
273
     2
274
     2
340
B
275
     0
280
     0
281
     0
282
     0
283
     1
284
     0
285
     0
286
     0
287
     3
288
     0
  0
ENDTAB
  0
TABLE
  2
BLOCK_RECORD
  5
1
100
AcDbSymbolTable
 70
     3
  0
BLOCK_RECORD
  5
2
102
{ACAD_XDICTIONARY
360
98
102
}
100
AcDbSymbolTableRecord
100
AcDbBlockTableRecord
  2
*MODEL_SPACE
  0
BLOCK_RECORD
  5
9C
102
{ACAD_XDICTIONARY
360
9D
102
}
100
AcDbSymbolTableRecord
100
AcDbBlockTableRecord
  2
*PAPER_SPACE
  0
BLOCK_RECORD
  5
6
100
AcDbSymbolTableRecord
100
AcDbBlockTableRecord
  2
KGLT59_T
  0
BLOCK_RECORD
  5
37
100
AcDbSymbolTableRecord
100
AcDbBlockTableRecord
  2
KGLT59_F
  0
BLOCK_RECORD
  5
74
100
AcDbSymbolTableRecord
100
AcDbBlockTableRecord
  2
KGLT59_S
  0
ENDTAB
  0
ENDSEC
  0
SECTION
  2
BLOCKS
  0
BLOCK
  5
9A
100
AcDbEntity
  8
0
100
AcDbBlockBegin
  2
*MODEL_SPACE
 70
     0
 10
0.0
 20
0.0
 30
0.0
  3
*MODEL_SPACE
  1

  0
ENDBLK
  5
9B
100
AcDbEntity
  8
0
100
AcDbBlockEnd
  0
BLOCK
  5
9F
100
AcDbEntity
 67
     1
  8
0
100
AcDbBlockBegin
  2
*PAPER_SPACE
 70
     0
 10
0.0
 20
0.0
 30
0.0
  3
*PAPER_SPACE
  1

  0
ENDBLK
  5
A0
100
AcDbEntity
 67
     1
  8
0
100
AcDbBlockEnd
  0
BLOCK
  5
33
100
AcDbEntity
  8
0
100
AcDbBlockBegin
  2
KGLT59_T
 70
     0
 10
0.0
 20
0.0
 30
0.0
  3
KGLT59_T
  1

  0
TEXT
  5
7
100
AcDbEntity
  8
USP-TXT
100
AcDbText
 10
0.3333333333333828
 20
-2.009831075210922
 30
0.0
 40
0.5
  1
KGLT5-9 - TOP ANGLE
 72
     1
 11
5.000000000000049
 21
-2.009831075210922
 31
0.0
100
AcDbText
  0
CIRCLE
  5
C
100
AcDbEntity
  8
USP-GEO
100
AcDbCircle
 10
0.6231603865002456
 20
7.264582021151884
 30
0.0
 40
0.1405
  0
CIRCLE
  5
10
100
AcDbEntity
  8
USP-GEO
100
AcDbCircle
 10
3.123160386500231
 20
7.264582021151898
 30
0.0
 40
0.1405
  0
CIRCLE
  5
11
100
AcDbEntity
  8
USP-GEO
100
AcDbCircle
 10
6.873160386500259
 20
7.26458202115187
 30
0.0
 40
0.1405
  0
CIRCLE
  5
12
100
AcDbEntity
  8
USP-GEO
100
AcDbCircle
 10
9.373160386500259
 20
7.26458202115187
 30
0.0
 40
0.1405
  0
LINE
  5
13
100
AcDbEntity
  8
USP-GEO
100
AcDbLine
 10
10.00000000000002
 20
7.749999999999953
 30
0.0
 11
0.0000000000000284
 21
7.749999999999978
 31
0.0
  0
LINE
  5
14
100
AcDbEntity
  8
USP-GEO
100
AcDbLine
 10
10.0
 20
4.999999999999939
 30
0.0
 11
10.0
 21
7.749999999999953
 31
0.0
  0
LINE
  5
15
100
AcDbEntity
  8
USP-GEO
100
AcDbLine
 10
0.0
 20
4.999999999999982
 30
0.0
 11
0.0000000000000075
 21
7.749999999999982
 31
0.0
  0
LINE
  5
16
100
AcDbEntity
  8
USP-GEO
100
AcDbLine
 10
0.0
 20
4.999999999999982
 30
0.0
 11
10.0
 21
4.999999999999957
 31
0.0
  0
LINE
  5
17
100
AcDbEntity
  8
USP-GEO
100
AcDbLine
 10
7.804000000000044
 20
-0.0000000000000142
 30
0.0
 11
7.625000000000028
 21
-0.0000000000000142
 31
0.0
  0
LINE
  5
18
100
AcDbEntity
  8
USP-GEO
100
AcDbLine
 10
7.804000000000058
 20
4.999999999999975
 30
0.0
 11
7.804000000000044
 21
-0.0000000000000249
 31
0.0
  0
LINE
  5
19
100
AcDbEntity
  8
USP-GEO
100
AcDbLine
 10
7.625000000000039
 20
-0.000000000000032
 30
0.0
 11
7.625000000000052
 21
4.999999999999975
 31
0.0
  0
LINE
  5
1A
100
AcDbEntity
  8
USP-GEO
100
AcDbLine
 10
2.196000000000048
 20
-0.000000000000032
 30
0.0
 11
2.196000000000061
 21
4.999999999999989
 31
0.0
  0
LINE
  5
1B
100
AcDbEntity
  8
USP-GEO
100
AcDbLine
 10
2.375000000000042
 20
0.0
 30
0.0
 11
2.196000000000026
 21
0.0
 31
0.0
  0
LINE
  5
1C
100
AcDbEntity
  8
USP-GEO
100
AcDbLine
 10
2.375000000000059
 20
4.999999999999975
 30
0.0
 11
2.375000000000047
 21
-0.0000000000000249
 31
0.0
  0
LINE
  5
1D
100
AcDbEntity
  8
USP-GEO
100
AcDbLine
 10
2.375000000000056
 20
-0.0000000000000249
 30
0.0
 11
7.625000000000042
 21
-0.0000000000000391
 31
0.0
  0
LINE
  5
1E
100
AcDbEntity
  8
USP-HID
100
AcDbLine
 10
1.109500000000028
 20
4.999999999999982
 30
0.0
 11
1.109500000000029
 21
5.249999999999975
 31
0.0
  0
LINE
  5
22
100
AcDbEntity
  8
USP-HID
100
AcDbLine
 10
1.390500000000028
 20
4.999999999999982
 30
0.0
 11
1.390500000000029
 21
5.249999999999975
 31
0.0
  0
LINE
  5
23
100
AcDbEntity
  8
USP-HID
100
AcDbLine
 10
0.2345
 20
4.999999999999989
 30
0.0
 11
0.2345000000000006
 21
5.249999999999989
 31
0.0
  0
LINE
  5
24
100
AcDbEntity
  8
USP-HID
100
AcDbLine
 10
0.5155000000000002
 20
4.999999999999968
 30
0.0
 11
0.5155000000000008
 21
5.249999999999975
 31
0.0
  0
LINE
  5
25
100
AcDbEntity
  8
USP-HID
100
AcDbLine
 10
9.484500000000029
 20
4.999999999999946
 30
0.0
 11
9.484500000000029
 21
5.249999999999939
 31
0.0
  0
LINE
  5
26
100
AcDbEntity
  8
USP-HID
100
AcDbLine
 10
9.765500000000027
 20
4.999999999999946
 30
0.0
 11
9.765500000000027
 21
5.249999999999953
 31
0.0
  0
LINE
  5
27
100
AcDbEntity
  8
USP-HID
100
AcDbLine
 10
8.609500000000014
 20
4.999999999999968
 30
0.0
 11
8.609500000000014
 21
5.249999999999968
 31
0.0
  0
LINE
  5
28
100
AcDbEntity
  8
USP-HID
100
AcDbLine
 10
8.890500000000013
 20
4.999999999999946
 30
0.0
 11
8.890500000000013
 21
5.249999999999953
 31
0.0
  0
LINE
  5
29
100
AcDbEntity
  8
USP-HID
100
AcDbLine
 10
2.196000000000083
 20
0.6404999999999248
 30
0.0
 11
2.375000000000057
 21
0.6404999999999248
 31
0.0
  0
LINE
  5
2A
100
AcDbEntity
  8
USP-HID
100
AcDbLine
 10
2.196000000000082
 20
0.3594999999999544
 30
0.0
 11
2.375000000000056
 21
0.3594999999999544
 31
0.0
  0
LINE
  5
2B
100
AcDbEntity
  8
USP-HID
100
AcDbLine
 10
7.625000000000056
 20
1.515499999999946
 30
0.0
 11
7.804000000000058
 21
1.515499999999946
 31
0.0
  0
LINE
  5
2C
100
AcDbEntity
  8
USP-HID
100
AcDbLine
 10
7.625000000000056
 20
1.234499999999975
 30
0.0
 11
7.804000000000058
 21
1.234499999999975
 31
0.0
  0
LINE
  5
2D
100
AcDbEntity
  8
USP-HID
100
AcDbLine
 10
7.625000000000028
 20
0.6404999999999319
 30
0.0
 11
7.804000000000058
 21
0.6404999999999319
 31
0.0
  0
LINE
  5
2E
100
AcDbEntity
  8
USP-HID
100
AcDbLine
 10
7.625000000000028
 20
0.3594999999999615
 30
0.0
 11
7.804000000000058
 21
0.3594999999999615
 31
0.0
  0
LINE
  5
2F
100
AcDbEntity
  8
USP-HID
100
AcDbLine
 10
2.196000000000097
 20
1.515499999999931
 30
0.0
 11
2.375000000000057
 21
1.515499999999931
 31
0.0
  0
LINE
  5
30
100
AcDbEntity
  8
USP-HID
100
AcDbLine
 10
2.196000000000096
 20
1.234499999999961
 30
0.0
 11
2.375000000000056
 21
1.234499999999961
 31
0.0
  0
LINE
  5
31
100
AcDbEntity
  8
USP-HID
100
AcDbLine
 10
0.0
 20
5.249999999999975
 30
0.0
 11
10.0
 21
5.24999999999995
 31
0.0
  0
LINE
  5
32
100
AcDbEntity
  8
USP-GEO
100
AcDbLine
 10
0.0
 20
5.249999999999975
 30
4.750000000000007
 11
10.0
 21
5.249999999999946
 31
4.750000000000007
  0
ENDBLK
  5
35
100
AcDbEntity
  8
0
100
AcDbBlockEnd
  0
BLOCK
  5
71
100
AcDbEntity
  8
0
100
AcDbBlockBegin
  2
KGLT59_F
 70
     0
 10
0.0
 20
0.0
 30
0.0
  3
KGLT59_F
  1

  0
TEXT
  5
38
100
AcDbEntity
  8
USP-TXT
100
AcDbText
 10
-0.1666666666666376
 20
-2.115230402367828
 30
0.0
 40
0.5
  1
KGLT5-9 - FRONT ANGLE
 72
     1
 11
5.000000000000028
 21
-2.115230402367828
 31
0.0
100
AcDbText
  0
LINE
  5
39
100
AcDbEntity
  8
USP-GEO
100
AcDbLine
 10
7.804000000000016
 20
8.929000000000037
 30
0.0
 11
7.625
 21
8.929000000000037
 31
0.0
  0
LINE
  5
3A
100
AcDbEntity
  8
USP-GEO
100
AcDbLine
 10
2.375000000000014
 20
8.929000000000005
 30
0.0
 11
2.195999999999997
 21
8.929000000000005
 31
0.0
  0
LINE
  5
3B
100
AcDbEntity
  8
USP-GEO
100
AcDbLine
 10
7.625000000000014
 20
0.1789999999999949
 30
0.0
 11
7.625000000000014
 21
8.929000000000037
 31
0.0
  0
LINE
  5
3C
100
AcDbEntity
  8
USP-GEO
100
AcDbLine
 10
2.375000000000027
 20
8.929000000000009
 30
0.0
 11
2.375000000000026
 21
0.1789999999999985
 31
0.0
  0
LINE
  5
3D
100
AcDbEntity
  8
USP-GEO
100
AcDbLine
 10
2.375000000000028
 20
0.1789999999999949
 30
0.0
 11
7.625000000000014
 21
0.1789999999999949
 31
0.0
  0
LINE
  5
3E
100
AcDbEntity
  8
USP-GEO
100
AcDbLine
 10
2.196000000000011
 20
8.929000000000002
 30
0.0
 11
2.19600000000001
 21
0.0
 31
0.0
  0
LINE
  5
3F
100
AcDbEntity
  8
USP-GEO
100
AcDbLine
 10
2.196000000000026
 20
0.0
 30
0.0
 11
7.80400000000003
 21
0.0
 31
0.0
  0
LINE
  5
40
100
AcDbEntity
  8
USP-GEO
100
AcDbLine
 10
7.804000000000034
 20
0.0000000000000071
 30
0.0
 11
7.80400000000003
 21
8.92900000000003
 31
0.0
  0
LINE
  5
41
100
AcDbEntity
  8
USP-GEO
100
AcDbLine
 10
9.999999999999971
 20
9.428999999999973
 30
0.0
 11
9.999999999999971
 21
5.678999999999977
 31
0.0
  0
CIRCLE
  5
42
100
AcDbEntity
  8
USP-GEO
100
AcDbCircle
 10
1.25
 20
6.803999999999973
 30
0.0
 40
0.1405
  0
CIRCLE
  5
43
100
AcDbEntity
  8
USP-GEO
100
AcDbCircle
 10
0.3749999999999716
 20
7.42899999999998
 30
0.0
 40
0.1405
  0
CIRCLE
  5
44
100
AcDbEntity
  8
USP-GEO
100
AcDbCircle
 10
0.3749999999999716
 20
6.178999999999984
 30
0.0
 40
0.1405
  0
CIRCLE
  5
45
100
AcDbEntity
  8
USP-GEO
100
AcDbCircle
 10
9.625
 20
7.428999999999973
 30
0.0
 40
0.1405
  0
CIRCLE
  5
46
100
AcDbEntity
  8
USP-GEO
100
AcDbCircle
 10
8.749999999999985
 20
6.80399999999998
 30
0.0
 40
0.1405
  0
CIRCLE
  5
47
100
AcDbEntity
  8
USP-GEO
100
AcDbCircle
 10
9.624999999999985
 20
6.178999999999987
 30
0.0
 40
0.1405
  0
LINE
  5
48
100
AcDbEntity
  8
USP-GEO
100
AcDbLine
 10
0.0
 20
5.67899999999998
 30
0.0
 11
-0.0000000000000003
 21
9.42899999999998
 31
0.0
  0
LINE
  5
49
100
AcDbEntity
  8
USP-GEO
100
AcDbLine
 10
2.196000000000008
 20
5.678999999999977
 30
0.0
 11
0.0
 21
5.678999999999977
 31
0.0
  0
LINE
  5
4A
100
AcDbEntity
  8
USP-GEO
100
AcDbLine
 10
7.625000000000005
 20
5.678999999999977
 30
0.0
 11
2.375000000000019
 21
5.678999999999977
 31
0.0
  0
LINE
  5
4B
100
AcDbEntity
  8
USP-GEO
100
AcDbLine
 10
9.999999999999985
 20
5.678999999999977
 30
0.0
 11
7.80400000000002
 21
5.678999999999977
 31
0.0
  0
LINE
  5
4C
100
AcDbEntity
  8
USP-GEO
100
AcDbLine
 10
-0.0000000000000284
 20
9.42899999999998
 30
0.0
 11
9.999999999999971
 21
9.42899999999998
 31
0.0
  0
LINE
  5
4D
100
AcDbEntity
  8
USP-HID
100
AcDbLine
 10
2.196000000000054
 20
6.506999999999989
 30
0.0
 11
2.375000000000028
 21
6.506999999999989
 31
0.0
  0
LINE
  5
4E
100
AcDbEntity
  8
USP-HID
100
AcDbLine
 10
2.196000000000054
 20
6.226000000000022
 30
0.0
 11
2.375000000000028
 21
6.226000000000022
 31
0.0
  0
LINE
  5
4F
100
AcDbEntity
  8
USP-HID
100
AcDbLine
 10
7.625000000000028
 20
7.757000000000013
 30
0.0
 11
7.80400000000003
 21
7.757000000000013
 31
0.0
  0
LINE
  5
50
100
AcDbEntity
  8
USP-HID
100
AcDbLine
 10
7.625000000000028
 20
7.476000000000047
 30
0.0
 11
7.80400000000003
 21
7.476000000000047
 31
0.0
  0
LINE
  5
51
100
AcDbEntity
  8
USP-HID
100
AcDbLine
 10
7.625
 20
7.131999999999999
 30
0.0
 11
7.80400000000003
 21
7.131999999999999
 31
0.0
  0
LINE
  5
52
100
AcDbEntity
  8
USP-HID
100
AcDbLine
 10
7.625
 20
6.851000000000032
 30
0.0
 11
7.80400000000003
 21
6.851000000000032
 31
0.0
  0
LINE
  5
53
100
AcDbEntity
  8
USP-HID
100
AcDbLine
 10
2.196000000000069
 20
7.131999999999999
 30
0.0
 11
2.375000000000028
 21
7.131999999999999
 31
0.0
  0
LINE
  5
54
100
AcDbEntity
  8
USP-HID
100
AcDbLine
 10
2.196000000000069
 20
6.851000000000032
 30
0.0
 11
2.375000000000028
 21
6.851000000000032
 31
0.0
  0
LINE
  5
55
100
AcDbEntity
  8
USP-HID
100
AcDbLine
 10
7.625000000000014
 20
2.132000000000002
 30
0.0
 11
7.804000000000016
 21
2.132000000000002
 31
0.0
  0
LINE
  5
56
100
AcDbEntity
  8
USP-HID
100
AcDbLine
 10
7.625000000000014
 20
1.851000000000002
 30
0.0
 11
7.80400000000003
 21
1.851000000000002
 31
0.0
  0
LINE
  5
57
100
AcDbEntity
  8
USP-HID
100
AcDbLine
 10
7.625000000000014
 20
4.632000000000002
 30
0.0
 11
7.804000000000016
 21
4.632000000000002
 31
0.0
  0
LINE
  5
58
100
AcDbEntity
  8
USP-HID
100
AcDbLine
 10
7.625000000000014
 20
4.351000000000001
 30
0.0
 11
7.804000000000016
 21
4.351000000000001
 31
0.0
  0
LINE
  5
59
100
AcDbEntity
  8
USP-HID
100
AcDbLine
 10
7.625000000000028
 20
2.757000000000002
 30
0.0
 11
7.80400000000003
 21
2.757000000000002
 31
0.0
  0
LINE
  5
5A
100
AcDbEntity
  8
USP-HID
100
AcDbLine
 10
7.625000000000028
 20
2.476000000000001
 30
0.0
 11
7.80400000000003
 21
2.476000000000001
 31
0.0
  0
LINE
  5
5B
100
AcDbEntity
  8
USP-HID
100
AcDbLine
 10
7.625000000000028
 20
5.257000000000005
 30
0.0
 11
7.80400000000003
 21
5.257000000000005
 31
0.0
  0
LINE
  5
5C
100
AcDbEntity
  8
USP-HID
100
AcDbLine
 10
7.625000000000028
 20
4.976000000000005
 30
0.0
 11
7.80400000000003
 21
4.976000000000005
 31
0.0
  0
LINE
  5
5D
100
AcDbEntity
  8
USP-HID
100
AcDbLine
 10
2.375000000000028
 20
3.725999999999994
 30
0.0
 11
2.196000000000026
 21
3.725999999999994
 31
0.0
  0
LINE
  5
5E
100
AcDbEntity
  8
USP-HID
100
AcDbLine
 10
2.375000000000028
 20
4.006999999999995
 30
0.0
 11
2.196000000000026
 21
4.006999999999995
 31
0.0
  0
LINE
  5
5F
100
AcDbEntity
  8
USP-HID
100
AcDbLine
 10
2.375000000000028
 20
1.225999999999998
 30
0.0
 11
2.196000000000026
 21
1.225999999999998
 31
0.0
  0
LINE
  5
60
100
AcDbEntity
  8
USP-HID
100
AcDbLine
 10
2.375000000000028
 20
1.506999999999998
 30
0.0
 11
2.196000000000026
 21
1.506999999999998
 31
0.0
  0
LINE
  5
61
100
AcDbEntity
  8
USP-HID
100
AcDbLine
 10
2.375000000000028
 20
4.350999999999991
 30
0.0
 11
2.196000000000026
 21
4.350999999999991
 31
0.0
  0
LINE
  5
62
100
AcDbEntity
  8
USP-HID
100
AcDbLine
 10
2.375000000000042
 20
4.631999999999991
 30
0.0
 11
2.19600000000004
 21
4.631999999999991
 31
0.0
  0
LINE
  5
63
100
AcDbEntity
  8
USP-HID
100
AcDbLine
 10
2.375000000000042
 20
1.850999999999995
 30
0.0
 11
2.196000000000026
 21
1.850999999999995
 31
0.0
  0
LINE
  5
64
100
AcDbEntity
  8
USP-HID
100
AcDbLine
 10
2.375000000000042
 20
2.131999999999995
 30
0.0
 11
2.19600000000004
 21
2.131999999999995
 31
0.0
  0
LINE
  5
65
100
AcDbEntity
  8
USP-HID
100
AcDbLine
 10
0.7636603865002173
 20
9.428999999999973
 30
0.0
 11
0.7636603865002173
 21
9.17899999999998
 31
0.0
  0
LINE
  5
66
100
AcDbEntity
  8
USP-HID
100
AcDbLine
 10
0.482660386500217
 20
9.42899999999998
 30
0.0
 11
0.482660386500217
 21
9.178999999999973
 31
0.0
  0
LINE
  5
67
100
AcDbEntity
  8
USP-HID
100
AcDbLine
 10
3.263660386500202
 20
9.428999999999973
 30
0.0
 11
3.263660386500202
 21
9.17899999999998
 31
0.0
  0
LINE
  5
68
100
AcDbEntity
  8
USP-HID
100
AcDbLine
 10
2.982660386500203
 20
9.42899999999998
 30
0.0
 11
2.982660386500203
 21
9.17899999999998
 31
0.0
  0
LINE
  5
69
100
AcDbEntity
  8
USP-HID
100
AcDbLine
 10
7.013660386500231
 20
9.428999999999973
 30
0.0
 11
7.013660386500231
 21
9.17899999999998
 31
0.0
  0
LINE
  5
6A
100
AcDbEntity
  8
USP-HID
100
AcDbLine
 10
6.732660386500231
 20
9.42899999999998
 30
0.0
 11
6.732660386500231
 21
9.17899999999998
 31
0.0
  0
LINE
  5
6B
100
AcDbEntity
  8
USP-HID
100
AcDbLine
 10
9.51366038650023
 20
9.428999999999973
 30
0.0
 11
9.51366038650023
 21
9.17899999999998
 31
0.0
  0
LINE
  5
6C
100
AcDbEntity
  8
USP-HID
100
AcDbLine
 10
9.232660386500231
 20
9.42899999999998
 30
0.0
 11
9.232660386500231
 21
9.17899999999998
 31
0.0
  0
LINE
  5
6D
100
AcDbEntity
  8
USP-HID
100
AcDbLine
 10
-0.0000000000000284
 20
9.178999999999987
 30
0.0
 11
9.999999999999971
 21
9.178999999999987
 31
0.0
  0
LINE
  5
6E
100
AcDbEntity
  8
USP-HID
100
AcDbLine
 10
2.375000000000019
 20
5.678999999999977
 30
0.0
 11
2.196000000000008
 21
5.678999999999977
 31
0.0
  0
LINE
  5
6F
100
AcDbEntity
  8
USP-HID
100
AcDbLine
 10
7.80400000000002
 20
5.678999999999977
 30
0.0
 11
7.625000000000005
 21
5.678999999999977
 31
0.0
  0
LINE
  5
70
100
AcDbEntity
  8
USP-GEO
100
AcDbLine
 10
-0.0000000000000284
 20
9.178999999999987
 30
4.750000000000007
 11
10.0
 21
9.17899999999998
 31
2.250000000000035
  0
ENDBLK
  5
72
100
AcDbEntity
  8
0
100
AcDbBlockEnd
  0
BLOCK
  5
96
100
AcDbEntity
  8
0
100
AcDbBlockBegin
  2
KGLT59_S
 70
     0
 10
0.0
 20
0.0
 30
0.0
  3
KGLT59_S
  1

  0
TEXT
  5
75
100
AcDbEntity
  8
USP-TXT
100
AcDbText
 10
-2.333333333333327
 20
-2.115230402367835
 30
0.0
 40
0.5
  1
KGLT5-9 - SIDE ANGLE
 72
     1
 11
2.500000000000007
 21
-2.115230402367835
 31
0.0
100
AcDbText
  0
LINE
  5
76
100
AcDbEntity
  8
USP-GEO
100
AcDbLine
 10
7.749999999999985
 20
9.428999999999966
 30
0.0
 11
7.749999999999985
 21
9.178999999999973
 31
0.0
  0
LINE
  5
77
100
AcDbEntity
  8
USP-GEO
100
AcDbLine
 10
5.249999999999971
 20
9.178999999999966
 30
0.0
 11
7.749999999999971
 21
9.178999999999961
 31
0.0
  0
LINE
  5
78
100
AcDbEntity
  8
USP-GEO
100
AcDbLine
 10
5.249999999999964
 20
5.678999999999973
 30
0.0
 11
5.249999999999971
 21
9.17899999999998
 31
0.0
  0
LINE
  5
79
100
AcDbEntity
  8
USP-GEO
100
AcDbLine
 10
4.999999999999971
 20
9.428999999999966
 30
0.0
 11
4.999999999999964
 21
5.67899999999997
 31
0.0
  0
LINE
  5
7A
100
AcDbEntity
  8
USP-GEO
100
AcDbLine
 10
4.999999999999971
 20
5.67899999999997
 30
0.0
 11
5.249999999999971
 21
5.678999999999969
 31
0.0
  0
LINE
  5
7B
100
AcDbEntity
  8
USP-GEO
100
AcDbLine
 10
4.999999999999971
 20
9.428999999999966
 30
0.0
 11
7.749999999999985
 21
9.428999999999961
 31
0.0
  0
LINE
  5
7C
100
AcDbEntity
  8
USP-GEO
100
AcDbLine
 10
5.0
 20
8.928999999999957
 30
0.0
 11
0.0
 21
8.929000000000023
 31
0.0
  0
LINE
  5
7D
100
AcDbEntity
  8
USP-GEO
100
AcDbLine
 10
0.0
 20
0.0
 30
0.0
 11
0.0000000000000142
 21
8.929000000000023
 31
0.0
  0
CIRCLE
  5
7E
100
AcDbEntity
  8
USP-GEO
100
AcDbCircle
 10
1.374999999999971
 20
7.616500000000023
 30
0.0
 40
0.1404999999999838
  0
CIRCLE
  5
7F
100
AcDbEntity
  8
USP-GEO
100
AcDbCircle
 10
0.4999999999999716
 20
6.991500000000016
 30
0.0
 40
0.1404999999999838
  0
LINE
  5
80
100
AcDbEntity
  8
USP-GEO
100
AcDbLine
 10
5.000000000000017
 20
5.67899999999997
 30
0.0
 11
5.000000000000003
 21
-0.0000000000000142
 31
0.0
  0
LINE
  5
81
100
AcDbEntity
  8
USP-GEO
100
AcDbLine
 10
5.000000000000014
 20
-0.0000000000000107
 30
0.0
 11
0.0
 21
0.0
 31
0.0
  0
CIRCLE
  5
82
100
AcDbEntity
  8
USP-GEO
100
AcDbCircle
 10
0.5
 20
1.991499999999994
 30
0.0
 40
0.1405
  0
CIRCLE
  5
83
100
AcDbEntity
  8
USP-GEO
100
AcDbCircle
 10
0.5000000000000142
 20
4.491499999999998
 30
0.0
 40
0.1405
  0
CIRCLE
  5
84
100
AcDbEntity
  8
USP-GEO
100
AcDbCircle
 10
1.375
 20
2.616499999999994
 30
0.0
 40
0.1405
  0
CIRCLE
  5
85
100
AcDbEntity
  8
USP-GEO
100
AcDbCircle
 10
1.375000000000014
 20
5.116499999999994
 30
0.0
 40
0.1405
  0
LINE
  5
86
100
AcDbEntity
  8
USP-HID
100
AcDbLine
 10
7.405082021151894
 20
9.428999999999973
 30
0.0
 11
7.405082021151894
 21
9.178999999999973
 31
0.0
  0
LINE
  5
87
100
AcDbEntity
  8
USP-HID
100
AcDbLine
 10
7.124082021151895
 20
9.428999999999973
 30
0.0
 11
7.124082021151895
 21
9.178999999999973
 31
0.0
  0
LINE
  5
88
100
AcDbEntity
  8
USP-HID
100
AcDbLine
 10
4.999999999999971
 20
7.569499999999965
 30
0.0
 11
5.249999999999971
 21
7.569499999999965
 31
0.0
  0
LINE
  5
89
100
AcDbEntity
  8
USP-HID
100
AcDbLine
 10
4.999999999999971
 20
7.288499999999967
 30
0.0
 11
5.249999999999971
 21
7.288499999999967
 31
0.0
  0
LINE
  5
8A
100
AcDbEntity
  8
USP-HID
100
AcDbLine
 10
5.0
 20
6.944499999999973
 30
0.0
 11
5.25
 21
6.944499999999973
 31
0.0
  0
LINE
  5
8B
100
AcDbEntity
  8
USP-HID
100
AcDbLine
 10
5.0
 20
6.663499999999974
 30
0.0
 11
5.25
 21
6.663499999999974
 31
0.0
  0
LINE
  5
8C
100
AcDbEntity
  8
USP-HID
100
AcDbLine
 10
4.999999999999985
 20
6.31949999999998
 30
0.0
 11
5.249999999999985
 21
6.31949999999998
 31
0.0
  0
LINE
  5
8D
100
AcDbEntity
  8
USP-HID
100
AcDbLine
 10
4.999999999999985
 20
6.038499999999981
 30
0.0
 11
5.249999999999985
 21
6.038499999999981
 31
0.0
  0
LINE
  5
8E
100
AcDbEntity
  8
USP-HID
100
AcDbLine
 10
5.000000000000014
 20
0.1789999999999896
 30
0.0
 11
0.0
 21
0.1790000000000003
 31
0.0
  0
CIRCLE
  5
8F
100
AcDbEntity
  8
USP-HID
100
AcDbCircle
 10
0.5000000000000142
 20
3.866499999999987
 30
0.0
 40
0.1405
  0
CIRCLE
  5
90
100
AcDbEntity
  8
USP-HID
100
AcDbCircle
 10
0.5000000000000142
 20
1.366499999999991
 30
0.0
 40
0.1405
  0
CIRCLE
  5
91
100
AcDbEntity
  8
USP-HID
100
AcDbCircle
 10
1.375000000000014
 20
4.491499999999984
 30
0.0
 40
0.1405
  0
CIRCLE
  5
92
100
AcDbEntity
  8
USP-HID
100
AcDbCircle
 10
1.375000000000014
 20
1.991499999999987
 30
0.0
 40
0.1405
  0
CIRCLE
  5
93
100
AcDbEntity
  8
USP-HID
100
AcDbCircle
 10
1.374999999999971
 20
6.991500000000009
 30
0.0
 40
0.1404999999999838
  0
CIRCLE
  5
94
100
AcDbEntity
  8
USP-HID
100
AcDbCircle
 10
0.4999999999999574
 20
6.366500000000002
 30
0.0
 40
0.1404999999999838
  0
LINE
  5
95
100
AcDbEntity
  8
USP-GEO
100
AcDbLine
 10
0.0
 20
0.1789999999999914
 30
14.37500000000005
 11
5.000000000000014
 21
0.1789999999999807
 31
14.37500000000007
  0
ENDBLK
  5
97
100
AcDbEntity
  8
0
100
AcDbBlockEnd
  0
ENDSEC
  0
SECTION
  2
ENTITIES
  0
INSERT
  5
3
100
AcDbEntity
  8
USP
100
AcDbBlockReference
  2
KGLT59_T
 10
0.0043233411300037
 20
18.01247566510071
 30
0.0
  0
INSERT
  5
36
100
AcDbEntity
  8
USP
100
AcDbBlockReference
  2
KGLT59_F
 10
0.0043233411300321
 20
2.116109533043735
 30
0.0
  0
INSERT
  5
73
100
AcDbEntity
  8
USP
100
AcDbBlockReference
  2
KGLT59_S
 10
17.73697377789973
 20
2.116109533043742
 30
0.0
  0
ENDSEC
  0
SECTION
  2
OBJECTS
  0
DICTIONARY
  5
B0
102
{ACAD_XDICTIONARY
360
B1
102
}
100
AcDbDictionary
  3
ACAD_GROUP
350
AE
  3
ACAD_MLINESTYLE
350
AF
  0
DICTIONARY
  5
E
100
AcDbDictionary
280
     1
  3
ACAD_XREC_ROUNDTRIP
360
F
  0
DICTIONARY
  5
9
100
AcDbDictionary
280
     1
  3
ACAD_XREC_ROUNDTRIP
360
A
  0
DICTIONARY
  5
20
100
AcDbDictionary
280
     1
  3
ACAD_XREC_ROUNDTRIP
360
21
  0
DICTIONARY
  5
B5
100
AcDbDictionary
280
     1
  3
ACAD_XREC_ROUNDTRIP
360
B6
  0
DICTIONARY
  5
98
100
AcDbDictionary
280
     1
  3
ACAD_LAYOUTSELFREF
360
99
  0
DICTIONARY
  5
9D
100
AcDbDictionary
280
     1
  3
ACAD_LAYOUTSELFREF
360
9E
  0
DICTIONARY
  5
B1
100
AcDbDictionary
280
     1
  3
ACAD_XREC_ROUNDTRIP
360
B2
  0
DICTIONARY
  5
AE
102
{ACAD_REACTORS
330
B0
102
}
100
AcDbDictionary
  0
DICTIONARY
  5
AF
102
{ACAD_REACTORS
330
B0
102
}
100
AcDbDictionary
  3
STANDARD
350
B3
  0
XRECORD
  5
F
102
{ACAD_REACTORS
330
E
102
}
100
AcDbXrecord
102
EXTNAMES
  1
USP-GEO
  2
USP-Geo
  0
XRECORD
  5
A
102
{ACAD_REACTORS
330
9
102
}
100
AcDbXrecord
102
EXTNAMES
  1
USP-TXT
  2
USP-Txt
  0
XRECORD
  5
21
102
{ACAD_REACTORS
330
20
102
}
100
AcDbXrecord
102
EXTNAMES
  1
USP-HID
  2
USP-Hid
  0
XRECORD
  5
B6
102
{ACAD_REACTORS
330
B5
102
}
100
AcDbXrecord
102
ACADR14ROUNDTRIP
1000
DSTYLE
1002
{
1070
   276
 70
     2
1070
   277
 70
     5
1002
}
  0
XRECORD
  5
99
102
{ACAD_REACTORS
330
98
102
}
100
AcDbXrecord
340
18
  0
XRECORD
  5
9E
102
{ACAD_REACTORS
330
9D
102
}
100
AcDbXrecord
340
15
  0
XRECORD
  5
B2
102
{ACAD_REACTORS
330
B1
102
}
100
AcDbXrecord
102
EXTNAMES
  1
ACADDIM
  2
AcadDim
  1
ACDBVARIABLEDICTIONARY
  2
AcDbVariableDictionary
  1
AUXHDRRNDTRIPDATA
  2
AuxHdrRndTripData
  0
MLINESTYLE
  5
B3
102
{ACAD_REACTORS
330
AF
102
}
100
AcDbMlineStyle
  2
STANDARD
 70
     0
  3

 62
     0
 51
90.0
 52
90.0
 71
     2
 49
0.5
 62
   256
  6
BYLAYER
 49
-0.5
 62
   256
  6
BYLAYER
  0
ENDSEC
  0
EOF
