  0
SECTION
  2
HEADER
  9
$ACADVER
  1
AC1014
  9
$ACADMAINTVER
 70
     8
  9
$DWGCODEPAGE
  3
ANSI_1252
  9
$INSBASE
 10
0.0
 20
0.0
 30
0.0
  9
$EXTMIN
 10
-0.4903819705464216
 20
0.0034853876682721
 30
-0.2500000000000426
  9
$EXTMAX
 10
37.71514843296602
 20
44.35815797175569
 30
0.0
  9
$LIMMIN
 10
0.0
 20
0.0
  9
$LIMMAX
 10
12.0
 20
9.0
  9
$ORTHOMODE
 70
     1
  9
$REGENMODE
 70
     1
  9
$FILLMODE
 70
     1
  9
$QTEXTMODE
 70
     0
  9
$MIRRTEXT
 70
     0
  9
$DRAGMODE
 70
     2
  9
$LTSCALE
 40
1.5
  9
$OSMODE
 70
     0
  9
$ATTMODE
 70
     1
  9
$TEXTSIZE
 40
0.25
  9
$TRACEWID
 40
0.05
  9
$TEXTSTYLE
  7
STANDARD
  9
$CLAYER
  8
USP
  9
$CELTYPE
  6
BYLAYER
  9
$CECOLOR
 62
   256
  9
$CELTSCALE
 40
1.0
  9
$DELOBJ
 70
     1
  9
$DISPSILH
 70
     1
  9
$DIMSCALE
 40
5.0
  9
$DIMASZ
 40
0.125
  9
$DIMEXO
 40
0.0625
  9
$DIMDLI
 40
0.38
  9
$DIMRND
 40
0.0
  9
$DIMDLE
 40
0.0
  9
$DIMEXE
 40
0.09375
  9
$DIMTP
 40
0.0
  9
$DIMTM
 40
0.0
  9
$DIMTXT
 40
0.109375
  9
$DIMCEN
 40
0.0
  9
$DIMTSZ
 40
0.0
  9
$DIMTOL
 70
     0
  9
$DIMLIM
 70
     0
  9
$DIMTIH
 70
     1
  9
$DIMTOH
 70
     1
  9
$DIMSE1
 70
     0
  9
$DIMSE2
 70
     0
  9
$DIMTAD
 70
     0
  9
$DIMZIN
 70
     8
  9
$DIMBLK
  1

  9
$DIMASO
 70
     1
  9
$DIMSHO
 70
     1
  9
$DIMPOST
  1

  9
$DIMAPOST
  1

  9
$DIMALT
 70
     0
  9
$DIMALTD
 70
     2
  9
$DIMALTF
 40
25.4
  9
$DIMLFAC
 40
1.0
  9
$DIMTOFL
 70
     0
  9
$DIMTVP
 40
0.0
  9
$DIMTIX
 70
     0
  9
$DIMSOXD
 70
     0
  9
$DIMSAH
 70
     0
  9
$DIMBLK1
  1

  9
$DIMBLK2
  1

  9
$DIMSTYLE
  2
STANDARD
  9
$DIMCLRD
 70
   256
  9
$DIMCLRE
 70
   256
  9
$DIMCLRT
 70
   256
  9
$DIMTFAC
 40
1.0
  9
$DIMGAP
 40
0.09
  9
$DIMJUST
 70
     0
  9
$DIMSD1
 70
     0
  9
$DIMSD2
 70
     0
  9
$DIMTOLJ
 70
     1
  9
$DIMTZIN
 70
     0
  9
$DIMALTZ
 70
     0
  9
$DIMALTTZ
 70
     0
  9
$DIMFIT
 70
     3
  9
$DIMUPT
 70
     1
  9
$DIMUNIT
 70
     7
  9
$DIMDEC
 70
     4
  9
$DIMTDEC
 70
     4
  9
$DIMALTU
 70
     2
  9
$DIMALTTD
 70
     2
  9
$DIMTXSTY
  7
STANDARD
  9
$DIMAUNIT
 70
     0
  9
$LUNITS
 70
     5
  9
$LUPREC
 70
     6
  9
$SKETCHINC
 40
0.1
  9
$FILLETRAD
 40
0.0
  9
$AUNITS
 70
     0
  9
$AUPREC
 70
     1
  9
$MENU
  1
CUSTOM
  9
$ELEVATION
 40
0.0
  9
$PELEVATION
 40
0.0
  9
$THICKNESS
 40
0.0
  9
$LIMCHECK
 70
     0
  9
$BLIPMODE
 70
     0
  9
$CHAMFERA
 40
0.0
  9
$CHAMFERB
 40
0.0
  9
$CHAMFERC
 40
0.0
  9
$CHAMFERD
 40
0.0
  9
$SKPOLY
 70
     0
  9
$TDCREATE
 40
2451263.621564698
  9
$TDUPDATE
 40
2453354.906910624
  9
$TDINDWG
 40
1.2475850116
  9
$TDUSRTIMER
 40
1.2475850116
  9
$USRTIMER
 70
     1
  9
$ANGBASE
 50
0.0
  9
$ANGDIR
 70
     0
  9
$PDMODE
 70
     0
  9
$PDSIZE
 40
0.0
  9
$PLINEWID
 40
0.0
  9
$COORDS
 70
     0
  9
$SPLFRAME
 70
     0
  9
$SPLINETYPE
 70
     6
  9
$SPLINESEGS
 70
     8
  9
$ATTDIA
 70
     0
  9
$ATTREQ
 70
     1
  9
$HANDLING
 70
     1
  9
$HANDSEED
  5
E5
  9
$SURFTAB1
 70
     6
  9
$SURFTAB2
 70
     6
  9
$SURFTYPE
 70
     6
  9
$SURFU
 70
     6
  9
$SURFV
 70
     6
  9
$UCSNAME
  2

  9
$UCSORG
 10
0.0
 20
0.0
 30
0.0
  9
$UCSXDIR
 10
1.0
 20
0.0
 30
0.0
  9
$UCSYDIR
 10
0.0
 20
1.0
 30
0.0
  9
$PUCSNAME
  2

  9
$PUCSORG
 10
0.0
 20
0.0
 30
0.0
  9
$PUCSXDIR
 10
1.0
 20
0.0
 30
0.0
  9
$PUCSYDIR
 10
0.0
 20
1.0
 30
0.0
  9
$USERI1
 70
     0
  9
$USERI2
 70
     0
  9
$USERI3
 70
     0
  9
$USERI4
 70
     0
  9
$USERI5
 70
     0
  9
$USERR1
 40
0.0
  9
$USERR2
 40
0.0
  9
$USERR3
 40
0.0
  9
$USERR4
 40
0.0
  9
$USERR5
 40
0.0
  9
$WORLDVIEW
 70
     1
  9
$SHADEDGE
 70
     3
  9
$SHADEDIF
 70
    70
  9
$TILEMODE
 70
     1
  9
$MAXACTVP
 70
    16
  9
$PINSBASE
 10
0.0
 20
0.0
 30
0.0
  9
$PLIMCHECK
 70
     0
  9
$PEXTMIN
 10
1.000000000000000E+20
 20
1.000000000000000E+20
 30
1.000000000000000E+20
  9
$PEXTMAX
 10
-1.000000000000000E+20
 20
-1.000000000000000E+20
 30
-1.000000000000000E+20
  9
$PLIMMIN
 10
0.0
 20
0.0
  9
$PLIMMAX
 10
12.0
 20
9.0
  9
$UNITMODE
 70
     0
  9
$VISRETAIN
 70
     0
  9
$PLINEGEN
 70
     0
  9
$PSLTSCALE
 70
     0
  9
$TREEDEPTH
 70
  3020
  9
$PICKSTYLE
 70
     1
  9
$CMLSTYLE
  2
STANDARD
  9
$CMLJUST
 70
     0
  9
$CMLSCALE
 40
1.0
  9
$PROXYGRAPHICS
 70
     1
  9
$MEASUREMENT
 70
     0
  0
ENDSEC
  0
SECTION
  2
CLASSES
  0
CLASS
  1
ACDBDICTIONARYWDFLT
  2
AcDbDictionaryWithDefault
  3
ObjectDBX Classes
 90
        0
280
     0
281
     0
  0
CLASS
  1
ACDBPLACEHOLDER
  2
AcDbPlaceHolder
  3
ObjectDBX Classes
 90
        0
280
     0
281
     0
  0
CLASS
  1
LAYOUT
  2
AcDbLayout
  3
ObjectDBX Classes
 90
        0
280
     0
281
     0
  0
CLASS
  1
DICTIONARYVAR
  2
AcDbDictionaryVar
  3
"AutoCAD"
 90
        0
280
     0
281
     0
  0
CLASS
  1
SORTENTSTABLE
  2
AcDbSortentsTable
  3
"AutoCAD"
 90
        0
280
     0
281
     0
  0
CLASS
  1
XRECORD
  2
AcDbXrecord
  3
"<Built In>"
 90
        0
280
     0
281
     0
  0
ENDSEC
  0
SECTION
  2
TABLES
  0
TABLE
  2
VPORT
  5
D3
100
AcDbSymbolTable
 70
     1
  0
VPORT
  5
D4
100
AcDbSymbolTableRecord
100
AcDbViewportTableRecord
  2
*ACTIVE
 70
     0
 10
0.0
 20
0.0
 11
1.0
 21
1.0
 12
-4.483647397053271
 22
32.44986005440728
 13
0.0
 23
0.0
 14
1.0
 24
1.0
 15
0.0
 25
0.0
 16
0.0
 26
0.0
 36
1.0
 17
23.09603071721725
 27
-10.27010416511325
 37
-10.44050274849355
 40
44.68056976492282
 41
1.379227053140096
 42
50.0
 43
10.55307667737539
 44
10.55307667737539
 50
0.0
 51
0.0
 71
     0
 72
   100
 73
     1
 74
     1
 75
     0
 76
     0
 77
     0
 78
     0
  0
ENDTAB
  0
TABLE
  2
LTYPE
  5
CE
100
AcDbSymbolTable
 70
     1
  0
LTYPE
  5
CF
100
AcDbSymbolTableRecord
100
AcDbLinetypeTableRecord
  2
BYBLOCK
 70
     0
  3

 72
    65
 73
     0
 40
0.0
  0
LTYPE
  5
D0
100
AcDbSymbolTableRecord
100
AcDbLinetypeTableRecord
  2
BYLAYER
 70
     0
  3

 72
    65
 73
     0
 40
0.0
  0
LTYPE
  5
5
100
AcDbSymbolTableRecord
100
AcDbLinetypeTableRecord
  2
CONTINUOUS
 70
     0
  3
Solid line
 72
    65
 73
     0
 40
0.0
  0
ENDTAB
  0
TABLE
  2
LAYER
  5
CC
100
AcDbSymbolTable
 70
     5
  0
LAYER
  5
49
100
AcDbSymbolTableRecord
100
AcDbLayerTableRecord
  2
0
 70
     0
 62
     7
  6
CONTINUOUS
  0
LAYER
  5
D
102
{ACAD_XDICTIONARY
360
E
102
}
100
AcDbSymbolTableRecord
100
AcDbLayerTableRecord
  2
USP-GEO
 70
     0
 62
     7
  6
CONTINUOUS
  0
LAYER
  5
8
102
{ACAD_XDICTIONARY
360
9
102
}
100
AcDbSymbolTableRecord
100
AcDbLayerTableRecord
  2
USP-TXT
 70
     0
 62
     7
  6
CONTINUOUS
  0
LAYER
  5
22
102
{ACAD_XDICTIONARY
360
23
102
}
100
AcDbSymbolTableRecord
100
AcDbLayerTableRecord
  2
USP-HID
 70
     0
 62
     7
  6
CONTINUOUS
  0
LAYER
  5
4
100
AcDbSymbolTableRecord
100
AcDbLayerTableRecord
  2
USP
 70
     0
 62
     7
  6
CONTINUOUS
  0
ENDTAB
  0
TABLE
  2
STYLE
  5
CD
100
AcDbSymbolTable
 70
     1
  0
STYLE
  5
B
100
AcDbSymbolTableRecord
100
AcDbTextStyleTableRecord
  2
STANDARD
 70
     0
 40
0.0
 41
1.0
 50
0.0
 71
     0
 42
0.25
  3
txt
  4

  0
ENDTAB
  0
TABLE
  2
VIEW
  5
D1
100
AcDbSymbolTable
 70
     0
  0
ENDTAB
  0
TABLE
  2
UCS
  5
D2
100
AcDbSymbolTable
 70
     0
  0
ENDTAB
  0
TABLE
  2
APPID
  5
D5
100
AcDbSymbolTable
 70
     1
  0
APPID
  5
D6
100
AcDbSymbolTableRecord
100
AcDbRegAppTableRecord
  2
ACAD
 70
     0
  0
ENDTAB
  0
TABLE
  2
DIMSTYLE
  5
D7
100
AcDbSymbolTable
 70
     1
  0
DIMSTYLE
105
DF
102
{ACAD_XDICTIONARY
360
E0
102
}
100
AcDbSymbolTableRecord
100
AcDbDimStyleTableRecord
  2
STANDARD
 70
     0
  3

  4

  5

  6

  7

 40
1.0
 41
0.125
 42
0.0625
 43
0.38
 44
0.09375
 45
0.0
 46
0.0
 47
0.0
 48
0.0
140
0.109375
141
0.0
142
0.0
143
25.4
144
1.0
145
0.0
146
1.0
147
0.09
 71
     0
 72
     0
 73
     1
 74
     1
 75
     0
 76
     0
 77
     0
 78
     8
170
     0
171
     2
172
     0
173
     0
174
     0
175
     0
176
     0
177
     0
178
     0
270
     7
271
     4
272
     4
273
     2
274
     2
340
B
275
     0
280
     0
281
     0
282
     0
283
     1
284
     0
285
     0
286
     0
287
     3
288
     0
  0
ENDTAB
  0
TABLE
  2
BLOCK_RECORD
  5
1
100
AcDbSymbolTable
 70
     3
  0
BLOCK_RECORD
  5
2
102
{ACAD_XDICTIONARY
360
C3
102
}
100
AcDbSymbolTableRecord
100
AcDbBlockTableRecord
  2
*MODEL_SPACE
  0
BLOCK_RECORD
  5
C7
102
{ACAD_XDICTIONARY
360
C8
102
}
100
AcDbSymbolTableRecord
100
AcDbBlockTableRecord
  2
*PAPER_SPACE
  0
BLOCK_RECORD
  5
6
100
AcDbSymbolTableRecord
100
AcDbBlockTableRecord
  2
KGLS57_T
  0
BLOCK_RECORD
  5
4C
100
AcDbSymbolTableRecord
100
AcDbBlockTableRecord
  2
KGLS57_F
  0
BLOCK_RECORD
  5
87
100
AcDbSymbolTableRecord
100
AcDbBlockTableRecord
  2
KGLS57_S
  0
ENDTAB
  0
ENDSEC
  0
SECTION
  2
BLOCKS
  0
BLOCK
  5
C5
100
AcDbEntity
  8
0
100
AcDbBlockBegin
  2
*MODEL_SPACE
 70
     0
 10
0.0
 20
0.0
 30
0.0
  3
*MODEL_SPACE
  1

  0
ENDBLK
  5
C6
100
AcDbEntity
  8
0
100
AcDbBlockEnd
  0
BLOCK
  5
CA
100
AcDbEntity
 67
     1
  8
0
100
AcDbBlockBegin
  2
*PAPER_SPACE
 70
     0
 10
0.0
 20
0.0
 30
0.0
  3
*PAPER_SPACE
  1

  0
ENDBLK
  5
CB
100
AcDbEntity
 67
     1
  8
0
100
AcDbBlockEnd
  0
BLOCK
  5
48
100
AcDbEntity
  8
0
100
AcDbBlockBegin
  2
KGLS57_T
 70
     0
 10
0.0
 20
0.0
 30
0.0
  3
KGLS57_T
  1

  0
TEXT
  5
7
100
AcDbEntity
  8
USP-TXT
100
AcDbText
 10
0.0084999999999704
 20
-2.290390552575438
 30
0.0
 40
0.5
  1
KGLS5-7 - TOP VIEW
 72
     1
 11
4.508499999999969
 21
-2.290390552575438
 31
0.0
100
AcDbText
  0
LINE
  5
C
100
AcDbEntity
  8
USP-GEO
100
AcDbLine
 10
7.133499999999986
 20
4.999999999999992
 30
0.0
 11
7.133499999999983
 21
0.0000000000000071
 31
0.0
  0
LINE
  5
10
100
AcDbEntity
  8
USP-GEO
100
AcDbLine
 10
7.312499999999985
 20
0.0
 30
0.0
 11
7.133499999999983
 21
0.0
 31
0.0
  0
LINE
  5
11
100
AcDbEntity
  8
USP-GEO
100
AcDbLine
 10
7.312499999999985
 20
0.0
 30
0.0
 11
7.312499999999988
 21
5.000000000000007
 31
0.0
  0
LINE
  5
12
100
AcDbEntity
  8
USP-GEO
100
AcDbLine
 10
1.88349999999998
 20
-0.0000000000000071
 30
0.0
 11
1.883499999999983
 21
5.000000000000021
 31
0.0
  0
LINE
  5
13
100
AcDbEntity
  8
USP-GEO
100
AcDbLine
 10
1.704499999999995
 20
5.000000000000007
 30
0.0
 11
1.704499999999993
 21
0.0
 31
0.0
  0
LINE
  5
14
100
AcDbEntity
  8
USP-GEO
100
AcDbLine
 10
1.704499999999995
 20
0.0
 30
0.0
 11
1.883499999999983
 21
0.0
 31
0.0
  0
LINE
  5
15
100
AcDbEntity
  8
USP-GEO
100
AcDbLine
 10
7.133499999999969
 20
-0.0000000000000036
 30
0.0
 11
1.883499999999969
 21
0.0
 31
0.0
  0
LINE
  5
16
100
AcDbEntity
  8
USP-GEO
100
AcDbLine
 10
8.999999999999985
 20
5.000000000000003
 30
0.0
 11
0.0
 21
5.00000000000001
 31
0.0
  0
LINE
  5
17
100
AcDbEntity
  8
USP-GEO
100
AcDbLine
 10
9.0
 20
12.375
 30
0.0
 11
0.0
 21
12.375
 31
0.0
  0
LINE
  5
18
100
AcDbEntity
  8
USP-GEO
100
AcDbLine
 10
9.0
 20
12.375
 30
0.0
 11
8.999999999999996
 21
5.000000000000007
 31
0.0
  0
LINE
  5
19
100
AcDbEntity
  8
USP-GEO
100
AcDbLine
 10
-0.0000000000000001
 20
5.000000000000007
 30
0.0
 11
0.0000000000000028
 21
12.375
 31
0.0
  0
LINE
  5
1A
100
AcDbEntity
  8
USP-GEO
100
AcDbLine
 10
7.133500000000005
 20
12.37500000000005
 30
0.0
 11
7.133500000000012
 21
17.37500000000003
 31
0.0
  0
LINE
  5
1B
100
AcDbEntity
  8
USP-GEO
100
AcDbLine
 10
7.312500000000014
 20
17.37500000000005
 30
0.0
 11
7.312500000000007
 21
12.37500000000003
 31
0.0
  0
LINE
  5
1C
100
AcDbEntity
  8
USP-GEO
100
AcDbLine
 10
7.312500000000014
 20
17.37500000000005
 30
0.0
 11
7.133500000000012
 21
17.37500000000005
 31
0.0
  0
LINE
  5
1D
100
AcDbEntity
  8
USP-GEO
100
AcDbLine
 10
1.883500000000018
 20
17.37500000000005
 30
0.0
 11
1.883500000000012
 21
12.37500000000003
 31
0.0
  0
LINE
  5
1E
100
AcDbEntity
  8
USP-GEO
100
AcDbLine
 10
1.704500000000024
 20
17.37500000000005
 30
0.0
 11
1.883500000000026
 21
17.37500000000005
 31
0.0
  0
LINE
  5
1F
100
AcDbEntity
  8
USP-GEO
100
AcDbLine
 10
1.70450000000001
 20
12.37500000000006
 30
0.0
 11
1.704500000000016
 21
17.37500000000005
 31
0.0
  0
LINE
  5
20
100
AcDbEntity
  8
USP-GEO
100
AcDbLine
 10
7.133499999999997
 20
17.37499999999998
 30
0.0
 11
1.883499999999997
 21
17.37499999999999
 31
0.0
  0
LINE
  5
21
100
AcDbEntity
  8
USP-HID
100
AcDbLine
 10
7.312499999999971
 20
0.3594999999999935
 30
0.0
 11
7.133499999999969
 21
0.3594999999999935
 31
0.0
  0
LINE
  5
25
100
AcDbEntity
  8
USP-HID
100
AcDbLine
 10
7.312499999999971
 20
0.6404999999999923
 30
0.0
 11
7.133499999999969
 21
0.6404999999999923
 31
0.0
  0
LINE
  5
26
100
AcDbEntity
  8
USP-HID
100
AcDbLine
 10
7.312499999999971
 20
1.8595
 30
0.0
 11
7.133499999999969
 21
1.8595
 31
0.0
  0
LINE
  5
27
100
AcDbEntity
  8
USP-HID
100
AcDbLine
 10
7.312499999999971
 20
2.140499999999999
 30
0.0
 11
7.133499999999969
 21
2.140499999999999
 31
0.0
  0
LINE
  5
28
100
AcDbEntity
  8
USP-HID
100
AcDbLine
 10
1.704499999999981
 20
0.6405000000000065
 30
0.0
 11
1.883499999999969
 21
0.6405000000000065
 31
0.0
  0
LINE
  5
29
100
AcDbEntity
  8
USP-HID
100
AcDbLine
 10
1.704499999999981
 20
0.3595000000000077
 30
0.0
 11
1.883499999999969
 21
0.3595000000000077
 31
0.0
  0
LINE
  5
2A
100
AcDbEntity
  8
USP-HID
100
AcDbLine
 10
1.704499999999981
 20
2.140500000000013
 30
0.0
 11
1.883499999999969
 21
2.140500000000013
 31
0.0
  0
LINE
  5
2B
100
AcDbEntity
  8
USP-HID
100
AcDbLine
 10
1.704499999999981
 20
1.859500000000014
 30
0.0
 11
1.883499999999969
 21
1.859500000000014
 31
0.0
  0
LINE
  5
2C
100
AcDbEntity
  8
USP-HID
100
AcDbLine
 10
8.1095
 20
4.999999999999992
 30
0.0
 11
8.1095
 21
5.250000000000007
 31
0.0
  0
LINE
  5
2D
100
AcDbEntity
  8
USP-HID
100
AcDbLine
 10
8.390499999999999
 20
4.999999999999992
 30
0.0
 11
8.390499999999999
 21
5.250000000000007
 31
0.0
  0
LINE
  5
2E
100
AcDbEntity
  8
USP-HID
100
AcDbLine
 10
8.3595
 20
5.000000000000007
 30
0.0
 11
8.3595
 21
5.250000000000007
 31
0.0
  0
LINE
  5
2F
100
AcDbEntity
  8
USP-HID
100
AcDbLine
 10
8.640499999999999
 20
5.000000000000007
 30
0.0
 11
8.640499999999999
 21
5.250000000000007
 31
0.0
  0
LINE
  5
30
100
AcDbEntity
  8
USP-HID
100
AcDbLine
 10
0.3594999999999715
 20
5.000000000000007
 30
0.0
 11
0.3594999999999717
 21
5.249999999999992
 31
0.0
  0
LINE
  5
31
100
AcDbEntity
  8
USP-HID
100
AcDbLine
 10
0.6404999999999717
 20
5.000000000000007
 30
0.0
 11
0.6404999999999718
 21
5.249999999999992
 31
0.0
  0
LINE
  5
32
100
AcDbEntity
  8
USP-HID
100
AcDbLine
 10
0.6094999999999857
 20
5.000000000000007
 30
0.0
 11
0.6094999999999859
 21
5.250000000000007
 31
0.0
  0
LINE
  5
33
100
AcDbEntity
  8
USP-HID
100
AcDbLine
 10
0.8904999999999859
 20
5.000000000000007
 30
0.0
 11
0.8904999999999859
 21
5.250000000000007
 31
0.0
  0
LINE
  5
34
100
AcDbEntity
  8
USP-HID
100
AcDbLine
 10
8.390499999999985
 20
12.375
 30
0.0
 11
8.390499999999985
 21
12.12499999999999
 31
0.0
  0
LINE
  5
35
100
AcDbEntity
  8
USP-HID
100
AcDbLine
 10
8.109499999999986
 20
12.375
 30
0.0
 11
8.109499999999986
 21
12.12499999999999
 31
0.0
  0
LINE
  5
36
100
AcDbEntity
  8
USP-HID
100
AcDbLine
 10
8.640499999999999
 20
12.37499999999999
 30
0.0
 11
8.640499999999999
 21
12.125
 31
0.0
  0
LINE
  5
37
100
AcDbEntity
  8
USP-HID
100
AcDbLine
 10
8.3595
 20
12.37499999999999
 30
0.0
 11
8.3595
 21
12.125
 31
0.0
  0
LINE
  5
38
100
AcDbEntity
  8
USP-HID
100
AcDbLine
 10
0.8905000000000001
 20
12.375
 30
0.0
 11
0.8904999999999999
 21
12.125
 31
0.0
  0
LINE
  5
39
100
AcDbEntity
  8
USP-HID
100
AcDbLine
 10
0.6094999999999999
 20
12.375
 30
0.0
 11
0.6094999999999998
 21
12.125
 31
0.0
  0
LINE
  5
3A
100
AcDbEntity
  8
USP-HID
100
AcDbLine
 10
0.6404999999999859
 20
12.375
 30
0.0
 11
0.6404999999999858
 21
12.12499999999999
 31
0.0
  0
LINE
  5
3B
100
AcDbEntity
  8
USP-HID
100
AcDbLine
 10
0.3594999999999858
 20
12.375
 30
0.0
 11
0.3594999999999857
 21
12.12499999999999
 31
0.0
  0
LINE
  5
3C
100
AcDbEntity
  8
USP-HID
100
AcDbLine
 10
7.133499999999997
 20
17.01550000000002
 30
0.0
 11
7.3125
 21
17.01550000000002
 31
0.0
  0
LINE
  5
3D
100
AcDbEntity
  8
USP-HID
100
AcDbLine
 10
7.133499999999997
 20
16.73450000000001
 30
0.0
 11
7.3125
 21
16.73450000000001
 31
0.0
  0
LINE
  5
3E
100
AcDbEntity
  8
USP-HID
100
AcDbLine
 10
7.133500000000012
 20
15.51550000000002
 30
0.0
 11
7.312500000000014
 21
15.51550000000002
 31
0.0
  0
LINE
  5
3F
100
AcDbEntity
  8
USP-HID
100
AcDbLine
 10
7.133500000000012
 20
15.23450000000002
 30
0.0
 11
7.312500000000014
 21
15.23450000000002
 31
0.0
  0
LINE
  5
40
100
AcDbEntity
  8
USP-HID
100
AcDbLine
 10
1.883499999999997
 20
16.73450000000003
 30
0.0
 11
1.704499999999995
 21
16.73450000000003
 31
0.0
  0
LINE
  5
41
100
AcDbEntity
  8
USP-HID
100
AcDbLine
 10
1.883499999999998
 20
17.01550000000003
 30
0.0
 11
1.704499999999996
 21
17.01550000000003
 31
0.0
  0
LINE
  5
42
100
AcDbEntity
  8
USP-HID
100
AcDbLine
 10
1.883499999999997
 20
15.23450000000002
 30
0.0
 11
1.704500000000009
 21
15.23450000000002
 31
0.0
  0
LINE
  5
43
100
AcDbEntity
  8
USP-HID
100
AcDbLine
 10
1.883499999999998
 20
15.51550000000002
 30
0.0
 11
1.70450000000001
 21
15.51550000000002
 31
0.0
  0
LINE
  5
44
100
AcDbEntity
  8
USP-HID
100
AcDbLine
 10
8.999999999999985
 20
5.250000000000014
 30
0.0
 11
-0.0000000000000142
 21
5.250000000000021
 31
0.0
  0
LINE
  5
45
100
AcDbEntity
  8
USP-HID
100
AcDbLine
 10
0.0
 20
12.125
 30
0.0
 11
8.999999999999985
 21
12.125
 31
0.0
  0
LINE
  5
46
100
AcDbEntity
  8
USP-GEO
100
AcDbLine
 10
-0.0000000000000142
 20
5.250000000000021
 30
-0.2500000000000284
 11
8.999999999999985
 21
5.250000000000007
 31
-0.2500000000000426
  0
LINE
  5
47
100
AcDbEntity
  8
USP-GEO
100
AcDbLine
 10
0.0
 20
12.125
 30
-0.2500000000000391
 11
8.999999999999985
 21
12.125
 31
-0.2500000000000391
  0
ENDBLK
  5
4A
100
AcDbEntity
  8
0
100
AcDbBlockEnd
  0
BLOCK
  5
84
100
AcDbEntity
  8
0
100
AcDbBlockBegin
  2
KGLS57_F
 70
     0
 10
0.0
 20
0.0
 30
0.0
  3
KGLS57_F
  1

  0
TEXT
  5
4D
100
AcDbEntity
  8
USP-TXT
100
AcDbText
 10
-0.4915000000000119
 20
-2.587982814819127
 30
0.0
 40
0.5
  1
KGLS5-7 - FRONT VIEW
 72
     1
 11
4.508499999999986
 21
-2.587982814819127
 31
0.0
100
AcDbText
  0
CIRCLE
  5
4E
100
AcDbEntity
  8
USP-GEO
100
AcDbCircle
 10
8.250000000000017
 20
12.61699999999999
 30
0.0
 40
0.1405
  0
CIRCLE
  5
4F
100
AcDbEntity
  8
USP-GEO
100
AcDbCircle
 10
8.500000000000017
 20
11.67899999999997
 30
0.0
 40
0.1405
  0
CIRCLE
  5
50
100
AcDbEntity
  8
USP-GEO
100
AcDbCircle
 10
8.250000000000017
 20
10.67899999999998
 30
0.0
 40
0.1405
  0
CIRCLE
  5
51
100
AcDbEntity
  8
USP-GEO
100
AcDbCircle
 10
0.7500000000000173
 20
10.80399999999998
 30
0.0
 40
0.1405
  0
CIRCLE
  5
52
100
AcDbEntity
  8
USP-GEO
100
AcDbCircle
 10
0.4999999999999888
 20
11.804
 30
0.0
 40
0.1405
  0
CIRCLE
  5
53
100
AcDbEntity
  8
USP-GEO
100
AcDbCircle
 10
0.7500000000000031
 20
12.74099999999998
 30
0.0
 40
0.1405
  0
LINE
  5
54
100
AcDbEntity
  8
USP-GEO
100
AcDbLine
 10
7.312499999999998
 20
10.17899999999998
 30
0.0
 11
9.000000000000003
 21
10.17899999999998
 31
0.0
  0
LINE
  5
55
100
AcDbEntity
  8
USP-GEO
100
AcDbLine
 10
1.883499999999997
 20
10.17899999999998
 30
0.0
 11
7.133499999999997
 21
10.17899999999998
 31
0.0
  0
LINE
  5
56
100
AcDbEntity
  8
USP-GEO
100
AcDbLine
 10
0.000000000000003
 20
10.17899999999998
 30
0.0
 11
1.704500000000005
 21
10.17899999999998
 31
0.0
  0
LINE
  5
57
100
AcDbEntity
  8
USP-GEO
100
AcDbLine
 10
9.000000000000003
 20
14.42899999999999
 30
0.0
 11
0.0000000000000172
 21
14.429
 31
0.0
  0
LINE
  5
58
100
AcDbEntity
  8
USP-GEO
100
AcDbLine
 10
0.0
 20
10.17899999999998
 30
0.0
 11
0.0000000000000031
 21
14.429
 31
0.0
  0
LINE
  5
59
100
AcDbEntity
  8
USP-GEO
100
AcDbLine
 10
9.000000000000003
 20
14.42899999999998
 30
0.0
 11
9.0
 21
10.17899999999998
 31
0.0
  0
ARC
  5
5A
100
AcDbEntity
  8
USP-GEO
100
AcDbCircle
 10
8.500000000000003
 20
10.67899999999998
 30
0.0
 40
0.1405
100
AcDbArc
 50
152.8330276124798
 51
207.1669723875201
  0
ARC
  5
5B
100
AcDbEntity
  8
USP-GEO
100
AcDbCircle
 10
8.250000000000017
 20
11.67899999999998
 30
0.0
 40
0.1405
100
AcDbArc
 50
332.8330276124824
 51
27.16697238751103
  0
ARC
  5
5C
100
AcDbEntity
  8
USP-GEO
100
AcDbCircle
 10
8.500000000000003
 20
12.61699999999999
 30
0.0
 40
0.1405
100
AcDbArc
 50
152.8330276124798
 51
207.1669723875201
  0
ARC
  5
5D
100
AcDbEntity
  8
USP-GEO
100
AcDbCircle
 10
0.5000000000000031
 20
10.80399999999998
 30
0.0
 40
0.1405
100
AcDbArc
 50
332.8330276124921
 51
27.16697238750783
  0
ARC
  5
5E
100
AcDbEntity
  8
USP-GEO
100
AcDbCircle
 10
0.7500000000000031
 20
11.804
 30
0.0
 40
0.1405
100
AcDbArc
 50
152.8330276124921
 51
207.1669723875078
  0
ARC
  5
5F
100
AcDbEntity
  8
USP-GEO
100
AcDbCircle
 10
0.5000000000000031
 20
12.74099999999998
 30
0.0
 40
0.1405
100
AcDbArc
 50
332.8330276124856
 51
27.16697238751434
  0
LINE
  5
60
100
AcDbEntity
  8
USP-GEO
100
AcDbLine
 10
7.312500000000002
 20
13.92899999999998
 30
0.0
 11
7.1335
 21
13.92899999999998
 31
0.0
  0
LINE
  5
61
100
AcDbEntity
  8
USP-GEO
100
AcDbLine
 10
7.312499999999988
 20
-0.0000000000000142
 30
0.0
 11
7.312499999999998
 21
13.92899999999998
 31
0.0
  0
LINE
  5
62
100
AcDbEntity
  8
USP-GEO
100
AcDbLine
 10
7.133499999999997
 20
13.92899999999998
 30
0.0
 11
7.133499999999986
 21
0.1789999999999949
 31
0.0
  0
LINE
  5
63
100
AcDbEntity
  8
USP-GEO
100
AcDbLine
 10
1.704500000000013
 20
13.92899999999998
 30
0.0
 11
1.883500000000001
 21
13.92899999999998
 31
0.0
  0
LINE
  5
64
100
AcDbEntity
  8
USP-GEO
100
AcDbLine
 10
1.704500000000013
 20
13.92899999999998
 30
0.0
 11
1.7045
 21
-0.0000000000000018
 31
0.0
  0
LINE
  5
65
100
AcDbEntity
  8
USP-GEO
100
AcDbLine
 10
1.883499999999988
 20
0.1789999999999932
 30
0.0
 11
1.883500000000001
 21
13.92899999999998
 31
0.0
  0
LINE
  5
66
100
AcDbEntity
  8
USP-GEO
100
AcDbLine
 10
7.133499999999986
 20
0.1789999999999914
 30
0.0
 11
1.883499999999986
 21
0.1789999999999949
 31
0.0
  0
LINE
  5
67
100
AcDbEntity
  8
USP-GEO
100
AcDbLine
 10
1.704499999999984
 20
0.0
 30
0.0
 11
7.312499999999988
 21
-0.0000000000000036
 31
0.0
  0
LINE
  5
68
100
AcDbEntity
  8
USP-HID
100
AcDbLine
 10
7.312499999999988
 20
5.538499999999995
 30
0.0
 11
7.133499999999986
 21
5.538499999999995
 31
0.0
  0
LINE
  5
69
100
AcDbEntity
  8
USP-HID
100
AcDbLine
 10
7.312499999999988
 20
5.819499999999994
 30
0.0
 11
7.133499999999986
 21
5.819499999999994
 31
0.0
  0
LINE
  5
6A
100
AcDbEntity
  8
USP-HID
100
AcDbLine
 10
7.312499999999988
 20
3.038499999999987
 30
0.0
 11
7.133499999999986
 21
3.038499999999987
 31
0.0
  0
LINE
  5
6B
100
AcDbEntity
  8
USP-HID
100
AcDbLine
 10
7.312499999999988
 20
3.319499999999988
 30
0.0
 11
7.133499999999986
 21
3.319499999999988
 31
0.0
  0
LINE
  5
6C
100
AcDbEntity
  8
USP-HID
100
AcDbLine
 10
7.312499999999988
 20
8.038499999999995
 30
0.0
 11
7.133499999999986
 21
8.038499999999995
 31
0.0
  0
LINE
  5
6D
100
AcDbEntity
  8
USP-HID
100
AcDbLine
 10
7.312499999999988
 20
8.319499999999994
 30
0.0
 11
7.133499999999986
 21
8.319499999999994
 31
0.0
  0
LINE
  5
6E
100
AcDbEntity
  8
USP-HID
100
AcDbLine
 10
1.704499999999999
 20
8.319499999999994
 30
0.0
 11
1.883499999999987
 21
8.319499999999994
 31
0.0
  0
LINE
  5
6F
100
AcDbEntity
  8
USP-HID
100
AcDbLine
 10
1.704499999999999
 20
8.038499999999995
 30
0.0
 11
1.883499999999986
 21
8.038499999999995
 31
0.0
  0
LINE
  5
70
100
AcDbEntity
  8
USP-HID
100
AcDbLine
 10
1.704499999999999
 20
5.819499999999994
 30
0.0
 11
1.883499999999987
 21
5.819499999999994
 31
0.0
  0
LINE
  5
71
100
AcDbEntity
  8
USP-HID
100
AcDbLine
 10
1.704499999999999
 20
5.538499999999995
 30
0.0
 11
1.883499999999986
 21
5.538499999999995
 31
0.0
  0
LINE
  5
72
100
AcDbEntity
  8
USP-HID
100
AcDbLine
 10
1.704499999999985
 20
3.319499999999995
 30
0.0
 11
1.883499999999987
 21
3.319499999999995
 31
0.0
  0
LINE
  5
73
100
AcDbEntity
  8
USP-HID
100
AcDbLine
 10
1.704499999999984
 20
3.038499999999994
 30
0.0
 11
1.883499999999986
 21
3.038499999999994
 31
0.0
  0
LINE
  5
74
100
AcDbEntity
  8
USP-HID
100
AcDbLine
 10
7.133499999999997
 20
10.17899999999998
 30
0.0
 11
7.312499999999998
 21
10.17899999999998
 31
0.0
  0
LINE
  5
75
100
AcDbEntity
  8
USP-HID
100
AcDbLine
 10
1.704500000000005
 20
10.17899999999998
 30
0.0
 11
1.883499999999997
 21
10.17899999999998
 31
0.0
  0
LINE
  5
76
100
AcDbEntity
  8
USP-HID
100
AcDbLine
 10
9.000000000000003
 20
14.17899999999999
 30
0.0
 11
0.000000000000003
 21
14.179
 31
0.0
  0
ARC
  5
77
100
AcDbEntity
  8
USP-HID
100
AcDbCircle
 10
8.500000000000003
 20
10.67899999999998
 30
0.0
 40
0.1405
100
AcDbArc
 50
90.0
 51
207.1669723875201
  0
ARC
  5
78
100
AcDbEntity
  8
USP-HID
100
AcDbCircle
 10
8.500000000000003
 20
10.67899999999998
 30
0.0
 40
0.1405
100
AcDbArc
 50
90.0
 51
152.8330276124798
  0
ARC
  5
79
100
AcDbEntity
  8
USP-HID
100
AcDbCircle
 10
8.250000000000017
 20
11.67899999999998
 30
0.0
 40
0.1405
100
AcDbArc
 50
90.0
 51
27.16697238751103
  0
ARC
  5
7A
100
AcDbEntity
  8
USP-HID
100
AcDbCircle
 10
8.250000000000017
 20
11.67899999999998
 30
0.0
 40
0.1405
100
AcDbArc
 50
90.0
 51
332.8330276124824
  0
ARC
  5
7B
100
AcDbEntity
  8
USP-HID
100
AcDbCircle
 10
8.500000000000003
 20
12.61699999999999
 30
0.0
 40
0.1405
100
AcDbArc
 50
89.99999999999422
 51
207.1669723875201
  0
ARC
  5
7C
100
AcDbEntity
  8
USP-HID
100
AcDbCircle
 10
8.500000000000003
 20
12.61699999999999
 30
0.0
 40
0.1405
100
AcDbArc
 50
89.99999999999422
 51
152.8330276124798
  0
ARC
  5
7D
100
AcDbEntity
  8
USP-HID
100
AcDbCircle
 10
0.5000000000000031
 20
10.80399999999998
 30
0.0
 40
0.1405
100
AcDbArc
 50
90.0
 51
27.16697238750783
  0
ARC
  5
7E
100
AcDbEntity
  8
USP-HID
100
AcDbCircle
 10
0.5000000000000031
 20
10.80399999999998
 30
0.0
 40
0.1405
100
AcDbArc
 50
90.0
 51
332.8330276124921
  0
ARC
  5
7F
100
AcDbEntity
  8
USP-HID
100
AcDbCircle
 10
0.7500000000000031
 20
11.804
 30
0.0
 40
0.1405
100
AcDbArc
 50
90.0
 51
207.1669723875078
  0
ARC
  5
80
100
AcDbEntity
  8
USP-HID
100
AcDbCircle
 10
0.7500000000000031
 20
11.804
 30
0.0
 40
0.1405
100
AcDbArc
 50
90.0
 51
152.8330276124921
  0
ARC
  5
81
100
AcDbEntity
  8
USP-HID
100
AcDbCircle
 10
0.5000000000000031
 20
12.74099999999998
 30
0.0
 40
0.1405
100
AcDbArc
 50
90.0
 51
27.16697238751434
  0
ARC
  5
82
100
AcDbEntity
  8
USP-HID
100
AcDbCircle
 10
0.5000000000000031
 20
12.74099999999998
 30
0.0
 40
0.1405
100
AcDbArc
 50
90.0
 51
332.8330276124856
  0
LINE
  5
83
100
AcDbEntity
  8
USP-GEO
100
AcDbLine
 10
0.000000000000003
 20
14.179
 30
-0.2500000000000426
 11
9.000000000000003
 21
14.17899999999998
 31
-0.2500000000000284
  0
ENDBLK
  5
85
100
AcDbEntity
  8
0
100
AcDbBlockEnd
  0
BLOCK
  5
C1
100
AcDbEntity
  8
0
100
AcDbBlockBegin
  2
KGLS57_S
 70
     0
 10
0.0
 20
0.0
 30
0.0
  3
KGLS57_S
  1

  0
TEXT
  5
88
100
AcDbEntity
  8
USP-TXT
100
AcDbText
 10
4.020833333333348
 20
-2.587982814819113
 30
0.0
 40
0.5
  1
KGLS5-7 - SIDE VIEW
 72
     1
 11
8.687500000000014
 21
-2.587982814819113
 31
0.0
100
AcDbText
  0
CIRCLE
  5
89
100
AcDbEntity
  8
USP-GEO
100
AcDbCircle
 10
0.5
 20
5.679000000000009
 30
0.0
 40
0.1405
  0
CIRCLE
  5
8A
100
AcDbEntity
  8
USP-GEO
100
AcDbCircle
 10
2.0
 20
3.179000000000002
 30
0.0
 40
0.1405
  0
CIRCLE
  5
8B
100
AcDbEntity
  8
USP-GEO
100
AcDbCircle
 10
2.0
 20
8.179000000000009
 30
0.0
 40
0.1405
  0
LINE
  5
8C
100
AcDbEntity
  8
USP-GEO
100
AcDbLine
 10
0.0
 20
13.929
 30
0.0
 11
5.000000000000014
 21
13.929
 31
0.0
  0
LINE
  5
8D
100
AcDbEntity
  8
USP-GEO
100
AcDbLine
 10
5.000000000000014
 20
10.179
 30
0.0
 11
5.00000000000001
 21
0.0
 31
0.0
  0
LINE
  5
8E
100
AcDbEntity
  8
USP-GEO
100
AcDbLine
 10
0.0
 20
0.0
 30
0.0
 11
0.0000000000000036
 21
13.929
 31
0.0
  0
LINE
  5
8F
100
AcDbEntity
  8
USP-GEO
100
AcDbLine
 10
0.0
 20
0.000000000000008
 30
0.0
 11
5.0
 21
0.0000000000000062
 31
0.0
  0
LINE
  5
90
100
AcDbEntity
  8
USP-GEO
100
AcDbLine
 10
5.000000000000014
 20
10.179
 30
0.0
 11
5.250000000000014
 21
10.179
 31
0.0
  0
LINE
  5
91
100
AcDbEntity
  8
USP-GEO
100
AcDbLine
 10
5.250000000000014
 20
10.179
 30
0.0
 11
5.250000000000014
 21
14.179
 31
0.0
  0
LINE
  5
92
100
AcDbEntity
  8
USP-GEO
100
AcDbLine
 10
5.000000000000014
 20
14.429
 30
0.0
 11
5.000000000000014
 21
10.179
 31
0.0
  0
LINE
  5
93
100
AcDbEntity
  8
USP-GEO
100
AcDbLine
 10
12.37500000000001
 20
10.179
 30
0.0
 11
12.12500000000001
 21
10.179
 31
0.0
  0
LINE
  5
94
100
AcDbEntity
  8
USP-GEO
100
AcDbLine
 10
12.12500000000001
 20
14.179
 30
0.0
 11
12.12500000000001
 21
10.179
 31
0.0
  0
LINE
  5
95
100
AcDbEntity
  8
USP-GEO
100
AcDbLine
 10
12.37500000000001
 20
10.179
 30
0.0
 11
12.37500000000001
 21
14.429
 31
0.0
  0
LINE
  5
96
100
AcDbEntity
  8
USP-GEO
100
AcDbLine
 10
5.250000000000014
 20
14.17899999999999
 30
0.0
 11
12.12500000000001
 21
14.17899999999998
 31
0.0
  0
LINE
  5
97
100
AcDbEntity
  8
USP-GEO
100
AcDbLine
 10
12.37500000000001
 20
14.429
 30
0.0
 11
5.000000000000014
 21
14.429
 31
0.0
  0
CIRCLE
  5
98
100
AcDbEntity
  8
USP-GEO
100
AcDbCircle
 10
16.87500000000001
 20
5.679000000000009
 30
0.0
 40
0.1405
  0
CIRCLE
  5
99
100
AcDbEntity
  8
USP-GEO
100
AcDbCircle
 10
15.37500000000003
 20
3.179000000000002
 30
0.0
 40
0.1405
  0
CIRCLE
  5
9A
100
AcDbEntity
  8
USP-GEO
100
AcDbCircle
 10
15.37500000000003
 20
8.179000000000009
 30
0.0
 40
0.1405
  0
LINE
  5
9B
100
AcDbEntity
  8
USP-GEO
100
AcDbLine
 10
17.37500000000004
 20
13.92899999999998
 30
0.0
 11
12.37500000000004
 21
13.929
 31
0.0
  0
LINE
  5
9C
100
AcDbEntity
  8
USP-GEO
100
AcDbLine
 10
12.37500000000002
 20
10.179
 30
0.0
 11
12.375
 21
0.0000000000000142
 31
0.0
  0
LINE
  5
9D
100
AcDbEntity
  8
USP-GEO
100
AcDbLine
 10
17.37500000000001
 20
0.0000000000000067
 30
0.0
 11
12.37500000000001
 21
0.0000000000000218
 31
0.0
  0
LINE
  5
9E
100
AcDbEntity
  8
USP-GEO
100
AcDbLine
 10
17.37500000000001
 20
-0.0000000000000071
 30
0.0
 11
17.37500000000005
 21
13.92899999999998
 31
0.0
  0
LINE
  5
9F
100
AcDbEntity
  8
USP-HID
100
AcDbLine
 10
5.0
 20
12.7575
 30
0.0
 11
5.250000000000014
 21
12.7575
 31
0.0
  0
LINE
  5
A0
100
AcDbEntity
  8
USP-HID
100
AcDbLine
 10
5.000000000000014
 20
12.4765
 30
0.0
 11
5.25
 21
12.4765
 31
0.0
  0
LINE
  5
A1
100
AcDbEntity
  8
USP-HID
100
AcDbLine
 10
5.000000000000014
 20
11.81949999999998
 30
0.0
 11
5.250000000000014
 21
11.81949999999998
 31
0.0
  0
LINE
  5
A2
100
AcDbEntity
  8
USP-HID
100
AcDbLine
 10
5.0
 20
11.53849999999998
 30
0.0
 11
5.250000000000014
 21
11.53849999999998
 31
0.0
  0
LINE
  5
A3
100
AcDbEntity
  8
USP-HID
100
AcDbLine
 10
5.0
 20
10.8195
 30
0.0
 11
5.25
 21
10.8195
 31
0.0
  0
LINE
  5
A4
100
AcDbEntity
  8
USP-HID
100
AcDbLine
 10
5.0
 20
10.5385
 30
0.0
 11
5.250000000000014
 21
10.5385
 31
0.0
  0
LINE
  5
A5
100
AcDbEntity
  8
USP-HID
100
AcDbLine
 10
5.000000000000014
 20
10.9445
 30
0.0
 11
5.250000000000014
 21
10.9445
 31
0.0
  0
LINE
  5
A6
100
AcDbEntity
  8
USP-HID
100
AcDbLine
 10
5.000000000000014
 20
10.6635
 30
0.0
 11
5.250000000000014
 21
10.6635
 31
0.0
  0
LINE
  5
A7
100
AcDbEntity
  8
USP-HID
100
AcDbLine
 10
5.000000000000014
 20
11.94450000000001
 30
0.0
 11
5.25
 21
11.94450000000001
 31
0.0
  0
LINE
  5
A8
100
AcDbEntity
  8
USP-HID
100
AcDbLine
 10
5.000000000000014
 20
11.66350000000001
 30
0.0
 11
5.25
 21
11.66350000000001
 31
0.0
  0
LINE
  5
A9
100
AcDbEntity
  8
USP-HID
100
AcDbLine
 10
5.000000000000014
 20
12.88149999999999
 30
0.0
 11
5.250000000000014
 21
12.88149999999999
 31
0.0
  0
LINE
  5
AA
100
AcDbEntity
  8
USP-HID
100
AcDbLine
 10
5.000000000000014
 20
12.6005
 30
0.0
 11
5.250000000000014
 21
12.6005
 31
0.0
  0
LINE
  5
AB
100
AcDbEntity
  8
USP-HID
100
AcDbLine
 10
12.375
 20
10.5385
 30
0.0
 11
12.125
 21
10.5385
 31
0.0
  0
LINE
  5
AC
100
AcDbEntity
  8
USP-HID
100
AcDbLine
 10
12.37500000000001
 20
10.8195
 30
0.0
 11
12.12500000000001
 21
10.8195
 31
0.0
  0
LINE
  5
AD
100
AcDbEntity
  8
USP-HID
100
AcDbLine
 10
12.37500000000001
 20
11.5385
 30
0.0
 11
12.125
 21
11.5385
 31
0.0
  0
LINE
  5
AE
100
AcDbEntity
  8
USP-HID
100
AcDbLine
 10
12.37500000000001
 20
11.8195
 30
0.0
 11
12.125
 21
11.8195
 31
0.0
  0
LINE
  5
AF
100
AcDbEntity
  8
USP-HID
100
AcDbLine
 10
12.375
 20
12.4765
 30
0.0
 11
12.12500000000001
 21
12.4765
 31
0.0
  0
LINE
  5
B0
100
AcDbEntity
  8
USP-HID
100
AcDbLine
 10
12.375
 20
12.7575
 30
0.0
 11
12.125
 21
12.7575
 31
0.0
  0
LINE
  5
B1
100
AcDbEntity
  8
USP-HID
100
AcDbLine
 10
12.37500000000001
 20
10.6635
 30
0.0
 11
12.12499999999998
 21
10.6635
 31
0.0
  0
LINE
  5
B2
100
AcDbEntity
  8
USP-HID
100
AcDbLine
 10
12.37500000000001
 20
10.9445
 30
0.0
 11
12.12499999999998
 21
10.9445
 31
0.0
  0
LINE
  5
B3
100
AcDbEntity
  8
USP-HID
100
AcDbLine
 10
12.37500000000001
 20
11.6635
 30
0.0
 11
12.12500000000001
 21
11.6635
 31
0.0
  0
LINE
  5
B4
100
AcDbEntity
  8
USP-HID
100
AcDbLine
 10
12.37499999999998
 20
11.9445
 30
0.0
 11
12.12500000000001
 21
11.9445
 31
0.0
  0
LINE
  5
B5
100
AcDbEntity
  8
USP-HID
100
AcDbLine
 10
12.37500000000001
 20
12.6005
 30
0.0
 11
12.12499999999998
 21
12.6005
 31
0.0
  0
LINE
  5
B6
100
AcDbEntity
  8
USP-HID
100
AcDbLine
 10
12.37500000000001
 20
12.88149999999999
 30
0.0
 11
12.12500000000001
 21
12.88149999999999
 31
0.0
  0
LINE
  5
B7
100
AcDbEntity
  8
USP-HID
100
AcDbLine
 10
5.0
 20
0.179000000000002
 30
0.0
 11
0.0
 21
0.1790000000000034
 31
0.0
  0
CIRCLE
  5
B8
100
AcDbEntity
  8
USP-HID
100
AcDbCircle
 10
0.5000000000000142
 20
8.179000000000009
 30
0.0
 40
0.1405
  0
CIRCLE
  5
B9
100
AcDbEntity
  8
USP-HID
100
AcDbCircle
 10
2.0
 20
5.679000000000016
 30
0.0
 40
0.1405
  0
CIRCLE
  5
BA
100
AcDbEntity
  8
USP-HID
100
AcDbCircle
 10
0.5
 20
3.179000000000002
 30
0.0
 40
0.1405
  0
LINE
  5
BB
100
AcDbEntity
  8
USP-HID
100
AcDbLine
 10
12.37500000000001
 20
0.1790000000000163
 30
0.0
 11
17.37499999999998
 21
0.1790000000000012
 31
0.0
  0
CIRCLE
  5
BC
100
AcDbEntity
  8
USP-HID
100
AcDbCircle
 10
16.87500000000004
 20
8.179000000000009
 30
0.0
 40
0.1405
  0
CIRCLE
  5
BD
100
AcDbEntity
  8
USP-HID
100
AcDbCircle
 10
15.37500000000001
 20
5.679000000000009
 30
0.0
 40
0.1405
  0
CIRCLE
  5
BE
100
AcDbEntity
  8
USP-HID
100
AcDbCircle
 10
16.87500000000001
 20
3.179000000000002
 30
0.0
 40
0.1405
  0
LINE
  5
BF
100
AcDbEntity
  8
USP-GEO
100
AcDbLine
 10
0.0023763600926969
 20
0.1790000000000163
 30
-0.2415000000000305
 11
5.002376360092668
 21
0.1790000000000091
 31
-0.2415000000000305
  0
LINE
  5
C0
100
AcDbEntity
  8
USP-GEO
100
AcDbLine
 10
12.37500000000001
 20
0.1790000000000163
 30
-0.2415000000000305
 11
17.37499999999998
 21
0.1790000000000091
 31
-0.2415000000000305
  0
ENDBLK
  5
C2
100
AcDbEntity
  8
0
100
AcDbBlockEnd
  0
ENDSEC
  0
SECTION
  2
ENTITIES
  0
INSERT
  5
3
100
AcDbEntity
  8
USP
100
AcDbBlockReference
  2
KGLS57_T
 10
0.0011180294536075
 20
26.98315797175564
 30
0.0
  0
INSERT
  5
4B
100
AcDbEntity
  8
USP
100
AcDbBlockReference
  2
KGLS57_F
 10
0.0011180294535903
 20
2.5914682024874
 30
0.0
  0
INSERT
  5
86
100
AcDbEntity
  8
USP
100
AcDbBlockReference
  2
KGLS57_S
 10
20.34014843296596
 20
2.591468202487385
 30
0.0
  0
ENDSEC
  0
SECTION
  2
OBJECTS
  0
DICTIONARY
  5
DB
102
{ACAD_XDICTIONARY
360
DC
102
}
100
AcDbDictionary
  3
ACAD_GROUP
350
D9
  3
ACAD_MLINESTYLE
350
DA
  0
DICTIONARY
  5
E
100
AcDbDictionary
280
     1
  3
ACAD_XREC_ROUNDTRIP
360
F
  0
DICTIONARY
  5
9
100
AcDbDictionary
280
     1
  3
ACAD_XREC_ROUNDTRIP
360
A
  0
DICTIONARY
  5
23
100
AcDbDictionary
280
     1
  3
ACAD_XREC_ROUNDTRIP
360
24
  0
DICTIONARY
  5
E0
100
AcDbDictionary
280
     1
  3
ACAD_XREC_ROUNDTRIP
360
E1
  0
DICTIONARY
  5
C3
100
AcDbDictionary
280
     1
  3
ACAD_LAYOUTSELFREF
360
C4
  0
DICTIONARY
  5
C8
100
AcDbDictionary
280
     1
  3
ACAD_LAYOUTSELFREF
360
C9
  0
DICTIONARY
  5
DC
100
AcDbDictionary
280
     1
  3
ACAD_XREC_ROUNDTRIP
360
DD
  0
DICTIONARY
  5
D9
102
{ACAD_REACTORS
330
DB
102
}
100
AcDbDictionary
  0
DICTIONARY
  5
DA
102
{ACAD_REACTORS
330
DB
102
}
100
AcDbDictionary
  3
STANDARD
350
DE
  0
XRECORD
  5
F
102
{ACAD_REACTORS
330
E
102
}
100
AcDbXrecord
102
EXTNAMES
  1
USP-GEO
  2
USP-Geo
  0
XRECORD
  5
A
102
{ACAD_REACTORS
330
9
102
}
100
AcDbXrecord
102
EXTNAMES
  1
USP-TXT
  2
USP-Txt
  0
XRECORD
  5
24
102
{ACAD_REACTORS
330
23
102
}
100
AcDbXrecord
102
EXTNAMES
  1
USP-HID
  2
USP-Hid
  0
XRECORD
  5
E1
102
{ACAD_REACTORS
330
E0
102
}
100
AcDbXrecord
102
ACADR14ROUNDTRIP
1000
DSTYLE
1002
{
1070
   276
 70
     2
1070
   277
 70
     5
1002
}
  0
XRECORD
  5
C4
102
{ACAD_REACTORS
330
C3
102
}
100
AcDbXrecord
340
18
  0
XRECORD
  5
C9
102
{ACAD_REACTORS
330
C8
102
}
100
AcDbXrecord
340
15
  0
XRECORD
  5
DD
102
{ACAD_REACTORS
330
DC
102
}
100
AcDbXrecord
102
EXTNAMES
  1
ACADDIM
  2
AcadDim
  1
ACDBVARIABLEDICTIONARY
  2
AcDbVariableDictionary
  1
AUXHDRRNDTRIPDATA
  2
AuxHdrRndTripData
  0
MLINESTYLE
  5
DE
102
{ACAD_REACTORS
330
DA
102
}
100
AcDbMlineStyle
  2
STANDARD
 70
     0
  3

 62
     0
 51
90.0
 52
90.0
 71
     2
 49
0.5
 62
   256
  6
BYLAYER
 49
-0.5
 62
   256
  6
BYLAYER
  0
ENDSEC
  0
EOF
