  0
SECTION
  2
HEADER
  9
$ACADVER
  1
AC1014
  9
$ACADMAINTVER
 70
     9
  9
$DWGCODEPAGE
  3
ANSI_1252
  9
$INSBASE
 10
0.0
 20
0.0
 30
0.0
  9
$EXTMIN
 10
0.16972775958962
 20
0.0004872558575997
 30
0.0
  9
$EXTMAX
 10
9.513494794286941
 20
12.72378380785833
 30
0.0
  9
$LIMMIN
 10
0.0
 20
0.0
  9
$LIMMAX
 10
12.0
 20
9.0
  9
$ORTHOMODE
 70
     1
  9
$REGENMODE
 70
     1
  9
$FILLMODE
 70
     1
  9
$QTEXTMODE
 70
     0
  9
$MIRRTEXT
 70
     0
  9
$DRAGMODE
 70
     2
  9
$LTSCALE
 40
1.5
  9
$OSMODE
 70
     0
  9
$ATTMODE
 70
     1
  9
$TEXTSIZE
 40
0.75
  9
$TRACEWID
 40
0.05
  9
$TEXTSTYLE
  7
STANDARD
  9
$CLAYER
  8
USP
  9
$CELTYPE
  6
BYLAYER
  9
$CECOLOR
 62
   256
  9
$CELTSCALE
 40
1.0
  9
$DELOBJ
 70
     1
  9
$DISPSILH
 70
     1
  9
$DIMSCALE
 40
7.0
  9
$DIMASZ
 40
0.125
  9
$DIMEXO
 40
0.0625
  9
$DIMDLI
 40
0.37890625
  9
$DIMRND
 40
0.0
  9
$DIMDLE
 40
0.0
  9
$DIMEXE
 40
0.09375
  9
$DIMTP
 40
0.0
  9
$DIMTM
 40
0.0
  9
$DIMTXT
 40
0.109375
  9
$DIMCEN
 40
0.0
  9
$DIMTSZ
 40
0.0
  9
$DIMTOL
 70
     0
  9
$DIMLIM
 70
     0
  9
$DIMTIH
 70
     1
  9
$DIMTOH
 70
     1
  9
$DIMSE1
 70
     0
  9
$DIMSE2
 70
     0
  9
$DIMTAD
 70
     0
  9
$DIMZIN
 70
     8
  9
$DIMBLK
  1

  9
$DIMASO
 70
     1
  9
$DIMSHO
 70
     1
  9
$DIMPOST
  1

  9
$DIMAPOST
  1

  9
$DIMALT
 70
     0
  9
$DIMALTD
 70
     2
  9
$DIMALTF
 40
25.4
  9
$DIMLFAC
 40
1.0
  9
$DIMTOFL
 70
     0
  9
$DIMTVP
 40
0.0
  9
$DIMTIX
 70
     0
  9
$DIMSOXD
 70
     0
  9
$DIMSAH
 70
     0
  9
$DIMBLK1
  1

  9
$DIMBLK2
  1

  9
$DIMSTYLE
  2
STANDARD
  9
$DIMCLRD
 70
     0
  9
$DIMCLRE
 70
     0
  9
$DIMCLRT
 70
   256
  9
$DIMTFAC
 40
1.0
  9
$DIMGAP
 40
0.08984375
  9
$DIMJUST
 70
     0
  9
$DIMSD1
 70
     0
  9
$DIMSD2
 70
     0
  9
$DIMTOLJ
 70
     1
  9
$DIMTZIN
 70
     0
  9
$DIMALTZ
 70
     0
  9
$DIMALTTZ
 70
     0
  9
$DIMFIT
 70
     3
  9
$DIMUPT
 70
     1
  9
$DIMUNIT
 70
     7
  9
$DIMDEC
 70
     4
  9
$DIMTDEC
 70
     4
  9
$DIMALTU
 70
     2
  9
$DIMALTTD
 70
     2
  9
$DIMTXSTY
  7
STANDARD
  9
$DIMAUNIT
 70
     0
  9
$LUNITS
 70
     5
  9
$LUPREC
 70
     6
  9
$SKETCHINC
 40
0.1
  9
$FILLETRAD
 40
0.0
  9
$AUNITS
 70
     0
  9
$AUPREC
 70
     1
  9
$MENU
  1
CUSTOM
  9
$ELEVATION
 40
0.0
  9
$PELEVATION
 40
0.0
  9
$THICKNESS
 40
0.0
  9
$LIMCHECK
 70
     0
  9
$BLIPMODE
 70
     0
  9
$CHAMFERA
 40
0.0
  9
$CHAMFERB
 40
0.0
  9
$CHAMFERC
 40
0.0
  9
$CHAMFERD
 40
0.0
  9
$SKPOLY
 70
     0
  9
$TDCREATE
 40
2451263.663231366
  9
$TDUPDATE
 40
2452759.745386099
  9
$TDINDWG
 40
0.4656184375
  9
$TDUSRTIMER
 40
0.4656184375
  9
$USRTIMER
 70
     1
  9
$ANGBASE
 50
0.0
  9
$ANGDIR
 70
     0
  9
$PDMODE
 70
     0
  9
$PDSIZE
 40
0.0
  9
$PLINEWID
 40
0.0
  9
$COORDS
 70
     2
  9
$SPLFRAME
 70
     0
  9
$SPLINETYPE
 70
     6
  9
$SPLINESEGS
 70
     8
  9
$ATTDIA
 70
     0
  9
$ATTREQ
 70
     0
  9
$HANDLING
 70
     1
  9
$HANDSEED
  5
267
  9
$SURFTAB1
 70
     6
  9
$SURFTAB2
 70
     6
  9
$SURFTYPE
 70
     6
  9
$SURFU
 70
     6
  9
$SURFV
 70
     6
  9
$UCSNAME
  2

  9
$UCSORG
 10
0.0
 20
0.0
 30
0.0
  9
$UCSXDIR
 10
1.0
 20
0.0
 30
0.0
  9
$UCSYDIR
 10
0.0
 20
1.0
 30
0.0
  9
$PUCSNAME
  2

  9
$PUCSORG
 10
0.0
 20
0.0
 30
0.0
  9
$PUCSXDIR
 10
1.0
 20
0.0
 30
0.0
  9
$PUCSYDIR
 10
0.0
 20
1.0
 30
0.0
  9
$USERI1
 70
     0
  9
$USERI2
 70
     0
  9
$USERI3
 70
     0
  9
$USERI4
 70
     0
  9
$USERI5
 70
     0
  9
$USERR1
 40
0.0
  9
$USERR2
 40
0.0
  9
$USERR3
 40
0.0
  9
$USERR4
 40
0.0
  9
$USERR5
 40
0.0
  9
$WORLDVIEW
 70
     1
  9
$SHADEDGE
 70
     3
  9
$SHADEDIF
 70
    70
  9
$TILEMODE
 70
     1
  9
$MAXACTVP
 70
    16
  9
$PINSBASE
 10
0.0
 20
0.0
 30
0.0
  9
$PLIMCHECK
 70
     0
  9
$PEXTMIN
 10
1.000000000000000E+20
 20
1.000000000000000E+20
 30
1.000000000000000E+20
  9
$PEXTMAX
 10
-1.000000000000000E+20
 20
-1.000000000000000E+20
 30
-1.000000000000000E+20
  9
$PLIMMIN
 10
0.0
 20
0.0
  9
$PLIMMAX
 10
12.0
 20
9.0
  9
$UNITMODE
 70
     0
  9
$VISRETAIN
 70
     0
  9
$PLINEGEN
 70
     0
  9
$PSLTSCALE
 70
     0
  9
$TREEDEPTH
 70
  3020
  9
$PICKSTYLE
 70
     1
  9
$CMLSTYLE
  2
STANDARD
  9
$CMLJUST
 70
     0
  9
$CMLSCALE
 40
1.0
  9
$PROXYGRAPHICS
 70
     1
  9
$MEASUREMENT
 70
     0
  0
ENDSEC
  0
SECTION
  2
CLASSES
  0
CLASS
  1
ACDBDICTIONARYWDFLT
  2
AcDbDictionaryWithDefault
  3
AutoCAD 2000
 90
        0
280
     1
281
     0
  0
CLASS
  1
ACDBPLACEHOLDER
  2
AcDbPlaceHolder
  3
AutoCAD 2000
 90
        0
280
     1
281
     0
  0
CLASS
  1
LAYOUT
  2
AcDbLayout
  3
AutoCAD 2000
 90
        0
280
     1
281
     0
  0
CLASS
  1
DICTIONARYVAR
  2
AcDbDictionaryVar
  3
"AutoCAD"
 90
        0
280
     1
281
     0
  0
CLASS
  1
LONG_TRANSACTION
  2
AcDbLongTransaction
  3
AutoCAD 2000
 90
        0
280
     1
281
     0
  0
CLASS
  1
LWPOLYLINE
  2
AcDbPolyline
  3
"AutoCAD"
 90
        0
280
     1
281
     1
  0
CLASS
  1
HATCH
  2
AcDbHatch
  3
"ACAD_SEDONA"
 90
        0
280
     1
281
     1
  0
CLASS
  1
XRECORD
  2
AcDbXrecord
  3
"<Built In>"
 90
        0
280
     0
281
     0
  0
ENDSEC
  0
SECTION
  2
TABLES
  0
TABLE
  2
VPORT
  5
251
100
AcDbSymbolTable
 70
     1
  0
VPORT
  5
263
100
AcDbSymbolTableRecord
100
AcDbViewportTableRecord
  2
*ACTIVE
 70
     0
 10
0.0
 20
0.0
 11
1.0
 21
1.0
 12
-13.26913736557418
 22
16.89585618761217
 13
0.0
 23
0.0
 14
1.0
 24
1.0
 15
0.0
 25
0.0
 16
0.0
 26
0.0
 36
1.0
 17
23.09603071721725
 27
-10.27010416511325
 37
-10.44050274849355
 40
13.25052953328264
 41
1.457627118644067
 42
50.0
 43
10.55307667737539
 44
10.55307667737539
 50
0.0
 51
0.0
 71
     0
 72
   100
 73
     1
 74
     1
 75
     0
 76
     0
 77
     0
 78
     0
  0
ENDTAB
  0
TABLE
  2
LTYPE
  5
24D
100
AcDbSymbolTable
 70
     1
  0
LTYPE
  5
24E
100
AcDbSymbolTableRecord
100
AcDbLinetypeTableRecord
  2
BYBLOCK
 70
     0
  3

 72
    65
 73
     0
 40
0.0
  0
LTYPE
  5
6
100
AcDbSymbolTableRecord
100
AcDbLinetypeTableRecord
  2
BYLAYER
 70
     0
  3

 72
    65
 73
     0
 40
0.0
  0
LTYPE
  5
5
100
AcDbSymbolTableRecord
100
AcDbLinetypeTableRecord
  2
CONTINUOUS
 70
     0
  3
Solid line
 72
    65
 73
     0
 40
0.0
  0
ENDTAB
  0
TABLE
  2
LAYER
  5
24B
100
AcDbSymbolTable
 70
     5
  0
LAYER
  5
C4
100
AcDbSymbolTableRecord
100
AcDbLayerTableRecord
  2
0
 70
     0
 62
     7
  6
CONTINUOUS
  0
LAYER
  5
F
100
AcDbSymbolTableRecord
100
AcDbLayerTableRecord
  2
USP-GEO
 70
     0
 62
     7
  6
CONTINUOUS
  0
LAYER
  5
17
100
AcDbSymbolTableRecord
100
AcDbLayerTableRecord
  2
USP-TXT
 70
     0
 62
     7
  6
CONTINUOUS
  0
LAYER
  5
9
102
{ACAD_XDICTIONARY
360
A
102
}
100
AcDbSymbolTableRecord
100
AcDbLayerTableRecord
  2
USP-HID
 70
     0
 62
     7
  6
CONTINUOUS
  0
LAYER
  5
4
100
AcDbSymbolTableRecord
100
AcDbLayerTableRecord
  2
USP
 70
     0
 62
     7
  6
CONTINUOUS
  0
ENDTAB
  0
TABLE
  2
STYLE
  5
24C
100
AcDbSymbolTable
 70
     1
  0
STYLE
  5
18
100
AcDbSymbolTableRecord
100
AcDbTextStyleTableRecord
  2
STANDARD
 70
     0
 40
0.0
 41
1.0
 50
0.0
 71
     0
 42
0.75
  3
txt
  4

  0
ENDTAB
  0
TABLE
  2
VIEW
  5
24F
100
AcDbSymbolTable
 70
     0
  0
ENDTAB
  0
TABLE
  2
UCS
  5
250
100
AcDbSymbolTable
 70
     0
  0
ENDTAB
  0
TABLE
  2
APPID
  5
253
100
AcDbSymbolTable
 70
     1
  0
APPID
  5
B
100
AcDbSymbolTableRecord
100
AcDbRegAppTableRecord
  2
ACAD
 70
     0
  0
ENDTAB
  0
TABLE
  2
DIMSTYLE
  5
254
100
AcDbSymbolTable
 70
     1
  0
DIMSTYLE
105
25B
100
AcDbSymbolTableRecord
100
AcDbDimStyleTableRecord
  2
STANDARD
 70
     0
  3

  4

  5

  6

  7

 40
1.0
 41
0.18
 42
0.0625
 43
0.38
 44
0.18
 45
0.0
 46
0.0
 47
0.0
 48
0.0
140
0.18
141
0.09
142
0.0
143
25.4
144
1.0
145
0.0
146
1.0
147
0.09
 71
     0
 72
     0
 73
     1
 74
     1
 75
     0
 76
     0
 77
     0
 78
     0
170
     0
171
     2
172
     0
173
     0
174
     0
175
     0
176
     0
177
     0
178
     0
270
     2
271
     4
272
     4
273
     2
274
     2
340
18
275
     0
280
     0
281
     0
282
     0
283
     1
284
     0
285
     0
286
     0
287
     3
288
     0
  0
ENDTAB
  0
TABLE
  2
BLOCK_RECORD
  5
1
100
AcDbSymbolTable
 70
     3
  0
BLOCK_RECORD
  5
2
102
{ACAD_XDICTIONARY
360
244
102
}
100
AcDbSymbolTableRecord
100
AcDbBlockTableRecord
  2
*MODEL_SPACE
  0
BLOCK_RECORD
  5
247
102
{ACAD_XDICTIONARY
360
248
102
}
100
AcDbSymbolTableRecord
100
AcDbBlockTableRecord
  2
*PAPER_SPACE
  0
BLOCK_RECORD
  5
7
100
AcDbSymbolTableRecord
100
AcDbBlockTableRecord
  2
JL28_S
  0
BLOCK_RECORD
  5
C7
100
AcDbSymbolTableRecord
100
AcDbBlockTableRecord
  2
JL28_F
  0
BLOCK_RECORD
  5
1CF
100
AcDbSymbolTableRecord
100
AcDbBlockTableRecord
  2
JL28_T
  0
ENDTAB
  0
ENDSEC
  0
SECTION
  2
BLOCKS
  0
BLOCK
  5
245
100
AcDbEntity
  8
0
100
AcDbBlockBegin
  2
*MODEL_SPACE
 70
     0
 10
0.0
 20
0.0
 30
0.0
  3
*MODEL_SPACE
  1

  0
ENDBLK
  5
246
100
AcDbEntity
  8
0
100
AcDbBlockEnd
  0
BLOCK
  5
249
100
AcDbEntity
 67
     1
  8
0
100
AcDbBlockBegin
  2
*PAPER_SPACE
 70
     0
 10
0.0
 20
0.0
 30
0.0
  3
*PAPER_SPACE
  1

  0
ENDBLK
  5
24A
100
AcDbEntity
 67
     1
  8
0
100
AcDbBlockEnd
  0
BLOCK
  5
C3
100
AcDbEntity
  8
0
100
AcDbBlockBegin
  2
JL28_S
 70
     0
 10
0.0
 20
0.0
 30
0.0
  3
JL28_S
  1

  0
LINE
  5
8
100
AcDbEntity
  8
USP-HID
100
AcDbLine
 10
0.2456929793878695
 20
5.710629674908783
 30
0.0
 11
0.039999999999913
 21
5.354358983848623
 31
0.0
  0
LINE
  5
C
100
AcDbEntity
  8
USP-HID
100
AcDbLine
 10
0.059999999999909
 20
5.30899999999999
 30
0.0
 11
0.2803339955392412
 21
5.69062967490877
 31
0.0
  0
LINE
  5
D
100
AcDbEntity
  8
USP-HID
100
AcDbLine
 10
0.8705147457505649
 20
5.516875026318687
 30
0.0
 11
0.6755786437625915
 21
5.711811128306653
 31
0.0
  0
ARC
  5
E
100
AcDbEntity
  8
USP-GEO
100
AcDbCircle
 10
0.1807410741040307
 20
5.498129674908781
 30
0.0
 40
0.115
100
AcDbArc
 50
329.9999999999974
 51
75.000000000002
  0
LINE
  5
10
100
AcDbEntity
  8
USP-GEO
100
AcDbLine
 10
0.2105052642908165
 20
5.609211144932027
 30
0.0
 11
0.2001525024867139
 21
5.570574111880461
 31
0.0
  0
LINE
  5
11
100
AcDbEntity
  8
USP-GEO
100
AcDbLine
 10
0.2001525024867177
 20
5.57057411188046
 30
0.0
 11
0.0455795137453146
 21
5.611991819385385
 31
0.0
  0
CIRCLE
  5
12
100
AcDbEntity
  8
USP-GEO
100
AcDbCircle
 10
0.6386999521436159
 20
5.584000000000003
 30
0.0
 40
0.082
  0
LINE
  5
13
100
AcDbEntity
  8
USP-GEO
100
AcDbLine
 10
0.9290933895132479
 20
5.516546329918611
 30
0.0
 11
0.9290933895132585
 21
5.650860904969363
 31
0.0
  0
LINE
  5
14
100
AcDbEntity
  8
USP-GEO
100
AcDbLine
 10
0.0399999999998979
 20
5.650860904969363
 30
0.0
 11
0.0399999999999006
 21
5.516546329918611
 31
0.0
  0
LINE
  5
15
100
AcDbEntity
  8
USP-GEO
100
AcDbLine
 10
-0.0000000000001004
 20
5.516546329918611
 30
0.0
 11
-0.000000000000103
 21
5.650860904969363
 31
0.0
  0
TEXT
  5
16
100
AcDbEntity
  8
USP-TXT
100
AcDbText
 10
-1.149833333333328
 20
-0.774089954705623
 30
0.0
 40
0.25
  1
JL28  - SIDE VIEW
 72
     1
 11
0.9335000000000057
 21
-0.774089954705623
 31
0.0
100
AcDbText
  0
LINE
  5
19
100
AcDbEntity
  8
USP-HID
100
AcDbLine
 10
0.4670000000000081
 20
0.0399999999999973
 30
0.0
 11
1.767000000000008
 21
0.0400000000000224
 31
0.0
  0
ARC
  5
1A
100
AcDbEntity
  8
USP-HID
100
AcDbCircle
 10
0.7290933895133281
 20
2.163453670081381
 30
0.0
 40
0.2
100
AcDbArc
 50
13.16356116736724
 51
45.00000000000208
  0
LINE
  5
1B
100
AcDbEntity
  8
USP-GEO
100
AcDbLine
 10
0.4670000000000087
 20
0.0000000000000034
 30
0.0
 11
1.767000000000008
 21
0.0000000000000285
 31
0.0
  0
LINE
  5
1C
100
AcDbEntity
  8
USP-GEO
100
AcDbLine
 10
1.796289321881333
 20
0.1107106781187001
 30
0.0
 11
0.6755786437626743
 21
1.231421356237316
 31
0.0
  0
ARC
  5
1D
100
AcDbEntity
  8
USP-GEO
100
AcDbCircle
 10
0.7290933895133223
 20
2.254546329918632
 30
0.0
 40
0.2
100
AcDbArc
 50
315.0000000000009
 51
0.000000000001145
  0
ARC
  5
1E
100
AcDbEntity
  8
USP-GEO
100
AcDbCircle
 10
0.7290933895133201
 20
2.388860904969384
 30
0.0
 40
0.2
100
AcDbArc
 50
0.000000000001145
 51
45.00000000000099
  0
ARC
  5
1F
100
AcDbEntity
  8
USP-GEO
100
AcDbCircle
 10
0.7290933895132899
 20
3.941546329918629
 30
0.0
 40
0.2
100
AcDbArc
 50
315.0000000000009
 51
0.0000000000010178
  0
ARC
  5
20
100
AcDbEntity
  8
USP-GEO
100
AcDbCircle
 10
0.7290933895132872
 20
4.075860904969381
 30
0.0
 40
0.2
100
AcDbArc
 50
0.0000000000010178
 51
45.00000000000089
  0
ARC
  5
21
100
AcDbEntity
  8
USP-GEO
100
AcDbCircle
 10
0.7290933895132597
 20
5.516546329918625
 30
0.0
 40
0.2
100
AcDbArc
 50
315.0000000000011
 51
0.0000000000010178
  0
ARC
  5
22
100
AcDbEntity
  8
USP-GEO
100
AcDbCircle
 10
0.7290933895133303
 20
2.029139095030629
 30
0.0
 40
0.2
100
AcDbArc
 50
315.0000000000011
 51
0.000000000001145
  0
ARC
  5
23
100
AcDbEntity
  8
USP-GEO
100
AcDbCircle
 10
0.7290933895132983
 20
3.667139095030627
 30
0.0
 40
0.2
100
AcDbArc
 50
315.0000000000011
 51
0.0000000000010178
  0
ARC
  5
24
100
AcDbEntity
  8
USP-GEO
100
AcDbCircle
 10
0.7290933895132965
 20
3.801453670081379
 30
0.0
 40
0.2
100
AcDbArc
 50
0.0000000000010178
 51
20.50148448928877
  0
ARC
  5
25
100
AcDbEntity
  8
USP-GEO
100
AcDbCircle
 10
0.7290933895132686
 20
5.241139095030632
 30
0.0
 40
0.2
100
AcDbArc
 50
315.0000000000007
 51
0.0000000000010178
  0
ARC
  5
26
100
AcDbEntity
  8
USP-GEO
100
AcDbCircle
 10
0.7290933895132659
 20
5.375453670081384
 30
0.0
 40
0.2
100
AcDbArc
 50
0.0000000000010178
 51
20.65448631509816
  0
LINE
  5
27
100
AcDbEntity
  8
USP-GEO
100
AcDbLine
 10
0.6169999999999805
 20
1.372842712474621
 30
0.0
 11
0.6169999999999727
 21
1.776767515456043
 31
0.0
  0
LINE
  5
28
100
AcDbEntity
  8
USP-GEO
100
AcDbLine
 10
0.0399999999999727
 20
1.776767515456029
 30
0.0
 11
0.0399999999999805
 21
1.372842712474614
 31
0.0
  0
LINE
  5
29
100
AcDbEntity
  8
USP-GEO
100
AcDbLine
 10
-0.0000000000000195
 20
1.372842712474614
 30
0.0
 11
-0.0000000000000273
 21
1.776767515456026
 31
0.0
  0
ARC
  5
2A
100
AcDbEntity
  8
USP-GEO
100
AcDbCircle
 10
0.8169999999999802
 20
1.551360280568033
 30
0.0
 40
0.2
100
AcDbArc
 50
135.0000000000006
 51
180.0000000000011
  0
LINE
  5
2B
100
AcDbEntity
  8
USP-GEO
100
AcDbLine
 10
0.0399999999999827
 20
1.231421356237302
 30
0.0
 11
0.0400000000000009
 21
0.3669999999999956
 31
0.0
  0
LINE
  5
2C
100
AcDbEntity
  8
USP-GEO
100
AcDbLine
 10
0.0
 20
0.3670000000000008
 30
0.0
 11
-0.0000000000000182
 21
1.231421356237309
 31
0.0
  0
LINE
  5
2D
100
AcDbEntity
  8
USP-GEO
100
AcDbLine
 10
0.467000000000009
 20
0.000000000000002
 30
0.0
 11
0.3670000000000091
 21
0.0
 31
0.0
  0
LINE
  5
2E
100
AcDbEntity
  8
USP-GEO
100
AcDbLine
 10
0.3670000000000073
 20
0.0399999999999992
 30
0.0
 11
0.4670000000000072
 21
0.0400000000000012
 31
0.0
  0
ARC
  5
2F
100
AcDbEntity
  8
USP-GEO
100
AcDbCircle
 10
0.3670000000000071
 20
0.0399999999999993
 30
0.0
 40
0.1
100
AcDbArc
 50
0.0000000000010814
 51
135.0000000000002
  0
LINE
  5
30
100
AcDbEntity
  8
USP-GEO
100
AcDbLine
 10
0.0400000000000029
 20
0.3669999999999952
 30
0.0
 11
0.2962893218813527
 21
0.1107106781186536
 31
0.0
  0
LINE
  5
31
100
AcDbEntity
  8
USP-GEO
100
AcDbLine
 10
0.3670000000000071
 20
0.0399999999999993
 30
0.0
 11
0.3670000000000078
 21
-0.0000000000000006
 31
0.0
  0
LINE
  5
32
100
AcDbEntity
  8
USP-GEO
100
AcDbLine
 10
0.000000000000002
 20
0.3669999999999932
 30
0.0
 11
0.0400000000000018
 21
0.3669999999999974
 31
0.0
  0
LINE
  5
33
100
AcDbEntity
  8
USP-GEO
100
AcDbLine
 10
0.4670000000000078
 20
0.0399999999999974
 30
0.0
 11
0.4670000000000086
 21
0.0000000000000001
 31
0.0
  0
LINE
  5
34
100
AcDbEntity
  8
USP-GEO
100
AcDbLine
 10
0.0399999999999801
 20
1.372842712474614
 30
0.0
 11
0.039999999999983
 21
1.231421356237305
 31
0.0
  0
LINE
  5
35
100
AcDbEntity
  8
USP-GEO
100
AcDbLine
 10
-0.0000000000000209
 20
1.372842712474614
 30
0.0
 11
-0.000000000000018
 21
1.231421356237305
 31
0.0
  0
LINE
  5
36
100
AcDbEntity
  8
USP-HID
100
AcDbLine
 10
0.0399999999999823
 20
1.37699999999999
 30
0.0
 11
-0.000000000000018
 21
1.376999999999989
 31
0.0
  0
LINE
  5
37
100
AcDbEntity
  8
USP-HID
100
AcDbLine
 10
0.0399999999999781
 20
1.540999999999989
 30
0.0
 11
-0.0000000000000222
 21
1.540999999999988
 31
0.0
  0
ARC
  5
38
100
AcDbEntity
  8
USP-GEO
100
AcDbCircle
 10
0.8169999999999815
 20
1.372842712474628
 30
0.0
 40
0.2
100
AcDbArc
 50
180.0000000000011
 51
225.0000000000009
  0
ARC
  5
39
100
AcDbEntity
  8
USP-GEO
100
AcDbCircle
 10
0.8169999999999394
 20
3.463767515456048
 30
0.0
 40
0.2
100
AcDbArc
 50
135.0000000000008
 51
180.0000000000009
  0
LINE
  5
3A
100
AcDbEntity
  8
USP-GEO
100
AcDbLine
 10
0.0399999999999368
 20
3.60518887169335
 30
0.0
 11
0.0399999999999392
 21
3.463767515456034
 31
0.0
  0
LINE
  5
3B
100
AcDbEntity
  8
USP-GEO
100
AcDbLine
 10
-0.0000000000000633
 20
3.605188871693349
 30
0.0
 11
-0.0000000000000608
 21
3.463767515456034
 31
0.0
  0
ARC
  5
3C
100
AcDbEntity
  8
USP-HID
100
AcDbCircle
 10
0.8169999999999593
 20
2.641232484543962
 30
0.0
 40
0.2
100
AcDbArc
 50
180.0000000000011
 51
225.0000000000012
  0
LINE
  5
3D
100
AcDbEntity
  8
USP-GEO
100
AcDbLine
 10
0.870514745750626
 20
2.530282261206693
 30
0.0
 11
0.6755786437626468
 21
2.725218363194666
 31
0.0
  0
LINE
  5
3E
100
AcDbEntity
  8
USP-GEO
100
AcDbLine
 10
0.0399999999999552
 20
2.725218363194655
 30
0.0
 11
0.0399999999999592
 21
2.530282261206686
 31
0.0
  0
LINE
  5
3F
100
AcDbEntity
  8
USP-GEO
100
AcDbLine
 10
-0.0000000000000417
 20
2.530282261206686
 30
0.0
 11
-0.0000000000000457
 21
2.725218363194655
 31
0.0
  0
LINE
  5
40
100
AcDbEntity
  8
USP-GEO
100
AcDbLine
 10
0.0399999999999663
 20
2.113124973681312
 30
0.0
 11
0.0399999999999696
 21
1.918188871693352
 31
0.0
  0
LINE
  5
41
100
AcDbEntity
  8
USP-GEO
100
AcDbLine
 10
-0.0000000000000346
 20
2.113124973681307
 30
0.0
 11
-0.0000000000000313
 21
1.918188871693346
 31
0.0
  0
LINE
  5
42
100
AcDbEntity
  8
USP-GEO
100
AcDbLine
 10
0.0399999999999696
 20
1.918188871693345
 30
0.0
 11
0.0399999999999721
 21
1.776767515456029
 31
0.0
  0
LINE
  5
43
100
AcDbEntity
  8
USP-GEO
100
AcDbLine
 10
-0.0000000000000304
 20
1.918188871693352
 30
0.0
 11
-0.000000000000028
 21
1.776767515456036
 31
0.0
  0
LINE
  5
44
100
AcDbEntity
  8
USP-GEO
100
AcDbLine
 10
0.0399999999999601
 20
2.388860904969362
 30
0.0
 11
0.0399999999999627
 21
2.254546329918611
 31
0.0
  0
LINE
  5
45
100
AcDbEntity
  8
USP-GEO
100
AcDbLine
 10
-0.0000000000000373
 20
2.254546329918611
 30
0.0
 11
-0.00000000000004
 21
2.388860904969362
 31
0.0
  0
LINE
  5
46
100
AcDbEntity
  8
USP-GEO
100
AcDbLine
 10
0.0399999999999632
 20
2.254546329918618
 30
0.0
 11
0.0399999999999656
 21
2.113124973681305
 31
0.0
  0
LINE
  5
47
100
AcDbEntity
  8
USP-GEO
100
AcDbLine
 10
-0.0000000000000344
 20
2.113124973681299
 30
0.0
 11
-0.0000000000000369
 21
2.254546329918611
 31
0.0
  0
LINE
  5
48
100
AcDbEntity
  8
USP-HID
100
AcDbLine
 10
0.0399999999999625
 20
2.595999999999991
 30
0.0
 11
-0.0000000000000364
 21
2.59599999999999
 31
0.0
  0
LINE
  5
49
100
AcDbEntity
  8
USP-GEO
100
AcDbLine
 10
0.0399999999999576
 20
2.530282261206679
 30
0.0
 11
0.0399999999999605
 21
2.388860904969362
 31
0.0
  0
LINE
  5
4A
100
AcDbEntity
  8
USP-GEO
100
AcDbLine
 10
-0.0000000000000395
 20
2.388860904969369
 30
0.0
 11
-0.0000000000000424
 21
2.530282261206686
 31
0.0
  0
CIRCLE
  5
4B
100
AcDbEntity
  8
USP-HID
100
AcDbCircle
 10
0.6386999521436865
 20
2.096000000000003
 30
0.0
 40
0.082
  0
LINE
  5
4C
100
AcDbEntity
  8
USP-GEO
100
AcDbLine
 10
0.6755786437626612
 20
1.918188871693355
 30
0.0
 11
0.8705147457506271
 21
2.113124973681328
 31
0.0
  0
LINE
  5
4D
100
AcDbEntity
  8
USP-GEO
100
AcDbLine
 10
0.9290933895133161
 20
2.163453670081409
 30
0.0
 11
0.9290933895133321
 21
2.029139095030658
 31
0.0
  0
LINE
  5
4E
100
AcDbEntity
  8
USP-GEO
100
AcDbLine
 10
0.870514745750642
 20
1.887717738793327
 30
0.0
 11
0.6755786437626695
 21
1.692781636805347
 31
0.0
  0
ARC
  5
4F
100
AcDbEntity
  8
USP-GEO
100
AcDbCircle
 10
0.8169999999999717
 20
1.77676751545605
 30
0.0
 40
0.2
100
AcDbArc
 50
135.0000000000006
 51
180.0000000000011
  0
LINE
  5
50
100
AcDbEntity
  8
USP-HID
100
AcDbLine
 10
0.8705147457506274
 20
2.304875026318683
 30
0.0
 11
0.675578643762653
 21
2.499811128306649
 31
0.0
  0
CIRCLE
  5
51
100
AcDbEntity
  8
USP-GEO
100
AcDbCircle
 10
0.6386999521436785
 20
2.322000000000002
 30
0.0
 40
0.082
  0
LINE
  5
52
100
AcDbEntity
  8
USP-GEO
100
AcDbLine
 10
0.9290933895133107
 20
2.254546329918611
 30
0.0
 11
0.9290933895133214
 21
2.388860904969362
 31
0.0
  0
ARC
  5
53
100
AcDbEntity
  8
USP-GEO
100
AcDbCircle
 10
0.7290933895133281
 20
2.163453670081381
 30
0.0
 40
0.2
100
AcDbArc
 50
0.000000000001145
 51
13.16356116736724
  0
LINE
  5
54
100
AcDbEntity
  8
USP-GEO
100
AcDbLine
 10
0.0399999999999397
 20
3.463767515456034
 30
0.0
 11
0.0399999999999512
 21
2.866639719431965
 31
0.0
  0
LINE
  5
55
100
AcDbEntity
  8
USP-GEO
100
AcDbLine
 10
-0.0000000000000488
 20
2.866639719431958
 30
0.0
 11
-0.0000000000000604
 21
3.463767515456028
 31
0.0
  0
LINE
  5
56
100
AcDbEntity
  8
USP-GEO
100
AcDbLine
 10
0.0399999999999508
 20
2.866639719431958
 30
0.0
 11
0.0399999999999536
 21
2.725218363194648
 31
0.0
  0
LINE
  5
57
100
AcDbEntity
  8
USP-GEO
100
AcDbLine
 10
-0.0000000000000493
 20
2.866639719431958
 30
0.0
 11
-0.0000000000000464
 21
2.725218363194648
 31
0.0
  0
LINE
  5
58
100
AcDbEntity
  8
USP-HID
100
AcDbLine
 10
0.0399999999999592
 20
2.75999999999999
 30
0.0
 11
-0.0000000000000415
 21
2.75999999999999
 31
0.0
  0
LINE
  5
59
100
AcDbEntity
  8
USP-HID
100
AcDbLine
 10
0.0399999999999548
 20
2.75199999999999
 30
0.0
 11
-0.0000000000000446
 21
2.751999999999989
 31
0.0
  0
LINE
  5
5A
100
AcDbEntity
  8
USP-HID
100
AcDbLine
 10
0.0399999999999505
 20
2.915999999999989
 30
0.0
 11
-0.0000000000000488
 21
2.915999999999988
 31
0.0
  0
LINE
  5
5B
100
AcDbEntity
  8
USP-GEO
100
AcDbLine
 10
0.6169999999999521
 20
2.866639719431972
 30
0.0
 11
0.6169999999999405
 21
3.46376751545604
 31
0.0
  0
LINE
  5
5C
100
AcDbEntity
  8
USP-HID
100
AcDbLine
 10
0.6169999999999521
 20
2.866639719431972
 30
0.0
 11
0.6169999999999563
 21
2.641232484543962
 31
0.0
  0
ARC
  5
5D
100
AcDbEntity
  8
USP-GEO
100
AcDbCircle
 10
0.8169999999999518
 20
2.866639719431979
 30
0.0
 40
0.2
100
AcDbArc
 50
180.0000000000011
 51
225.0000000000016
  0
LINE
  5
5E
100
AcDbEntity
  8
USP-GEO
100
AcDbLine
 10
0.8705147457506097
 20
3.525717738793325
 30
0.0
 11
0.6755786437626364
 21
3.330781636805344
 31
0.0
  0
ARC
  5
5F
100
AcDbEntity
  8
USP-GEO
100
AcDbCircle
 10
0.8169999999999486
 20
3.189360280568038
 30
0.0
 40
0.2
100
AcDbArc
 50
135.0000000000008
 51
180.0000000000011
  0
LINE
  5
60
100
AcDbEntity
  8
USP-GEO
100
AcDbLine
 10
0.6169999999999192
 20
4.553639719431977
 30
0.0
 11
0.6169999999999103
 21
5.038767515456044
 31
0.0
  0
LINE
  5
61
100
AcDbEntity
  8
USP-GEO
100
AcDbLine
 10
0.6169999999999192
 20
4.553639719431977
 30
0.0
 11
0.6169999999999099
 21
5.038767515456046
 31
0.0
  0
LINE
  5
62
100
AcDbEntity
  8
USP-GEO
100
AcDbLine
 10
0.0399999999999099
 20
5.038767515456028
 30
0.0
 11
0.0399999999999192
 21
4.553639719431963
 31
0.0
  0
LINE
  5
63
100
AcDbEntity
  8
USP-GEO
100
AcDbLine
 10
-0.0000000000000826
 20
4.553639719431963
 30
0.0
 11
-0.0000000000000919
 21
5.038767515456028
 31
0.0
  0
CIRCLE
  5
64
100
AcDbEntity
  8
USP-GEO
100
AcDbCircle
 10
0.3289999999999242
 20
4.387999999999998
 30
0.0
 40
0.15625
  0
LINE
  5
65
100
AcDbEntity
  8
USP-GEO
100
AcDbLine
 10
0.0399999999999266
 20
4.217282261206684
 30
0.0
 11
0.0399999999999294
 21
4.075860904969367
 31
0.0
  0
LINE
  5
66
100
AcDbEntity
  8
USP-GEO
100
AcDbLine
 10
-0.0000000000000715
 20
4.075860904969367
 30
0.0
 11
-0.0000000000000744
 21
4.217282261206684
 31
0.0
  0
LINE
  5
67
100
AcDbEntity
  8
USP-GEO
100
AcDbLine
 10
0.0399999999999312
 20
3.941546329918615
 30
0.0
 11
0.0399999999999337
 21
3.800124973681303
 31
0.0
  0
LINE
  5
68
100
AcDbEntity
  8
USP-GEO
100
AcDbLine
 10
-0.0000000000000673
 20
3.800124973681303
 30
0.0
 11
-0.0000000000000697
 21
3.941546329918615
 31
0.0
  0
LINE
  5
69
100
AcDbEntity
  8
USP-GEO
100
AcDbLine
 10
0.0399999999999343
 20
3.800124973681311
 30
0.0
 11
0.0399999999999377
 21
3.60518887169335
 31
0.0
  0
LINE
  5
6A
100
AcDbEntity
  8
USP-GEO
100
AcDbLine
 10
-0.0000000000000675
 20
3.800124973681311
 30
0.0
 11
-0.0000000000000642
 21
3.60518887169335
 31
0.0
  0
LINE
  5
6B
100
AcDbEntity
  8
USP-GEO
100
AcDbLine
 10
0.0399999999999281
 20
4.075860904969367
 30
0.0
 11
0.0399999999999308
 21
3.941546329918615
 31
0.0
  0
LINE
  5
6C
100
AcDbEntity
  8
USP-GEO
100
AcDbLine
 10
-0.0000000000000702
 20
3.941546329918615
 30
0.0
 11
-0.0000000000000728
 21
4.075860904969367
 31
0.0
  0
LINE
  5
6D
100
AcDbEntity
  8
USP-GEO
100
AcDbLine
 10
0.0399999999999223
 20
4.412218363194652
 30
0.0
 11
0.0399999999999263
 21
4.217282261206683
 31
0.0
  0
LINE
  5
6E
100
AcDbEntity
  8
USP-GEO
100
AcDbLine
 10
-0.0000000000000755
 20
4.217282261206683
 30
0.0
 11
-0.0000000000000795
 21
4.412218363194652
 31
0.0
  0
LINE
  5
6F
100
AcDbEntity
  8
USP-HID
100
AcDbLine
 10
0.0399999999999305
 20
4.209999999999995
 30
0.0
 11
-0.0000000000000693
 21
4.209999999999994
 31
0.0
  0
LINE
  5
70
100
AcDbEntity
  8
USP-HID
100
AcDbLine
 10
0.0399999999999254
 20
4.276999999999988
 30
0.0
 11
-0.0000000000000731
 21
4.276999999999987
 31
0.0
  0
LINE
  5
71
100
AcDbEntity
  8
USP-HID
100
AcDbLine
 10
0.0399999999999281
 20
4.373999999999995
 30
0.0
 11
-0.0000000000000717
 21
4.373999999999994
 31
0.0
  0
LINE
  5
72
100
AcDbEntity
  8
USP-HID
100
AcDbLine
 10
0.039999999999923
 20
4.440999999999988
 30
0.0
 11
-0.0000000000000782
 21
4.440999999999987
 31
0.0
  0
LINE
  5
73
100
AcDbEntity
  8
USP-GEO
100
AcDbLine
 10
0.0399999999999188
 20
4.553639719431963
 30
0.0
 11
0.0399999999999217
 21
4.412218363194652
 31
0.0
  0
LINE
  5
74
100
AcDbEntity
  8
USP-GEO
100
AcDbLine
 10
-0.0000000000000822
 20
4.553639719431963
 30
0.0
 11
-0.0000000000000793
 21
4.412218363194652
 31
0.0
  0
LINE
  5
75
100
AcDbEntity
  8
USP-HID
100
AcDbLine
 10
0.8705147457505951
 20
3.942875026318689
 30
0.0
 11
0.6755786437626217
 21
4.137811128306655
 31
0.0
  0
CIRCLE
  5
76
100
AcDbEntity
  8
USP-HID
100
AcDbCircle
 10
0.6386999521436554
 20
3.734000000000001
 30
0.0
 40
0.082
  0
CIRCLE
  5
77
100
AcDbEntity
  8
USP-GEO
100
AcDbCircle
 10
0.638699952143647
 20
4.009
 30
0.0
 40
0.082
  0
LINE
  5
78
100
AcDbEntity
  8
USP-GEO
100
AcDbLine
 10
0.6755786437626284
 20
3.605188871693353
 30
0.0
 11
0.8705147457505951
 21
3.800124973681327
 31
0.0
  0
LINE
  5
79
100
AcDbEntity
  8
USP-GEO
100
AcDbLine
 10
0.9290933895132846
 20
3.801453670081407
 30
0.0
 11
0.9290933895133015
 21
3.667139095030655
 31
0.0
  0
ARC
  5
7A
100
AcDbEntity
  8
USP-HID
100
AcDbCircle
 10
0.7290933895132965
 20
3.801453670081379
 30
0.0
 40
0.2
100
AcDbArc
 50
20.50148448928877
 51
45.00000000000208
  0
LINE
  5
7B
100
AcDbEntity
  8
USP-GEO
100
AcDbLine
 10
0.9290933895132784
 20
3.941546329918608
 30
0.0
 11
0.9290933895132891
 21
4.07586090496936
 31
0.0
  0
LINE
  5
7C
100
AcDbEntity
  8
USP-GEO
100
AcDbLine
 10
0.8705147457505946
 20
4.21728226120669
 30
0.0
 11
0.6755786437626126
 21
4.412218363194664
 31
0.0
  0
LINE
  5
7D
100
AcDbEntity
  8
USP-HID
100
AcDbLine
 10
0.6169999999999203
 20
4.553639719431977
 30
0.0
 11
0.6169999999999241
 21
4.27923248454396
 31
0.0
  0
ARC
  5
7E
100
AcDbEntity
  8
USP-HID
100
AcDbCircle
 10
0.8169999999999282
 20
4.279232484543967
 30
0.0
 40
0.2
100
AcDbArc
 50
180.0000000000009
 51
225.0000000000009
  0
ARC
  5
7F
100
AcDbEntity
  8
USP-GEO
100
AcDbCircle
 10
0.8169999999999181
 20
4.553639719431977
 30
0.0
 40
0.2
100
AcDbArc
 50
180.0000000000009
 51
225.0000000000016
  0
LINE
  5
80
100
AcDbEntity
  8
USP-HID
100
AcDbLine
 10
0.0199999999999046
 20
5.069717967697241
 30
0.0
 11
0.0399999999999041
 21
5.104358983848618
 31
0.0
  0
LINE
  5
81
100
AcDbEntity
  8
USP-GEO
100
AcDbLine
 10
0.0599999999999115
 20
5.058999999999991
 30
0.0
 11
0.2803339955392436
 21
5.440629674908771
 31
0.0
  0
LINE
  5
82
100
AcDbEntity
  8
USP-GEO
100
AcDbLine
 10
0.0399999999999066
 20
5.180188871693353
 30
0.0
 11
0.039999999999909
 21
5.038767515456036
 31
0.0
  0
LINE
  5
83
100
AcDbEntity
  8
USP-GEO
100
AcDbLine
 10
-0.0000000000000935
 20
5.180188871693352
 30
0.0
 11
-0.000000000000091
 21
5.038767515456036
 31
0.0
  0
LINE
  5
84
100
AcDbEntity
  8
USP-HID
100
AcDbLine
 10
0.0399999999999119
 20
5.064358983848623
 30
0.0
 11
0.0199999999999125
 21
5.069717967697244
 31
0.0
  0
LINE
  5
85
100
AcDbEntity
  8
USP-HID
100
AcDbLine
 10
-0.0000000000000915
 20
5.058999999999997
 30
0.0
 11
0.0399999999999099
 21
5.058999999999998
 31
0.0
  0
LINE
  5
86
100
AcDbEntity
  8
USP-HID
100
AcDbLine
 10
0.039999999999919
 20
4.851999999999991
 30
0.0
 11
-0.0000000000000817
 21
4.85199999999999
 31
0.0
  0
LINE
  5
87
100
AcDbEntity
  8
USP-HID
100
AcDbLine
 10
0.0399999999999148
 20
5.015999999999991
 30
0.0
 11
-0.000000000000085
 21
5.01599999999999
 31
0.0
  0
LINE
  5
88
100
AcDbEntity
  8
USP-HID
100
AcDbLine
 10
0.039999999999913
 20
4.896999999999993
 30
0.0
 11
-0.0000000000000855
 21
4.896999999999992
 31
0.0
  0
LINE
  5
89
100
AcDbEntity
  8
USP-HID
100
AcDbLine
 10
0.0399999999999106
 20
5.060999999999992
 30
0.0
 11
-0.0000000000000906
 21
5.060999999999991
 31
0.0
  0
LINE
  5
8A
100
AcDbEntity
  8
USP-GEO
100
AcDbLine
 10
0.0399999999999097
 20
5.064358983848618
 30
0.0
 11
0.0599999999999117
 21
5.058999999999997
 31
0.0
  0
ARC
  5
8B
100
AcDbEntity
  8
USP-GEO
100
AcDbCircle
 10
0.1807410741040307
 20
5.498129674908781
 30
0.0
 40
0.075
100
AcDbArc
 50
330.0000000000026
 51
75.00000000000141
  0
LINE
  5
8C
100
AcDbEntity
  8
USP-GEO
100
AcDbLine
 10
0.2456929793878697
 20
5.460629674908781
 30
0.0
 11
0.0399999999999095
 21
5.104358983848613
 31
0.0
  0
LINE
  5
8D
100
AcDbEntity
  8
USP-HID
100
AcDbLine
 10
0.0199999999999028
 20
5.319717967697239
 30
0.0
 11
0.0399999999999077
 21
5.354358983848626
 31
0.0
  0
LINE
  5
8E
100
AcDbEntity
  8
USP-GEO
100
AcDbLine
 10
0.0399999999999032
 20
5.375124973681313
 30
0.0
 11
0.0399999999999066
 21
5.180188871693353
 31
0.0
  0
LINE
  5
8F
100
AcDbEntity
  8
USP-GEO
100
AcDbLine
 10
-0.0000000000000977
 20
5.375124973681314
 30
0.0
 11
-0.0000000000000944
 21
5.180188871693353
 31
0.0
  0
LINE
  5
90
100
AcDbEntity
  8
USP-HID
100
AcDbLine
 10
0.0599999999999066
 20
5.308999999999985
 30
0.0
 11
0.0399999999999083
 21
5.314358983848606
 31
0.0
  0
LINE
  5
91
100
AcDbEntity
  8
USP-HID
100
AcDbLine
 10
0.0399999999999088
 20
5.314358983848609
 30
0.0
 11
0.019999999999907
 21
5.31971796769723
 31
0.0
  0
LINE
  5
92
100
AcDbEntity
  8
USP-HID
100
AcDbLine
 10
-0.0000000000000915
 20
5.30899999999999
 30
0.0
 11
0.0399999999999092
 21
5.308999999999991
 31
0.0
  0
LINE
  5
93
100
AcDbEntity
  8
USP-GEO
100
AcDbLine
 10
0.039999999999901
 20
5.516546329918618
 30
0.0
 11
0.0399999999999035
 21
5.375124973681306
 31
0.0
  0
LINE
  5
94
100
AcDbEntity
  8
USP-GEO
100
AcDbLine
 10
-0.0000000000000975
 20
5.375124973681299
 30
0.0
 11
-0.0000000000000999
 21
5.516546329918611
 31
0.0
  0
ARC
  5
95
100
AcDbEntity
  8
USP-GEO
100
AcDbCircle
 10
0.8169999999999092
 20
5.038767515456044
 30
0.0
 40
0.2
100
AcDbArc
 50
135.0000000000011
 51
180.0000000000009
  0
LINE
  5
96
100
AcDbEntity
  8
USP-GEO
100
AcDbLine
 10
0.8705147457505795
 20
5.099717738793323
 30
0.0
 11
0.6755786437626062
 21
4.904781636805341
 31
0.0
  0
ARC
  5
97
100
AcDbEntity
  8
USP-GEO
100
AcDbCircle
 10
0.8169999999999181
 20
4.763360280568036
 30
0.0
 40
0.2
100
AcDbArc
 50
135.0000000000011
 51
180.0000000000009
  0
CIRCLE
  5
98
100
AcDbEntity
  8
USP-HID
100
AcDbCircle
 10
0.6386999521436252
 20
5.307999999999999
 30
0.0
 40
0.082
  0
LINE
  5
99
100
AcDbEntity
  8
USP-GEO
100
AcDbLine
 10
0.6755786437625973
 20
5.180188871693355
 30
0.0
 11
0.8705147457505638
 21
5.37512497368133
 31
0.0
  0
LINE
  5
9A
100
AcDbEntity
  8
USP-GEO
100
AcDbLine
 10
0.929093389513255
 20
5.375453670081405
 30
0.0
 11
0.9290933895132717
 21
5.241139095030654
 31
0.0
  0
ARC
  5
9B
100
AcDbEntity
  8
USP-HID
100
AcDbCircle
 10
0.7290933895132659
 20
5.375453670081384
 30
0.0
 40
0.2
100
AcDbArc
 50
20.65448631509816
 51
45.00000000000055
  0
LINE
  5
9C
100
AcDbEntity
  8
USP-GEO
100
AcDbLine
 10
1.867000000000008
 20
0.0400000000000277
 30
0.0
 11
1.867000000000009
 21
0.0000000000000269
 31
0.0
  0
LINE
  5
9D
100
AcDbEntity
  8
USP-GEO
100
AcDbLine
 10
1.867000000000008
 20
0.0000000000000284
 30
0.0
 11
1.767000000000008
 21
0.0000000000000266
 31
0.0
  0
LINE
  5
9E
100
AcDbEntity
  8
USP-GEO
100
AcDbLine
 10
1.767000000000008
 20
0.0400000000000258
 30
0.0
 11
1.867000000000008
 21
0.0400000000000276
 31
0.0
  0
LINE
  5
9F
100
AcDbEntity
  8
USP-GEO
100
AcDbLine
 10
1.767000000000008
 20
0.0000000000000279
 30
0.0
 11
1.767000000000007
 21
0.0400000000000277
 31
0.0
  0
ARC
  5
A0
100
AcDbEntity
  8
USP-GEO
100
AcDbCircle
 10
1.867000000000008
 20
0.0400000000000277
 30
0.0
 40
0.1
100
AcDbArc
 50
134.9999999999998
 51
180.0000000000011
  0
ARC
  5
A1
100
AcDbEntity
  8
USP-GEO
100
AcDbCircle
 10
0.7290933895132561
 20
5.650860904969384
 30
0.0
 40
0.2
100
AcDbArc
 50
0.0000000000010178
 51
45.00000000000099
  0
LINE
  5
A2
100
AcDbEntity
  8
USP-GEO
100
AcDbLine
 10
0.0399999999998841
 20
6.430999999999998
 30
0.0
 11
0.616999999999883
 21
6.431000000000008
 31
0.0
  0
LINE
  5
A3
100
AcDbEntity
  8
USP-GEO
100
AcDbLine
 10
0.0399999999998877
 20
6.128639719431966
 30
0.0
 11
0.0399999999998906
 21
5.987218363194656
 31
0.0
  0
LINE
  5
A4
100
AcDbEntity
  8
USP-GEO
100
AcDbLine
 10
-0.0000000000001106
 20
6.128639719431959
 30
0.0
 11
-0.0000000000001077
 21
5.987218363194648
 31
0.0
  0
ARC
  5
A5
100
AcDbEntity
  8
USP-HID
100
AcDbCircle
 10
0.1807410741040289
 20
5.748129674908781
 30
0.0
 40
0.075
100
AcDbArc
 50
330.0000000000026
 51
75.00000000000206
  0
ARC
  5
A6
100
AcDbEntity
  8
USP-HID
100
AcDbCircle
 10
0.1807410741040289
 20
5.748129674908781
 30
0.0
 40
0.115
100
AcDbArc
 50
329.9999999999964
 51
75.00000000000136
  0
LINE
  5
A7
100
AcDbEntity
  8
USP-HID
100
AcDbLine
 10
0.0455795137453186
 20
5.861991819385393
 30
0.0
 11
0.2001525024867152
 21
5.820574111880461
 31
0.0
  0
LINE
  5
A8
100
AcDbEntity
  8
USP-HID
100
AcDbLine
 10
0.2001525024867137
 20
5.820574111880461
 30
0.0
 11
0.2105052642908161
 21
5.859211144932025
 31
0.0
  0
LINE
  5
A9
100
AcDbEntity
  8
USP-GEO
100
AcDbLine
 10
0.0399999999998912
 20
5.987218363194655
 30
0.0
 11
0.0399999999998952
 21
5.792282261206686
 31
0.0
  0
LINE
  5
AA
100
AcDbEntity
  8
USP-GEO
100
AcDbLine
 10
-0.000000000000103
 20
5.792282261206679
 30
0.0
 11
-0.000000000000107
 21
5.987218363194648
 31
0.0
  0
LINE
  5
AB
100
AcDbEntity
  8
USP-GEO
100
AcDbLine
 10
0.2105052642908167
 20
5.609211144932025
 30
0.0
 11
0.0559322755494147
 21
5.650628852436951
 31
0.0
  0
LINE
  5
AC
100
AcDbEntity
  8
USP-HID
100
AcDbLine
 10
0.056441399440657
 20
5.609081385885038
 30
0.0
 11
0.0667941612447594
 21
5.647718418936602
 31
0.0
  0
LINE
  5
AD
100
AcDbEntity
  8
USP-HID
100
AcDbLine
 10
-0.0000000000001021
 20
5.647475823477243
 30
0.0
 11
0.0399999999998988
 21
5.647475823477244
 31
0.0
  0
LINE
  5
AE
100
AcDbEntity
  8
USP-HID
100
AcDbLine
 10
0.0399999999999003
 20
5.782999999999995
 30
0.0
 11
-0.0000000000000995
 21
5.782999999999995
 31
0.0
  0
LINE
  5
AF
100
AcDbEntity
  8
USP-GEO
100
AcDbLine
 10
0.0559322755494138
 20
5.650628852436952
 30
0.0
 11
0.0455795137453117
 21
5.61199181938539
 31
0.0
  0
LINE
  5
B0
100
AcDbEntity
  8
USP-GEO
100
AcDbLine
 10
0.0399999999998946
 20
5.792282261206686
 30
0.0
 11
0.0399999999998975
 21
5.65086090496937
 31
0.0
  0
LINE
  5
B1
100
AcDbEntity
  8
USP-GEO
100
AcDbLine
 10
-0.0000000000001026
 20
5.65086090496937
 30
0.0
 11
-0.0000000000001055
 21
5.792282261206686
 31
0.0
  0
LINE
  5
B2
100
AcDbEntity
  8
USP-HID
100
AcDbLine
 10
0.0559322755494185
 20
5.900628852436957
 30
0.0
 11
0.2105052642908161
 21
5.859211144932026
 31
0.0
  0
LINE
  5
B3
100
AcDbEntity
  8
USP-HID
100
AcDbLine
 10
0.0564413994406556
 20
5.859081385885036
 30
0.0
 11
0.0667941612447585
 21
5.897718418936602
 31
0.0
  0
LINE
  5
B4
100
AcDbEntity
  8
USP-HID
100
AcDbLine
 10
0.0559322755494192
 20
5.900628852436952
 30
0.0
 11
0.045579513745317
 21
5.861991819385389
 31
0.0
  0
LINE
  5
B5
100
AcDbEntity
  8
USP-HID
100
AcDbLine
 10
-0.000000000000103
 20
5.897475823477243
 30
0.0
 11
0.0399999999998972
 21
5.897475823477244
 31
0.0
  0
LINE
  5
B6
100
AcDbEntity
  8
USP-HID
100
AcDbLine
 10
0.0399999999998979
 20
5.946999999999995
 30
0.0
 11
-0.0000000000001028
 21
5.946999999999994
 31
0.0
  0
LINE
  5
B7
100
AcDbEntity
  8
USP-HID
100
AcDbLine
 10
0.0399999999998939
 20
5.88099999999999
 30
0.0
 11
-0.0000000000001044
 21
5.880999999999989
 31
0.0
  0
LINE
  5
B8
100
AcDbEntity
  8
USP-HID
100
AcDbLine
 10
0.0399999999998935
 20
5.884999999999992
 30
0.0
 11
-0.000000000000105
 21
5.884999999999991
 31
0.0
  0
LINE
  5
B9
100
AcDbEntity
  8
USP-HID
100
AcDbLine
 10
0.039999999999891
 20
6.048999999999992
 30
0.0
 11
-0.0000000000001075
 21
6.048999999999991
 31
0.0
  0
LINE
  5
BA
100
AcDbEntity
  8
USP-GEO
100
AcDbLine
 10
0.0399999999998833
 20
6.430999999999992
 30
0.0
 11
0.039999999999889
 21
6.128639719431959
 31
0.0
  0
LINE
  5
BB
100
AcDbEntity
  8
USP-GEO
100
AcDbLine
 10
-0.0000000000001101
 20
6.128639719431959
 30
0.0
 11
-0.0000000000001159
 21
6.430999999999992
 31
0.0
  0
LINE
  5
BC
100
AcDbEntity
  8
USP-HID
100
AcDbLine
 10
0.0399999999998939
 20
6.13099999999999
 30
0.0
 11
-0.0000000000001061
 21
6.130999999999989
 31
0.0
  0
LINE
  5
BD
100
AcDbEntity
  8
USP-GEO
100
AcDbLine
 10
-0.000000000000119
 20
6.430999999999997
 30
0.0
 11
0.0399999999998817
 21
6.430999999999998
 31
0.0
  0
LINE
  5
BE
100
AcDbEntity
  8
USP-HID
100
AcDbLine
 10
0.6169999999998921
 20
6.128639719431973
 30
0.0
 11
0.6169999999998968
 21
5.853232484543966
 31
0.0
  0
ARC
  5
BF
100
AcDbEntity
  8
USP-GEO
100
AcDbCircle
 10
0.8169999999998882
 20
6.128639719431973
 30
0.0
 40
0.2
100
AcDbArc
 50
180.0000000000009
 51
225.0000000000012
  0
LINE
  5
C0
100
AcDbEntity
  8
USP-GEO
100
AcDbLine
 10
0.8705147457505626
 20
5.792282261206693
 30
0.0
 11
0.6755786437625833
 21
5.987218363194666
 31
0.0
  0
ARC
  5
C1
100
AcDbEntity
  8
USP-HID
100
AcDbCircle
 10
0.8169999999998971
 20
5.853232484543966
 30
0.0
 40
0.2
100
AcDbArc
 50
180.0000000000009
 51
225.0000000000013
  0
LINE
  5
C2
100
AcDbEntity
  8
USP-GEO
100
AcDbLine
 10
0.616999999999889
 20
6.128639719431973
 30
0.0
 11
0.6169999999998832
 21
6.431000000000006
 31
0.0
  0
ENDBLK
  5
C5
100
AcDbEntity
  8
0
100
AcDbBlockEnd
  0
BLOCK
  5
1CC
100
AcDbEntity
  8
0
100
AcDbBlockBegin
  2
JL28_F
 70
     0
 10
0.0
 20
0.0
 30
0.0
  3
JL28_F
  1

  0
TEXT
  5
C8
100
AcDbEntity
  8
USP-TXT
100
AcDbText
 10
-0.5645786437626934
 20
-0.7740899547056444
 30
0.0
 40
0.25
  1
JL28  - FRONT VIEW
 72
     1
 11
1.685421356237306
 21
-0.7740899547056444
 31
0.0
100
AcDbText
  0
CIRCLE
  5
C9
100
AcDbEntity
  8
USP-GEO
100
AcDbCircle
 10
0.4414213562373046
 20
4.933999999999969
 30
0.0
 40
0.082
  0
LINE
  5
CA
100
AcDbEntity
  8
USP-GEO
100
AcDbLine
 10
0.8644213562373082
 20
0.3669999999999689
 30
0.0
 11
0.0
 21
1.231421356237277
 31
0.0
  0
LINE
  5
CB
100
AcDbEntity
  8
USP-GEO
100
AcDbLine
 10
0.8644213562373055
 20
6.430999999999968
 30
0.0
 11
-0.0585786437626972
 21
6.430999999999968
 31
0.0
  0
LINE
  5
CC
100
AcDbEntity
  8
USP-GEO
100
AcDbLine
 10
0.1949361019879685
 20
5.516875026318651
 30
0.0
 11
-0.0000000000000018
 21
5.711811128306621
 31
0.0
  0
ARC
  5
CD
100
AcDbEntity
  8
USP-GEO
100
AcDbCircle
 10
0.1414213562373092
 20
1.551360280567998
 30
0.0
 40
0.2
100
AcDbArc
 50
135.0000000000002
 51
180.0
  0
ARC
  5
CE
100
AcDbEntity
  8
USP-GEO
100
AcDbCircle
 10
0.1414213562373083
 20
1.372842712474586
 30
0.0
 40
0.2
100
AcDbArc
 50
180.0
 51
225.0000000000001
  0
LINE
  5
CF
100
AcDbEntity
  8
USP-GEO
100
AcDbLine
 10
-0.0585786437626936
 20
1.372842712474586
 30
0.0
 11
-0.0585786437626945
 21
1.551360280567997
 31
0.0
  0
CIRCLE
  5
D0
100
AcDbEntity
  8
USP-GEO
100
AcDbCircle
 10
0.2414213562373062
 20
1.458999999999967
 30
0.0
 40
0.082
  0
ARC
  5
D1
100
AcDbEntity
  8
USP-GEO
100
AcDbCircle
 10
0.0535147457506673
 20
3.667139095030599
 30
0.0
 40
0.2
100
AcDbArc
 50
314.9999999999995
 51
0.0
  0
CIRCLE
  5
D2
100
AcDbEntity
  8
USP-GEO
100
AcDbCircle
 10
0.2414213562373062
 20
2.677999999999968
 30
0.0
 40
0.082
  0
ARC
  5
D3
100
AcDbEntity
  8
USP-GEO
100
AcDbCircle
 10
0.1414213562373092
 20
2.641232484543927
 30
0.0
 40
0.2
100
AcDbArc
 50
180.0
 51
225.0
  0
LINE
  5
D4
100
AcDbEntity
  8
USP-GEO
100
AcDbLine
 10
0.2535147457506701
 20
2.029139095030616
 30
0.0
 11
0.2535147457506568
 21
2.163453670081367
 31
0.0
  0
LINE
  5
D5
100
AcDbEntity
  8
USP-GEO
100
AcDbLine
 10
-0.0000000000000009
 20
1.692781636805307
 30
0.0
 11
0.1949361019879774
 21
1.887717738793284
 31
0.0
  0
ARC
  5
D6
100
AcDbEntity
  8
USP-GEO
100
AcDbCircle
 10
0.0535147457506682
 20
2.029139095030593
 30
0.0
 40
0.2
100
AcDbArc
 50
314.9999999999998
 51
0.0
  0
LINE
  5
D7
100
AcDbEntity
  8
USP-GEO
100
AcDbLine
 10
0.1949361019879703
 20
2.304875026318647
 30
0.0
 11
0.0
 21
2.499811128306616
 31
0.0
  0
ARC
  5
D8
100
AcDbEntity
  8
USP-GEO
100
AcDbCircle
 10
0.0535147457506673
 20
2.163453670081345
 30
0.0
 40
0.2
100
AcDbArc
 50
0.0
 51
44.99999999999998
  0
ARC
  5
D9
100
AcDbEntity
  8
USP-GEO
100
AcDbCircle
 10
0.1414213562373083
 20
3.189360280568003
 30
0.0
 40
0.2
100
AcDbArc
 50
135.0000000000001
 51
180.0
  0
LINE
  5
DA
100
AcDbEntity
  8
USP-GEO
100
AcDbLine
 10
-0.0585786437626954
 20
2.641232484543925
 30
0.0
 11
-0.0585786437626945
 21
3.189360280567997
 31
0.0
  0
LINE
  5
DB
100
AcDbEntity
  8
USP-GEO
100
AcDbLine
 10
-0.0000000000000018
 20
3.33078163680531
 30
0.0
 11
0.1949361019879756
 21
3.525717738793288
 31
0.0
  0
LINE
  5
DC
100
AcDbEntity
  8
USP-GEO
100
AcDbLine
 10
-0.0585786437626972
 20
4.279232484543931
 30
0.0
 11
-0.0585786437626954
 21
4.763360280568002
 31
0.0
  0
ARC
  5
DD
100
AcDbEntity
  8
USP-GEO
100
AcDbCircle
 10
0.1414213562373074
 20
4.279232484543932
 30
0.0
 40
0.2
100
AcDbArc
 50
180.0
 51
225.0000000000001
  0
LINE
  5
DE
100
AcDbEntity
  8
USP-GEO
100
AcDbLine
 10
0.1949361019879694
 20
3.942875026318652
 30
0.0
 11
-0.0000000000000009
 21
4.137811128306622
 31
0.0
  0
ARC
  5
DF
100
AcDbEntity
  8
USP-GEO
100
AcDbCircle
 10
0.0535147457506664
 20
3.80145367008135
 30
0.0
 40
0.2
100
AcDbArc
 50
0.0
 51
44.99999999999998
  0
LINE
  5
E0
100
AcDbEntity
  8
USP-GEO
100
AcDbLine
 10
0.2535147457506692
 20
3.667139095030612
 30
0.0
 11
0.2535147457506559
 21
3.801453670081364
 31
0.0
  0
CIRCLE
  5
E1
100
AcDbEntity
  8
USP-GEO
100
AcDbCircle
 10
0.2414213562373062
 20
4.291999999999973
 30
0.0
 40
0.082
  0
ARC
  5
E2
100
AcDbEntity
  8
USP-GEO
100
AcDbCircle
 10
0.1414213562373074
 20
4.763360280568001
 30
0.0
 40
0.2
100
AcDbArc
 50
134.9999999999998
 51
180.0
  0
LINE
  5
E3
100
AcDbEntity
  8
USP-GEO
100
AcDbLine
 10
-0.0000000000000018
 20
4.90478163680531
 30
0.0
 11
0.1949361019879756
 21
5.099717738793287
 31
0.0
  0
LINE
  5
E4
100
AcDbEntity
  8
USP-GEO
100
AcDbLine
 10
0.2535147457506692
 20
5.241139095030619
 30
0.0
 11
0.253514745750655
 21
5.375453670081371
 31
0.0
  0
ARC
  5
E5
100
AcDbEntity
  8
USP-GEO
100
AcDbCircle
 10
0.0535147457506664
 20
5.241139095030597
 30
0.0
 40
0.2
100
AcDbArc
 50
314.9999999999999
 51
0.0
  0
ARC
  5
E6
100
AcDbEntity
  8
USP-GEO
100
AcDbCircle
 10
0.0535147457506664
 20
5.375453670081348
 30
0.0
 40
0.2
100
AcDbArc
 50
0.0
 51
44.99999999999998
  0
ARC
  5
E7
100
AcDbEntity
  8
USP-GEO
100
AcDbCircle
 10
0.1414213562373074
 20
5.85323248454393
 30
0.0
 40
0.2
100
AcDbArc
 50
180.0
 51
224.9999999999999
  0
LINE
  5
E8
100
AcDbEntity
  8
USP-GEO
100
AcDbLine
 10
-0.0585786437626963
 20
5.85323248454393
 30
0.0
 11
-0.0585786437626954
 21
6.430999999999971
 31
0.0
  0
CIRCLE
  5
E9
100
AcDbEntity
  8
USP-GEO
100
AcDbCircle
 10
0.2414213562373053
 20
5.864999999999973
 30
0.0
 40
0.082
  0
LINE
  5
EA
100
AcDbEntity
  8
USP-HID
100
AcDbLine
 10
2.938421356237279
 20
5.570574111880438
 30
0.0
 11
2.84592135623728
 21
5.611991819385364
 31
0.0
  0
LINE
  5
EB
100
AcDbEntity
  8
USP-HID
100
AcDbLine
 10
2.83292135623728
 20
5.611991819385372
 30
0.0
 11
2.740421356237282
 21
5.57057411188044
 31
0.0
  0
LINE
  5
EC
100
AcDbEntity
  8
USP-GEO
100
AcDbLine
 10
2.938421356237286
 20
5.440629674908755
 30
0.0
 11
2.938421356237283
 21
5.609211144932004
 31
0.0
  0
LINE
  5
ED
100
AcDbEntity
  8
USP-GEO
100
AcDbLine
 10
2.740421356237284
 20
5.440629674908755
 30
0.0
 11
2.740421356237281
 21
5.609211144932003
 31
0.0
  0
LINE
  5
EE
100
AcDbEntity
  8
USP-GEO
100
AcDbLine
 10
0.4324213562373079
 20
5.30899999999997
 30
0.0
 11
0.4324213562373247
 21
5.69062967490875
 31
0.0
  0
LINE
  5
EF
100
AcDbEntity
  8
USP-GEO
100
AcDbLine
 10
0.6304213562373083
 20
5.308999999999969
 30
0.0
 11
0.6304213562373251
 21
5.690629674908748
 31
0.0
  0
LINE
  5
F0
100
AcDbEntity
  8
USP-GEO
100
AcDbLine
 10
2.506421356237304
 20
5.51654632991859
 30
0.0
 11
2.506421356237304
 21
5.650860904969341
 31
0.0
  0
LINE
  5
F1
100
AcDbEntity
  8
USP-GEO
100
AcDbLine
 10
2.466421356237303
 20
5.51654632991859
 30
0.0
 11
2.466421356237303
 21
5.65086090496934
 31
0.0
  0
LINE
  5
F2
100
AcDbEntity
  8
USP-GEO
100
AcDbLine
 10
3.117327966723941
 20
5.650860904969341
 30
0.0
 11
3.117327966723955
 21
5.51654632991859
 31
0.0
  0
LINE
  5
F3
100
AcDbEntity
  8
USP-GEO
100
AcDbLine
 10
0.9044213562373073
 20
5.516875026318666
 30
0.0
 11
0.9044213562373073
 21
5.711811128306631
 31
0.0
  0
LINE
  5
F4
100
AcDbEntity
  8
USP-GEO
100
AcDbLine
 10
0.8644213562373073
 20
5.711811128306632
 30
0.0
 11
0.8644213562373073
 21
5.516875026318666
 31
0.0
  0
LINE
  5
F5
100
AcDbEntity
  8
USP-GEO
100
AcDbLine
 10
2.506421356237304
 20
1.3728427124746
 30
0.0
 11
2.506421356237304
 21
1.776767515456022
 31
0.0
  0
LINE
  5
F6
100
AcDbEntity
  8
USP-GEO
100
AcDbLine
 10
2.466421356237303
 20
1.3728427124746
 30
0.0
 11
2.466421356237303
 21
1.776767515456022
 31
0.0
  0
LINE
  5
F7
100
AcDbEntity
  8
USP-GEO
100
AcDbLine
 10
3.429421356237307
 20
1.776767515456008
 30
0.0
 11
3.429421356237307
 21
1.372842712474593
 31
0.0
  0
LINE
  5
F8
100
AcDbEntity
  8
USP-GEO
100
AcDbLine
 10
0.9044213562373091
 20
1.551360280568008
 30
0.0
 11
0.9044213562373091
 21
1.69278163680532
 31
0.0
  0
LINE
  5
F9
100
AcDbEntity
  8
USP-GEO
100
AcDbLine
 10
0.8644213562373099
 20
1.69278163680532
 30
0.0
 11
0.8644213562373099
 21
1.551360280568008
 31
0.0
  0
LINE
  5
FA
100
AcDbEntity
  8
USP-GEO
100
AcDbLine
 10
1.004421356237299
 20
0.0000000000000071
 30
0.0
 11
2.366421356237311
 21
0.0000000000000077
 31
0.0
  0
LINE
  5
FB
100
AcDbEntity
  8
USP-GEO
100
AcDbLine
 10
1.004421356237298
 20
0.0400000000000063
 30
0.0
 11
2.36642135623731
 21
0.0400000000000068
 31
0.0
  0
LINE
  5
FC
100
AcDbEntity
  8
USP-GEO
100
AcDbLine
 10
0.90442135623731
 20
0.1107106781186572
 30
0.0
 11
0.9044213562373082
 21
1.231421356237293
 31
0.0
  0
LINE
  5
FD
100
AcDbEntity
  8
USP-GEO
100
AcDbLine
 10
0.8644213562373099
 20
1.231421356237293
 30
0.0
 11
0.8644213562373117
 21
0.1107106781186566
 31
0.0
  0
LINE
  5
FE
100
AcDbEntity
  8
USP-HID
100
AcDbLine
 10
0.9044213562373073
 20
0.3669999999999689
 30
0.0
 11
0.8644213562373082
 21
0.3669999999999689
 31
0.0
  0
LINE
  5
FF
100
AcDbEntity
  8
USP-HID
100
AcDbLine
 10
0.9044213562373082
 20
0.1399999999999991
 30
0.0
 11
0.864421356237309
 21
0.1399999999999991
 31
0.0
  0
LINE
  5
100
100
AcDbEntity
  8
USP-GEO
100
AcDbLine
 10
0.90442135623731
 20
0.0
 30
0.0
 11
0.8644213562373108
 21
0.0
 31
0.0
  0
LINE
  5
101
100
AcDbEntity
  8
USP-GEO
100
AcDbLine
 10
0.9044213562373109
 20
0.1107106781186573
 30
0.0
 11
0.8644213562373117
 21
0.1107106781186573
 31
0.0
  0
LINE
  5
102
100
AcDbEntity
  8
USP-GEO
100
AcDbLine
 10
0.8644213562373099
 20
0.1107106781186586
 30
0.0
 11
0.8644213562373099
 21
0.0400000000000044
 31
0.0
  0
LINE
  5
103
100
AcDbEntity
  8
USP-GEO
100
AcDbLine
 10
0.8644213562373117
 20
0.039999999999999
 30
0.0
 11
0.8644213562373117
 21
0.0
 31
0.0
  0
LINE
  5
104
100
AcDbEntity
  8
USP-GEO
100
AcDbLine
 10
0.90442135623731
 20
0.0000000000000052
 30
0.0
 11
1.004421356237309
 21
0.0000000000000071
 31
0.0
  0
LINE
  5
105
100
AcDbEntity
  8
USP-GEO
100
AcDbLine
 10
1.004421356237298
 20
0.0400000000000063
 30
0.0
 11
1.004421356237298
 21
0.0000000000000062
 31
0.0
  0
LINE
  5
106
100
AcDbEntity
  8
USP-GEO
100
AcDbLine
 10
1.00442135623731
 20
0.0400000000000063
 30
0.0
 11
0.9044213562373109
 21
0.0400000000000044
 31
0.0
  0
LINE
  5
107
100
AcDbEntity
  8
USP-GEO
100
AcDbLine
 10
0.9044213562373091
 20
0.0400000000000044
 30
0.0
 11
0.9044213562373091
 21
0.1107106781186588
 31
0.0
  0
LINE
  5
108
100
AcDbEntity
  8
USP-GEO
100
AcDbLine
 10
0.864421356237309
 20
1.372842712474596
 30
0.0
 11
0.864421356237309
 21
1.231421356237289
 31
0.0
  0
LINE
  5
109
100
AcDbEntity
  8
USP-GEO
100
AcDbLine
 10
0.864421356237309
 20
1.551360280568012
 30
0.0
 11
0.864421356237309
 21
1.372842712474602
 31
0.0
  0
LINE
  5
10A
100
AcDbEntity
  8
USP-GEO
100
AcDbLine
 10
0.9044213562373082
 20
1.231421356237289
 30
0.0
 11
0.9044213562373082
 21
1.372842712474596
 31
0.0
  0
LINE
  5
10B
100
AcDbEntity
  8
USP-GEO
100
AcDbLine
 10
0.9044213562373082
 20
1.551360280568012
 30
0.0
 11
0.9044213562373082
 21
1.372842712474602
 31
0.0
  0
LINE
  5
10C
100
AcDbEntity
  8
USP-GEO
100
AcDbLine
 10
3.370842712474614
 20
1.23142135623728
 30
0.0
 11
2.506421356237302
 21
0.3669999999999742
 31
0.0
  0
LINE
  5
10D
100
AcDbEntity
  8
USP-GEO
100
AcDbLine
 10
2.506421356237305
 20
0.1107106781186786
 30
0.0
 11
2.506421356237304
 21
1.231421356237295
 31
0.0
  0
LINE
  5
10E
100
AcDbEntity
  8
USP-GEO
100
AcDbLine
 10
2.466421356237304
 20
0.1107106781186786
 30
0.0
 11
2.466421356237303
 21
1.231421356237295
 31
0.0
  0
LINE
  5
10F
100
AcDbEntity
  8
USP-GEO
100
AcDbLine
 10
2.366421356237312
 20
0.0000000000000071
 30
0.0
 11
2.466421356237312
 21
0.0000000000000052
 31
0.0
  0
LINE
  5
110
100
AcDbEntity
  8
USP-GEO
100
AcDbLine
 10
2.46642135623731
 20
0.0400000000000044
 30
0.0
 11
2.36642135623731
 21
0.0400000000000063
 31
0.0
  0
LINE
  5
111
100
AcDbEntity
  8
USP-GEO
100
AcDbLine
 10
2.36642135623731
 20
0.0400000000000063
 30
0.0
 11
2.36642135623731
 21
0.0000000000000054
 31
0.0
  0
LINE
  5
112
100
AcDbEntity
  8
USP-GEO
100
AcDbLine
 10
2.506421356237307
 20
0.0400000000000044
 30
0.0
 11
2.506421356237307
 21
0.1107106781186611
 31
0.0
  0
LINE
  5
113
100
AcDbEntity
  8
USP-GEO
100
AcDbLine
 10
2.506421356237307
 20
-0.0000000000000007
 30
0.0
 11
2.506421356237307
 21
0.0399999999999992
 31
0.0
  0
LINE
  5
114
100
AcDbEntity
  8
USP-GEO
100
AcDbLine
 10
2.466421356237306
 20
0.1107106781186542
 30
0.0
 11
2.466421356237306
 21
0.0399999999999973
 31
0.0
  0
LINE
  5
115
100
AcDbEntity
  8
USP-GEO
100
AcDbLine
 10
2.466421356237306
 20
0.0
 30
0.0
 11
2.506421356237307
 21
0.0
 31
0.0
  0
LINE
  5
116
100
AcDbEntity
  8
USP-GEO
100
AcDbLine
 10
2.466421356237304
 20
0.1107106781186786
 30
0.0
 11
2.506421356237305
 21
0.1107106781186786
 31
0.0
  0
LINE
  5
117
100
AcDbEntity
  8
USP-HID
100
AcDbLine
 10
2.466421356237303
 20
0.366999999999976
 30
0.0
 11
2.506421356237304
 21
0.366999999999976
 31
0.0
  0
LINE
  5
118
100
AcDbEntity
  8
USP-HID
100
AcDbLine
 10
2.466421356237303
 20
0.1399999999999778
 30
0.0
 11
2.506421356237305
 21
0.1399999999999778
 31
0.0
  0
LINE
  5
119
100
AcDbEntity
  8
USP-GEO
100
AcDbLine
 10
2.506421356237304
 20
1.231421356237295
 30
0.0
 11
2.506421356237304
 21
1.372842712474604
 31
0.0
  0
LINE
  5
11A
100
AcDbEntity
  8
USP-GEO
100
AcDbLine
 10
2.466421356237303
 20
1.372842712474604
 30
0.0
 11
2.466421356237303
 21
1.231421356237295
 31
0.0
  0
CIRCLE
  5
11B
100
AcDbEntity
  8
USP-GEO
100
AcDbCircle
 10
3.129421356237306
 20
1.458999999999967
 30
0.0
 40
0.082
  0
ARC
  5
11C
100
AcDbEntity
  8
USP-GEO
100
AcDbCircle
 10
3.229421356237304
 20
1.372842712474593
 30
0.0
 40
0.2
100
AcDbArc
 50
314.9999999999999
 51
0.0
  0
LINE
  5
11D
100
AcDbEntity
  8
USP-GEO
100
AcDbLine
 10
0.9044213562373082
 20
3.667139095030609
 30
0.0
 11
0.9044213562373082
 21
3.525717738793299
 31
0.0
  0
LINE
  5
11E
100
AcDbEntity
  8
USP-GEO
100
AcDbLine
 10
0.864421356237309
 20
3.667139095030609
 30
0.0
 11
0.864421356237309
 21
3.525717738793298
 31
0.0
  0
LINE
  5
11F
100
AcDbEntity
  8
USP-GEO
100
AcDbLine
 10
0.9044213562373082
 20
2.499811128306628
 30
0.0
 11
0.9044213562373082
 21
2.641232484543937
 31
0.0
  0
LINE
  5
120
100
AcDbEntity
  8
USP-GEO
100
AcDbLine
 10
0.8644213562373099
 20
2.641232484543937
 30
0.0
 11
0.8644213562373099
 21
2.499811128306628
 31
0.0
  0
LINE
  5
121
100
AcDbEntity
  8
USP-HID
100
AcDbLine
 10
0.9044213562373082
 20
2.013999999999982
 30
0.0
 11
0.8644213562373064
 21
2.013999999999982
 31
0.0
  0
LINE
  5
122
100
AcDbEntity
  8
USP-HID
100
AcDbLine
 10
0.9044213562373091
 20
2.177999999999982
 30
0.0
 11
0.8644213562373064
 21
2.177999999999982
 31
0.0
  0
LINE
  5
123
100
AcDbEntity
  8
USP-GEO
100
AcDbLine
 10
0.864421356237309
 20
2.163453670081388
 30
0.0
 11
0.864421356237309
 21
2.029139095030636
 31
0.0
  0
LINE
  5
124
100
AcDbEntity
  8
USP-GEO
100
AcDbLine
 10
0.8644213562373099
 20
1.887717738793298
 30
0.0
 11
0.8644213562373099
 21
1.692781636805318
 31
0.0
  0
LINE
  5
125
100
AcDbEntity
  8
USP-GEO
100
AcDbLine
 10
0.8644213562373099
 20
2.029139095030611
 30
0.0
 11
0.8644213562373099
 21
1.8877177387933
 31
0.0
  0
LINE
  5
126
100
AcDbEntity
  8
USP-GEO
100
AcDbLine
 10
0.864421356237309
 20
2.499811128306628
 30
0.0
 11
0.864421356237309
 21
2.304875026318662
 31
0.0
  0
LINE
  5
127
100
AcDbEntity
  8
USP-GEO
100
AcDbLine
 10
0.864421356237309
 20
2.304875026318671
 30
0.0
 11
0.864421356237309
 21
2.163453670081363
 31
0.0
  0
LINE
  5
128
100
AcDbEntity
  8
USP-GEO
100
AcDbLine
 10
0.9044213562373073
 20
2.163453670081388
 30
0.0
 11
0.9044213562373073
 21
2.029139095030636
 31
0.0
  0
LINE
  5
129
100
AcDbEntity
  8
USP-GEO
100
AcDbLine
 10
0.9044213562373091
 20
1.887717738793298
 30
0.0
 11
0.9044213562373091
 21
1.692781636805318
 31
0.0
  0
LINE
  5
12A
100
AcDbEntity
  8
USP-GEO
100
AcDbLine
 10
0.9044213562373082
 20
2.029139095030611
 30
0.0
 11
0.9044213562373082
 21
1.887717738793301
 31
0.0
  0
LINE
  5
12B
100
AcDbEntity
  8
USP-GEO
100
AcDbLine
 10
0.9044213562373073
 20
2.304875026318662
 30
0.0
 11
0.9044213562373073
 21
2.499811128306628
 31
0.0
  0
LINE
  5
12C
100
AcDbEntity
  8
USP-GEO
100
AcDbLine
 10
0.9044213562373073
 20
2.304875026318671
 30
0.0
 11
0.9044213562373073
 21
2.163453670081363
 31
0.0
  0
LINE
  5
12D
100
AcDbEntity
  8
USP-GEO
100
AcDbLine
 10
0.8644213562373082
 20
3.18936028056801
 30
0.0
 11
0.8644213562373082
 21
2.641232484543941
 31
0.0
  0
LINE
  5
12E
100
AcDbEntity
  8
USP-GEO
100
AcDbLine
 10
0.8644213562373082
 20
3.525717738793304
 30
0.0
 11
0.8644213562373082
 21
3.330781636805324
 31
0.0
  0
LINE
  5
12F
100
AcDbEntity
  8
USP-GEO
100
AcDbLine
 10
0.864421356237309
 20
3.330781636805324
 30
0.0
 11
0.864421356237309
 21
3.189360280568013
 31
0.0
  0
LINE
  5
130
100
AcDbEntity
  8
USP-GEO
100
AcDbLine
 10
0.9044213562373082
 20
3.18936028056801
 30
0.0
 11
0.9044213562373082
 21
2.64123248454394
 31
0.0
  0
LINE
  5
131
100
AcDbEntity
  8
USP-GEO
100
AcDbLine
 10
0.9044213562373082
 20
3.525717738793304
 30
0.0
 11
0.9044213562373082
 21
3.330781636805323
 31
0.0
  0
LINE
  5
132
100
AcDbEntity
  8
USP-GEO
100
AcDbLine
 10
0.9044213562373082
 20
3.189360280568013
 30
0.0
 11
0.9044213562373082
 21
3.330781636805324
 31
0.0
  0
LINE
  5
133
100
AcDbEntity
  8
USP-GEO
100
AcDbLine
 10
0.9044213562373073
 20
4.763360280568008
 30
0.0
 11
0.9044213562373073
 21
4.279232484543937
 31
0.0
  0
LINE
  5
134
100
AcDbEntity
  8
USP-GEO
100
AcDbLine
 10
0.8644213562373082
 20
4.763360280568015
 30
0.0
 11
0.8644213562373082
 21
4.279232484543943
 31
0.0
  0
LINE
  5
135
100
AcDbEntity
  8
USP-HID
100
AcDbLine
 10
0.9044213562373073
 20
3.65199999999998
 30
0.0
 11
0.8644213562373082
 21
3.65199999999998
 31
0.0
  0
LINE
  5
136
100
AcDbEntity
  8
USP-HID
100
AcDbLine
 10
0.9044213562373073
 20
3.81599999999998
 30
0.0
 11
0.8644213562373082
 21
3.81599999999998
 31
0.0
  0
LINE
  5
137
100
AcDbEntity
  8
USP-HID
100
AcDbLine
 10
0.9044213562373064
 20
4.231749999999976
 30
0.0
 11
0.8644213562373073
 21
4.231749999999976
 31
0.0
  0
LINE
  5
138
100
AcDbEntity
  8
USP-HID
100
AcDbLine
 10
0.9044213562373064
 20
4.544249999999976
 30
0.0
 11
0.8644213562373073
 21
4.544249999999976
 31
0.0
  0
LINE
  5
139
100
AcDbEntity
  8
USP-GEO
100
AcDbLine
 10
0.8644213562373082
 20
4.137811128306634
 30
0.0
 11
0.8644213562373082
 21
3.942875026318668
 31
0.0
  0
LINE
  5
13A
100
AcDbEntity
  8
USP-GEO
100
AcDbLine
 10
0.8644213562373082
 20
3.94287502631867
 30
0.0
 11
0.8644213562373082
 21
3.801453670081361
 31
0.0
  0
LINE
  5
13B
100
AcDbEntity
  8
USP-GEO
100
AcDbLine
 10
0.8644213562373082
 20
3.801453670081386
 30
0.0
 11
0.8644213562373082
 21
3.667139095030634
 31
0.0
  0
LINE
  5
13C
100
AcDbEntity
  8
USP-GEO
100
AcDbLine
 10
0.8644213562373082
 20
4.279232484543943
 30
0.0
 11
0.8644213562373082
 21
4.137811128306634
 31
0.0
  0
LINE
  5
13D
100
AcDbEntity
  8
USP-GEO
100
AcDbLine
 10
0.9044213562373073
 20
3.942875026318668
 30
0.0
 11
0.9044213562373073
 21
4.137811128306633
 31
0.0
  0
LINE
  5
13E
100
AcDbEntity
  8
USP-GEO
100
AcDbLine
 10
0.9044213562373073
 20
3.94287502631867
 30
0.0
 11
0.9044213562373073
 21
3.801453670081361
 31
0.0
  0
LINE
  5
13F
100
AcDbEntity
  8
USP-GEO
100
AcDbLine
 10
0.9044213562373073
 20
3.801453670081386
 30
0.0
 11
0.9044213562373073
 21
3.667139095030634
 31
0.0
  0
LINE
  5
140
100
AcDbEntity
  8
USP-GEO
100
AcDbLine
 10
0.9044213562373073
 20
4.137811128306634
 30
0.0
 11
0.9044213562373073
 21
4.279232484543943
 31
0.0
  0
LINE
  5
141
100
AcDbEntity
  8
USP-HID
100
AcDbLine
 10
0.9044213562373064
 20
5.225999999999978
 30
0.0
 11
0.8644213562373082
 21
5.225999999999978
 31
0.0
  0
LINE
  5
142
100
AcDbEntity
  8
USP-HID
100
AcDbLine
 10
0.9044213562373064
 20
5.389999999999978
 30
0.0
 11
0.8644213562373082
 21
5.389999999999978
 31
0.0
  0
LINE
  5
143
100
AcDbEntity
  8
USP-GEO
100
AcDbLine
 10
0.8644213562373082
 20
5.099717738793302
 30
0.0
 11
0.8644213562373082
 21
4.90478163680532
 31
0.0
  0
LINE
  5
144
100
AcDbEntity
  8
USP-GEO
100
AcDbLine
 10
0.8644213562373082
 20
4.904781636805322
 30
0.0
 11
0.8644213562373082
 21
4.763360280568011
 31
0.0
  0
LINE
  5
145
100
AcDbEntity
  8
USP-HID
100
AcDbLine
 10
0.6304213562373083
 20
5.319717967697215
 30
0.0
 11
0.4324213562373079
 21
5.319717967697222
 31
0.0
  0
LINE
  5
146
100
AcDbEntity
  8
USP-GEO
100
AcDbLine
 10
0.6304213562373091
 20
5.308999999999969
 30
0.0
 11
0.4324213562373079
 21
5.308999999999976
 31
0.0
  0
LINE
  5
147
100
AcDbEntity
  8
USP-GEO
100
AcDbLine
 10
0.8644213562373073
 20
5.375453670081384
 30
0.0
 11
0.8644213562373073
 21
5.241139095030632
 31
0.0
  0
LINE
  5
148
100
AcDbEntity
  8
USP-GEO
100
AcDbLine
 10
0.8644213562373082
 20
5.241139095030614
 30
0.0
 11
0.8644213562373082
 21
5.099717738793303
 31
0.0
  0
LINE
  5
149
100
AcDbEntity
  8
USP-GEO
100
AcDbLine
 10
0.8644213562373082
 20
5.516875026318675
 30
0.0
 11
0.8644213562373082
 21
5.375453670081366
 31
0.0
  0
LINE
  5
14A
100
AcDbEntity
  8
USP-GEO
100
AcDbLine
 10
0.9044213562373073
 20
5.099717738793302
 30
0.0
 11
0.9044213562373073
 21
4.90478163680532
 31
0.0
  0
LINE
  5
14B
100
AcDbEntity
  8
USP-GEO
100
AcDbLine
 10
0.9044213562373073
 20
4.763360280568011
 30
0.0
 11
0.9044213562373073
 21
4.904781636805322
 31
0.0
  0
LINE
  5
14C
100
AcDbEntity
  8
USP-GEO
100
AcDbLine
 10
0.9044213562373064
 20
5.375453670081384
 30
0.0
 11
0.9044213562373064
 21
5.241139095030632
 31
0.0
  0
LINE
  5
14D
100
AcDbEntity
  8
USP-GEO
100
AcDbLine
 10
0.9044213562373064
 20
5.241139095030614
 30
0.0
 11
0.9044213562373064
 21
5.099717738793303
 31
0.0
  0
LINE
  5
14E
100
AcDbEntity
  8
USP-GEO
100
AcDbLine
 10
0.9044213562373064
 20
5.516875026318675
 30
0.0
 11
0.9044213562373064
 21
5.375453670081366
 31
0.0
  0
LINE
  5
14F
100
AcDbEntity
  8
USP-GEO
100
AcDbLine
 10
2.506421356237304
 20
3.463767515456023
 30
0.0
 11
2.506421356237304
 21
3.605188871693334
 31
0.0
  0
LINE
  5
150
100
AcDbEntity
  8
USP-GEO
100
AcDbLine
 10
2.466421356237303
 20
3.605188871693334
 30
0.0
 11
2.466421356237303
 21
3.463767515456023
 31
0.0
  0
ARC
  5
151
100
AcDbEntity
  8
USP-GEO
100
AcDbCircle
 10
3.229421356237304
 20
3.463767515456012
 30
0.0
 40
0.2
100
AcDbArc
 50
0.0
 51
45.00000000000285
  0
LINE
  5
152
100
AcDbEntity
  8
USP-GEO
100
AcDbLine
 10
3.175906610486647
 20
2.113124973681284
 30
0.0
 11
3.370842712474606
 21
1.918188871693324
 31
0.0
  0
LINE
  5
153
100
AcDbEntity
  8
USP-GEO
100
AcDbLine
 10
3.370842712474612
 20
2.725218363194626
 30
0.0
 11
3.175906610486643
 21
2.530282261206657
 31
0.0
  0
LINE
  5
154
100
AcDbEntity
  8
USP-GEO
100
AcDbLine
 10
2.506421356237304
 20
2.530282261206671
 30
0.0
 11
2.506421356237304
 21
2.725218363194644
 31
0.0
  0
LINE
  5
155
100
AcDbEntity
  8
USP-GEO
100
AcDbLine
 10
2.466421356237303
 20
2.530282261206671
 30
0.0
 11
2.466421356237303
 21
2.725218363194644
 31
0.0
  0
LINE
  5
156
100
AcDbEntity
  8
USP-GEO
100
AcDbLine
 10
2.506421356237304
 20
1.918188871693334
 30
0.0
 11
2.506421356237304
 21
2.113124973681307
 31
0.0
  0
LINE
  5
157
100
AcDbEntity
  8
USP-GEO
100
AcDbLine
 10
2.466421356237303
 20
2.113124973681307
 30
0.0
 11
2.466421356237303
 21
1.918188871693335
 31
0.0
  0
LINE
  5
158
100
AcDbEntity
  8
USP-GEO
100
AcDbLine
 10
2.506421356237305
 20
1.776767515456025
 30
0.0
 11
2.506421356237305
 21
1.918188871693337
 31
0.0
  0
LINE
  5
159
100
AcDbEntity
  8
USP-GEO
100
AcDbLine
 10
2.466421356237304
 20
1.918188871693337
 30
0.0
 11
2.466421356237304
 21
1.776767515456025
 31
0.0
  0
LINE
  5
15A
100
AcDbEntity
  8
USP-GEO
100
AcDbLine
 10
2.506421356237304
 20
2.254546329918589
 30
0.0
 11
2.506421356237304
 21
2.388860904969341
 31
0.0
  0
LINE
  5
15B
100
AcDbEntity
  8
USP-GEO
100
AcDbLine
 10
2.466421356237303
 20
2.254546329918589
 30
0.0
 11
2.466421356237303
 21
2.388860904969341
 31
0.0
  0
LINE
  5
15C
100
AcDbEntity
  8
USP-HID
100
AcDbLine
 10
2.466421356237303
 20
2.239999999999981
 30
0.0
 11
2.506421356237305
 21
2.239999999999981
 31
0.0
  0
LINE
  5
15D
100
AcDbEntity
  8
USP-GEO
100
AcDbLine
 10
2.506421356237304
 20
2.113124973681296
 30
0.0
 11
2.506421356237304
 21
2.254546329918607
 31
0.0
  0
LINE
  5
15E
100
AcDbEntity
  8
USP-GEO
100
AcDbLine
 10
2.466421356237303
 20
2.113124973681296
 30
0.0
 11
2.466421356237303
 21
2.254546329918607
 31
0.0
  0
LINE
  5
15F
100
AcDbEntity
  8
USP-HID
100
AcDbLine
 10
2.466421356237303
 20
2.403999999999981
 30
0.0
 11
2.506421356237305
 21
2.403999999999981
 31
0.0
  0
LINE
  5
160
100
AcDbEntity
  8
USP-GEO
100
AcDbLine
 10
2.506421356237304
 20
2.388860904969366
 30
0.0
 11
2.506421356237304
 21
2.530282261206674
 31
0.0
  0
LINE
  5
161
100
AcDbEntity
  8
USP-GEO
100
AcDbLine
 10
2.466421356237303
 20
2.388860904969366
 30
0.0
 11
2.466421356237303
 21
2.530282261206674
 31
0.0
  0
ARC
  5
162
100
AcDbEntity
  8
USP-GEO
100
AcDbCircle
 10
3.317327966723945
 20
2.254546329918596
 30
0.0
 40
0.2
100
AcDbArc
 50
180.0
 51
225.0000000000014
  0
LINE
  5
163
100
AcDbEntity
  8
USP-GEO
100
AcDbLine
 10
3.117327966723943
 20
2.388860904969341
 30
0.0
 11
3.117327966723957
 21
2.254546329918589
 31
0.0
  0
ARC
  5
164
100
AcDbEntity
  8
USP-GEO
100
AcDbCircle
 10
3.317327966723945
 20
2.388860904969341
 30
0.0
 40
0.2
100
AcDbArc
 50
134.999999999997
 51
180.0
  0
LINE
  5
165
100
AcDbEntity
  8
USP-GEO
100
AcDbLine
 10
2.506421356237302
 20
2.866639719431951
 30
0.0
 11
2.506421356237302
 21
3.463767515456019
 31
0.0
  0
LINE
  5
166
100
AcDbEntity
  8
USP-GEO
100
AcDbLine
 10
2.466421356237303
 20
2.866639719431951
 30
0.0
 11
2.466421356237303
 21
3.463767515456019
 31
0.0
  0
LINE
  5
167
100
AcDbEntity
  8
USP-GEO
100
AcDbLine
 10
2.506421356237304
 20
2.725218363194644
 30
0.0
 11
2.506421356237304
 21
2.866639719431955
 31
0.0
  0
LINE
  5
168
100
AcDbEntity
  8
USP-GEO
100
AcDbLine
 10
2.466421356237303
 20
2.866639719431955
 30
0.0
 11
2.466421356237303
 21
2.725218363194645
 31
0.0
  0
CIRCLE
  5
169
100
AcDbEntity
  8
USP-GEO
100
AcDbCircle
 10
3.129421356237306
 20
2.833999999999967
 30
0.0
 40
0.082
  0
ARC
  5
16A
100
AcDbEntity
  8
USP-GEO
100
AcDbCircle
 10
3.229421356237304
 20
1.776767515456008
 30
0.0
 40
0.2
100
AcDbArc
 50
0.0
 51
45.00000000000285
  0
LINE
  5
16B
100
AcDbEntity
  8
USP-GEO
100
AcDbLine
 10
3.429421356237305
 20
3.463767515456005
 30
0.0
 11
3.429421356237305
 21
2.866639719431937
 31
0.0
  0
ARC
  5
16C
100
AcDbEntity
  8
USP-GEO
100
AcDbCircle
 10
3.229421356237304
 20
2.866639719431937
 30
0.0
 40
0.2
100
AcDbArc
 50
314.9999999999997
 51
0.0
  0
LINE
  5
16D
100
AcDbEntity
  8
USP-GEO
100
AcDbLine
 10
3.175906610486645
 20
3.80012497368129
 30
0.0
 11
3.370842712474606
 21
3.605188871693329
 31
0.0
  0
LINE
  5
16E
100
AcDbEntity
  8
USP-GEO
100
AcDbLine
 10
3.37084271247461
 20
4.412218363194631
 30
0.0
 11
3.175906610486642
 21
4.217282261206662
 31
0.0
  0
LINE
  5
16F
100
AcDbEntity
  8
USP-GEO
100
AcDbLine
 10
3.175906610486643
 20
5.375124973681285
 30
0.0
 11
3.370842712474605
 21
5.180188871693324
 31
0.0
  0
LINE
  5
170
100
AcDbEntity
  8
USP-GEO
100
AcDbLine
 10
2.466421356237301
 20
4.553639719431949
 30
0.0
 11
2.466421356237301
 21
5.038767515456022
 31
0.0
  0
LINE
  5
171
100
AcDbEntity
  8
USP-GEO
100
AcDbLine
 10
2.506421356237302
 20
4.553639719431949
 30
0.0
 11
2.506421356237302
 21
5.038767515456018
 31
0.0
  0
LINE
  5
172
100
AcDbEntity
  8
USP-GEO
100
AcDbLine
 10
2.466421356237303
 20
4.553639719431949
 30
0.0
 11
2.466421356237303
 21
5.038767515456018
 31
0.0
  0
LINE
  5
173
100
AcDbEntity
  8
USP-GEO
100
AcDbLine
 10
2.506421356237304
 20
4.075860904969363
 30
0.0
 11
2.506421356237304
 21
4.217282261206672
 31
0.0
  0
LINE
  5
174
100
AcDbEntity
  8
USP-GEO
100
AcDbLine
 10
2.466421356237303
 20
4.075860904969356
 30
0.0
 11
2.466421356237303
 21
4.217282261206665
 31
0.0
  0
LINE
  5
175
100
AcDbEntity
  8
USP-GEO
100
AcDbLine
 10
2.506421356237304
 20
3.800124973681301
 30
0.0
 11
2.506421356237304
 21
3.941546329918612
 31
0.0
  0
LINE
  5
176
100
AcDbEntity
  8
USP-GEO
100
AcDbLine
 10
2.466421356237303
 20
3.800124973681301
 30
0.0
 11
2.466421356237303
 21
3.941546329918612
 31
0.0
  0
LINE
  5
177
100
AcDbEntity
  8
USP-GEO
100
AcDbLine
 10
2.506421356237304
 20
3.605188871693331
 30
0.0
 11
2.506421356237304
 21
3.800124973681306
 31
0.0
  0
LINE
  5
178
100
AcDbEntity
  8
USP-GEO
100
AcDbLine
 10
2.466421356237303
 20
3.800124973681306
 30
0.0
 11
2.466421356237303
 21
3.605188871693332
 31
0.0
  0
LINE
  5
179
100
AcDbEntity
  8
USP-HID
100
AcDbLine
 10
2.466421356237303
 20
4.090999999999978
 30
0.0
 11
2.506421356237304
 21
4.090999999999978
 31
0.0
  0
LINE
  5
17A
100
AcDbEntity
  8
USP-HID
100
AcDbLine
 10
2.466421356237301
 20
3.926999999999979
 30
0.0
 11
2.506421356237304
 21
3.926999999999979
 31
0.0
  0
LINE
  5
17B
100
AcDbEntity
  8
USP-GEO
100
AcDbLine
 10
2.506421356237304
 20
3.941546329918587
 30
0.0
 11
2.506421356237304
 21
4.075860904969339
 31
0.0
  0
LINE
  5
17C
100
AcDbEntity
  8
USP-GEO
100
AcDbLine
 10
2.466421356237303
 20
3.941546329918587
 30
0.0
 11
2.466421356237303
 21
4.075860904969339
 31
0.0
  0
LINE
  5
17D
100
AcDbEntity
  8
USP-GEO
100
AcDbLine
 10
2.506421356237304
 20
4.217282261206669
 30
0.0
 11
2.506421356237304
 21
4.412218363194643
 31
0.0
  0
LINE
  5
17E
100
AcDbEntity
  8
USP-GEO
100
AcDbLine
 10
2.466421356237303
 20
4.217282261206669
 30
0.0
 11
2.466421356237303
 21
4.412218363194643
 31
0.0
  0
LINE
  5
17F
100
AcDbEntity
  8
USP-HID
100
AcDbLine
 10
2.466421356237303
 20
4.231749999999976
 30
0.0
 11
2.506421356237302
 21
4.231749999999976
 31
0.0
  0
LINE
  5
180
100
AcDbEntity
  8
USP-HID
100
AcDbLine
 10
2.466421356237301
 20
4.544249999999976
 30
0.0
 11
2.506421356237302
 21
4.544249999999976
 31
0.0
  0
LINE
  5
181
100
AcDbEntity
  8
USP-GEO
100
AcDbLine
 10
2.506421356237304
 20
4.412218363194642
 30
0.0
 11
2.506421356237304
 21
4.553639719431952
 31
0.0
  0
LINE
  5
182
100
AcDbEntity
  8
USP-GEO
100
AcDbLine
 10
2.466421356237303
 20
4.553639719431952
 30
0.0
 11
2.466421356237303
 21
4.412218363194644
 31
0.0
  0
ARC
  5
183
100
AcDbEntity
  8
USP-GEO
100
AcDbCircle
 10
3.317327966723944
 20
4.075860904969346
 30
0.0
 40
0.2
100
AcDbArc
 50
134.9999999999971
 51
180.0
  0
ARC
  5
184
100
AcDbEntity
  8
USP-GEO
100
AcDbCircle
 10
3.317327966723945
 20
3.941546329918594
 30
0.0
 40
0.2
100
AcDbArc
 50
180.0
 51
225.0000000000008
  0
LINE
  5
185
100
AcDbEntity
  8
USP-GEO
100
AcDbLine
 10
3.117327966723941
 20
4.075860904969346
 30
0.0
 11
3.117327966723955
 21
3.941546329918594
 31
0.0
  0
CIRCLE
  5
186
100
AcDbEntity
  8
USP-GEO
100
AcDbCircle
 10
2.929421356237305
 20
4.358999999999966
 30
0.0
 40
0.082
  0
LINE
  5
187
100
AcDbEntity
  8
USP-HID
100
AcDbLine
 10
2.7404213562373
 20
5.069717967697215
 30
0.0
 11
2.9384213562373
 21
5.069717967697222
 31
0.0
  0
LINE
  5
188
100
AcDbEntity
  8
USP-GEO
100
AcDbLine
 10
2.7404213562373
 20
5.058999999999969
 30
0.0
 11
2.9384213562373
 21
5.058999999999976
 31
0.0
  0
LINE
  5
189
100
AcDbEntity
  8
USP-GEO
100
AcDbLine
 10
2.7404213562373
 20
5.058999999999969
 30
0.0
 11
2.740421356237284
 21
5.44062967490875
 31
0.0
  0
LINE
  5
18A
100
AcDbEntity
  8
USP-GEO
100
AcDbLine
 10
2.506421356237304
 20
5.038767515456019
 30
0.0
 11
2.506421356237304
 21
5.180188871693329
 31
0.0
  0
LINE
  5
18B
100
AcDbEntity
  8
USP-GEO
100
AcDbLine
 10
2.466421356237303
 20
5.18018887169333
 30
0.0
 11
2.466421356237303
 21
5.038767515456019
 31
0.0
  0
LINE
  5
18C
100
AcDbEntity
  8
USP-GEO
100
AcDbLine
 10
2.506421356237304
 20
5.180188871693327
 30
0.0
 11
2.506421356237304
 21
5.375124973681302
 31
0.0
  0
LINE
  5
18D
100
AcDbEntity
  8
USP-GEO
100
AcDbLine
 10
2.466421356237303
 20
5.375124973681302
 30
0.0
 11
2.466421356237303
 21
5.180188871693328
 31
0.0
  0
LINE
  5
18E
100
AcDbEntity
  8
USP-HID
100
AcDbLine
 10
2.466421356237303
 20
5.501999999999982
 30
0.0
 11
2.506421356237304
 21
5.501999999999982
 31
0.0
  0
LINE
  5
18F
100
AcDbEntity
  8
USP-GEO
100
AcDbLine
 10
2.506421356237302
 20
5.375124973681297
 30
0.0
 11
2.506421356237302
 21
5.516546329918607
 31
0.0
  0
LINE
  5
190
100
AcDbEntity
  8
USP-GEO
100
AcDbLine
 10
2.466421356237303
 20
5.375124973681297
 30
0.0
 11
2.466421356237303
 21
5.516546329918607
 31
0.0
  0
LINE
  5
191
100
AcDbEntity
  8
USP-GEO
100
AcDbLine
 10
2.9384213562373
 20
5.058999999999969
 30
0.0
 11
2.938421356237284
 21
5.440629674908749
 31
0.0
  0
CIRCLE
  5
192
100
AcDbEntity
  8
USP-GEO
100
AcDbCircle
 10
3.129421356237305
 20
4.97899999999997
 30
0.0
 40
0.082
  0
ARC
  5
193
100
AcDbEntity
  8
USP-GEO
100
AcDbCircle
 10
3.317327966723944
 20
5.51654632991859
 30
0.0
 40
0.2
100
AcDbArc
 50
180.0
 51
225.0000000000008
  0
LINE
  5
194
100
AcDbEntity
  8
USP-GEO
100
AcDbLine
 10
3.429421356237304
 20
5.038767515456006
 30
0.0
 11
3.429421356237304
 21
4.553639719431942
 31
0.0
  0
ARC
  5
195
100
AcDbEntity
  8
USP-GEO
100
AcDbCircle
 10
3.229421356237303
 20
4.553639719431942
 30
0.0
 40
0.2
100
AcDbArc
 50
314.9999999999995
 51
0.0
  0
ARC
  5
196
100
AcDbEntity
  8
USP-GEO
100
AcDbCircle
 10
3.229421356237303
 20
5.038767515456008
 30
0.0
 40
0.2
100
AcDbArc
 50
0.0
 51
45.00000000000285
  0
LINE
  5
197
100
AcDbEntity
  8
USP-GEO
100
AcDbLine
 10
0.9044213562373046
 20
6.430999999999983
 30
0.0
 11
0.8644213562373064
 21
6.430999999999983
 31
0.0
  0
LINE
  5
198
100
AcDbEntity
  8
USP-GEO
100
AcDbLine
 10
0.5502152088584094
 20
6.117840402866486
 30
0.0
 11
0.6304213562373091
 21
5.897475823477222
 31
0.0
  0
LINE
  5
199
100
AcDbEntity
  8
USP-GEO
100
AcDbLine
 10
0.432421356237307
 20
5.897475823477225
 30
0.0
 11
0.5126275040269697
 21
6.117840402866484
 31
0.0
  0
LINE
  5
19A
100
AcDbEntity
  8
USP-GEO
100
AcDbLine
 10
0.8644213562373073
 20
6.43099999999998
 30
0.0
 11
0.8644213562373073
 21
5.853232484543937
 31
0.0
  0
LINE
  5
19B
100
AcDbEntity
  8
USP-HID
100
AcDbLine
 10
0.4324213562373292
 20
5.820574111880438
 30
0.0
 11
0.5249213562373276
 21
5.861991819385364
 31
0.0
  0
LINE
  5
19C
100
AcDbEntity
  8
USP-HID
100
AcDbLine
 10
0.5379213562373284
 20
5.861991819385371
 30
0.0
 11
0.630421356237326
 21
5.82057411188044
 31
0.0
  0
LINE
  5
19D
100
AcDbEntity
  8
USP-GEO
100
AcDbLine
 10
0.4324213562373203
 20
5.690629674908755
 30
0.0
 11
0.4324213562373247
 21
5.859211144932004
 31
0.0
  0
LINE
  5
19E
100
AcDbEntity
  8
USP-GEO
100
AcDbLine
 10
0.6304213562373251
 20
5.690629674908754
 30
0.0
 11
0.6304213562373287
 21
5.859211144932003
 31
0.0
  0
LINE
  5
19F
100
AcDbEntity
  8
USP-GEO
100
AcDbLine
 10
0.5379213562373302
 20
5.900628852436936
 30
0.0
 11
0.6304213562373287
 21
5.859211144932005
 31
0.0
  0
LINE
  5
1A0
100
AcDbEntity
  8
USP-HID
100
AcDbLine
 10
0.5314213562373276
 20
5.859081385885015
 30
0.0
 11
0.5314213562373294
 21
5.89771841893658
 31
0.0
  0
LINE
  5
1A1
100
AcDbEntity
  8
USP-HID
100
AcDbLine
 10
0.5249213562373259
 20
5.861991819385364
 30
0.0
 11
0.5314213562373267
 21
5.859081385885017
 31
0.0
  0
LINE
  5
1A2
100
AcDbEntity
  8
USP-HID
100
AcDbLine
 10
0.5249213562373285
 20
5.900628852436923
 30
0.0
 11
0.5249213562373268
 21
5.861991819385364
 31
0.0
  0
LINE
  5
1A3
100
AcDbEntity
  8
USP-HID
100
AcDbLine
 10
0.5314213562373294
 20
5.859081385885025
 30
0.0
 11
0.5379213562373284
 21
5.861991819385371
 31
0.0
  0
LINE
  5
1A4
100
AcDbEntity
  8
USP-HID
100
AcDbLine
 10
0.5379213562373302
 20
5.900628852436931
 30
0.0
 11
0.5379213562373284
 21
5.861991819385368
 31
0.0
  0
LINE
  5
1A5
100
AcDbEntity
  8
USP-GEO
100
AcDbLine
 10
0.5249213562373294
 20
5.900628852436929
 30
0.0
 11
0.5314213562373294
 21
5.897718418936582
 31
0.0
  0
LINE
  5
1A6
100
AcDbEntity
  8
USP-GEO
100
AcDbLine
 10
0.4324213562373301
 20
5.859211144932004
 30
0.0
 11
0.5249213562373285
 21
5.90062885243693
 31
0.0
  0
LINE
  5
1A7
100
AcDbEntity
  8
USP-GEO
100
AcDbLine
 10
0.5314213562373303
 20
5.897718418936584
 30
0.0
 11
0.5379213562373302
 21
5.90062885243693
 31
0.0
  0
LINE
  5
1A8
100
AcDbEntity
  8
USP-GEO
100
AcDbLine
 10
0.432421356237307
 20
5.859211144932004
 30
0.0
 11
0.432421356237307
 21
5.897475823477222
 31
0.0
  0
LINE
  5
1A9
100
AcDbEntity
  8
USP-GEO
100
AcDbLine
 10
0.6304213562373074
 20
5.897475823477222
 30
0.0
 11
0.6304213562373074
 21
5.859211144932004
 31
0.0
  0
LINE
  5
1AA
100
AcDbEntity
  8
USP-GEO
100
AcDbLine
 10
0.8644213562373082
 20
5.853232484543941
 30
0.0
 11
0.8644213562373082
 21
5.711811128306632
 31
0.0
  0
ARC
  5
1AB
100
AcDbEntity
  8
USP-GEO
100
AcDbCircle
 10
0.5314213564426904
 20
6.110999999999968
 30
0.0
 40
0.02
100
AcDbArc
 50
19.99999999999907
 51
160.0000000000042
  0
LINE
  5
1AC
100
AcDbEntity
  8
USP-GEO
100
AcDbLine
 10
0.9044213562373055
 20
6.43099999999998
 30
0.0
 11
0.9044213562373055
 21
5.853232484543939
 31
0.0
  0
LINE
  5
1AD
100
AcDbEntity
  8
USP-GEO
100
AcDbLine
 10
0.9044213562373073
 20
5.711811128306631
 30
0.0
 11
0.9044213562373073
 21
5.853232484543941
 31
0.0
  0
LINE
  5
1AE
100
AcDbEntity
  8
USP-GEO
100
AcDbLine
 10
3.429421356237304
 20
6.430999999999968
 30
0.0
 11
2.506421356237302
 21
6.430999999999968
 31
0.0
  0
LINE
  5
1AF
100
AcDbEntity
  8
USP-GEO
100
AcDbLine
 10
3.37084271247461
 20
5.987218363194626
 30
0.0
 11
3.175906610486642
 21
5.792282261206658
 31
0.0
  0
LINE
  5
1B0
100
AcDbEntity
  8
USP-GEO
100
AcDbLine
 10
2.832921356237278
 20
5.650628852436937
 30
0.0
 11
2.740421356237281
 21
5.609211144932005
 31
0.0
  0
LINE
  5
1B1
100
AcDbEntity
  8
USP-GEO
100
AcDbLine
 10
2.740421356237304
 20
5.647475823477222
 30
0.0
 11
2.820627503616202
 21
5.867840402866482
 31
0.0
  0
LINE
  5
1B2
100
AcDbEntity
  8
USP-GEO
100
AcDbLine
 10
2.506421356237302
 20
5.987218363194639
 30
0.0
 11
2.506421356237302
 21
6.128639719431948
 31
0.0
  0
LINE
  5
1B3
100
AcDbEntity
  8
USP-GEO
100
AcDbLine
 10
2.466421356237303
 20
6.128639719431948
 30
0.0
 11
2.466421356237303
 21
5.987218363194638
 31
0.0
  0
LINE
  5
1B4
100
AcDbEntity
  8
USP-GEO
100
AcDbLine
 10
2.506421356237304
 20
5.792282261206672
 30
0.0
 11
2.506421356237304
 21
5.987218363194645
 31
0.0
  0
LINE
  5
1B5
100
AcDbEntity
  8
USP-GEO
100
AcDbLine
 10
2.466421356237304
 20
5.792282261206665
 30
0.0
 11
2.466421356237304
 21
5.987218363194638
 31
0.0
  0
LINE
  5
1B6
100
AcDbEntity
  8
USP-HID
100
AcDbLine
 10
2.466421356237303
 20
5.665999999999981
 30
0.0
 11
2.506421356237302
 21
5.665999999999981
 31
0.0
  0
LINE
  5
1B7
100
AcDbEntity
  8
USP-GEO
100
AcDbLine
 10
2.506421356237304
 20
5.650860904969359
 30
0.0
 11
2.506421356237304
 21
5.792282261206668
 31
0.0
  0
LINE
  5
1B8
100
AcDbEntity
  8
USP-GEO
100
AcDbLine
 10
2.466421356237303
 20
5.650860904969359
 30
0.0
 11
2.466421356237303
 21
5.792282261206668
 31
0.0
  0
LINE
  5
1B9
100
AcDbEntity
  8
USP-GEO
100
AcDbLine
 10
2.740421356237302
 20
5.609211144932004
 30
0.0
 11
2.740421356237302
 21
5.647475823477222
 31
0.0
  0
LINE
  5
1BA
100
AcDbEntity
  8
USP-GEO
100
AcDbLine
 10
2.506421356237302
 20
6.128639719431951
 30
0.0
 11
2.506421356237302
 21
6.430999999999984
 31
0.0
  0
LINE
  5
1BB
100
AcDbEntity
  8
USP-GEO
100
AcDbLine
 10
2.466421356237303
 20
6.128639719431951
 30
0.0
 11
2.466421356237303
 21
6.430999999999984
 31
0.0
  0
LINE
  5
1BC
100
AcDbEntity
  8
USP-GEO
100
AcDbLine
 10
2.506421356237302
 20
6.430999999999983
 30
0.0
 11
2.466421356237303
 21
6.430999999999983
 31
0.0
  0
CIRCLE
  5
1BD
100
AcDbEntity
  8
USP-GEO
100
AcDbCircle
 10
2.929421356237304
 20
5.96699999999997
 30
0.0
 40
0.082
  0
LINE
  5
1BE
100
AcDbEntity
  8
USP-GEO
100
AcDbLine
 10
2.858215208447637
 20
5.867840402866484
 30
0.0
 11
2.938421356237302
 21
5.647475823477223
 31
0.0
  0
LINE
  5
1BF
100
AcDbEntity
  8
USP-GEO
100
AcDbLine
 10
2.938421356237279
 20
5.609211144932004
 30
0.0
 11
2.84592135623728
 21
5.65062885243693
 31
0.0
  0
LINE
  5
1C0
100
AcDbEntity
  8
USP-HID
100
AcDbLine
 10
2.839421356237281
 20
5.609081385885017
 30
0.0
 11
2.839421356237279
 21
5.64771841893658
 31
0.0
  0
LINE
  5
1C1
100
AcDbEntity
  8
USP-HID
100
AcDbLine
 10
2.84592135623728
 20
5.650628852436923
 30
0.0
 11
2.845921356237282
 21
5.611991819385361
 31
0.0
  0
LINE
  5
1C2
100
AcDbEntity
  8
USP-HID
100
AcDbLine
 10
2.845921356237283
 20
5.611991819385364
 30
0.0
 11
2.839421356237282
 21
5.609081385885017
 31
0.0
  0
LINE
  5
1C3
100
AcDbEntity
  8
USP-HID
100
AcDbLine
 10
2.839421356237279
 20
5.609081385885025
 30
0.0
 11
2.832921356237278
 21
5.611991819385371
 31
0.0
  0
LINE
  5
1C4
100
AcDbEntity
  8
USP-HID
100
AcDbLine
 10
2.832921356237278
 20
5.650628852436931
 30
0.0
 11
2.83292135623728
 21
5.61199181938537
 31
0.0
  0
LINE
  5
1C5
100
AcDbEntity
  8
USP-GEO
100
AcDbLine
 10
2.84592135623728
 20
5.650628852436929
 30
0.0
 11
2.839421356237277
 21
5.647718418936582
 31
0.0
  0
LINE
  5
1C6
100
AcDbEntity
  8
USP-GEO
100
AcDbLine
 10
2.839421356237277
 20
5.647718418936591
 30
0.0
 11
2.832921356237278
 21
5.650628852436937
 31
0.0
  0
LINE
  5
1C7
100
AcDbEntity
  8
USP-GEO
100
AcDbLine
 10
2.938421356237304
 20
5.647475823477222
 30
0.0
 11
2.938421356237304
 21
5.609211144932004
 31
0.0
  0
ARC
  5
1C8
100
AcDbEntity
  8
USP-GEO
100
AcDbCircle
 10
2.83942135603192
 20
5.860999999999968
 30
0.0
 40
0.02
100
AcDbArc
 50
20.00000000000472
 51
160.0000000000017
  0
ARC
  5
1C9
100
AcDbEntity
  8
USP-GEO
100
AcDbCircle
 10
3.317327966723944
 20
5.650860904969341
 30
0.0
 40
0.2
100
AcDbArc
 50
134.9999999999971
 51
180.0
  0
ARC
  5
1CA
100
AcDbEntity
  8
USP-GEO
100
AcDbCircle
 10
3.229421356237303
 20
6.128639719431937
 30
0.0
 40
0.2
100
AcDbArc
 50
314.9999999999998
 51
0.0
  0
LINE
  5
1CB
100
AcDbEntity
  8
USP-GEO
100
AcDbLine
 10
3.429421356237304
 20
6.43099999999997
 30
0.0
 11
3.429421356237304
 21
6.128639719431937
 31
0.0
  0
ENDBLK
  5
1CD
100
AcDbEntity
  8
0
100
AcDbBlockEnd
  0
BLOCK
  5
242
100
AcDbEntity
  8
0
100
AcDbBlockBegin
  2
JL28_T
 70
     0
 10
0.0
 20
0.0
 30
0.0
  3
JL28_T
  1

  0
TEXT
  5
1D0
100
AcDbEntity
  8
USP-TXT
100
AcDbText
 10
-0.2559999999999993
 20
-0.6904930509689607
 30
0.0
 40
0.25
  1
JL28  - TOP VIEW
 72
     1
 11
1.744
 21
-0.6904930509689607
 31
0.0
100
AcDbText
  0
LINE
  5
1D1
100
AcDbEntity
  8
USP-GEO
100
AcDbLine
 10
0.0
 20
1.867000000000121
 30
0.0
 11
0.9630000000000009
 21
1.867000000000123
 31
0.0
  0
LINE
  5
1D2
100
AcDbEntity
  8
USP-GEO
100
AcDbLine
 10
0.9230000000000009
 20
1.827000000000124
 30
0.0
 11
-0.0000000000000018
 21
1.827000000000122
 31
0.0
  0
LINE
  5
1D3
100
AcDbEntity
  8
USP-GEO
100
AcDbLine
 10
-0.0000000000000009
 20
1.827000000000118
 30
0.0
 11
-0.0000000000000009
 21
1.867000000000119
 31
0.0
  0
LINE
  5
1D4
100
AcDbEntity
  8
USP-HID
100
AcDbLine
 10
0.2180000000000009
 20
1.867000000000111
 30
0.0
 11
0.2180000000000009
 21
1.827000000000111
 31
0.0
  0
LINE
  5
1D5
100
AcDbEntity
  8
USP-HID
100
AcDbLine
 10
0.3120933895133611
 20
1.867000000000103
 30
0.0
 11
0.3120933895133611
 21
1.827000000000104
 31
0.0
  0
LINE
  5
1D6
100
AcDbEntity
  8
USP-HID
100
AcDbLine
 10
0.4180000000000011
 20
1.867000000000096
 30
0.0
 11
0.4180000000000011
 21
1.82700000000009
 31
0.0
  0
LINE
  5
1D7
100
AcDbEntity
  8
USP-HID
100
AcDbLine
 10
0.3820000000000005
 20
1.867000000000111
 30
0.0
 11
0.3820000000000005
 21
1.827000000000111
 31
0.0
  0
LINE
  5
1D8
100
AcDbEntity
  8
USP-GEO
100
AcDbLine
 10
1.063
 20
1.5
 30
0.0
 11
2.425000000000006
 21
1.500000000000003
 31
0.0
  0
LINE
  5
1D9
100
AcDbEntity
  8
USP-GEO
100
AcDbLine
 10
1.062999999999994
 20
0.0
 30
0.0
 11
2.425000000000006
 21
0.0000000000000018
 31
0.0
  0
ARC
  5
1DA
100
AcDbEntity
  8
USP-GEO
100
AcDbCircle
 10
0.963
 20
1.5
 30
0.0
 40
0.1
100
AcDbArc
 50
269.9999999999998
 51
359.9999999999998
  0
LINE
  5
1DB
100
AcDbEntity
  8
USP-GEO
100
AcDbLine
 10
0.9630000000000009
 20
1.867000000000121
 30
0.0
 11
0.9630000000000018
 21
1.25000000000012
 31
0.0
  0
LINE
  5
1DC
100
AcDbEntity
  8
USP-GEO
100
AcDbLine
 10
0.9230000000000027
 20
1.250000000000119
 30
0.0
 11
0.9230000000000018
 21
1.827000000000118
 31
0.0
  0
LINE
  5
1DD
100
AcDbEntity
  8
USP-GEO
100
AcDbLine
 10
0.9630000000000062
 20
0.0707106781186582
 30
0.0
 11
0.9630000000000045
 21
0.9379066104867153
 31
0.0
  0
LINE
  5
1DE
100
AcDbEntity
  8
USP-GEO
100
AcDbLine
 10
0.9230000000000053
 20
0.9379066104867082
 30
0.0
 11
0.9230000000000071
 21
0.0707106781186582
 31
0.0
  0
LINE
  5
1DF
100
AcDbEntity
  8
USP-HID
100
AcDbLine
 10
0.9630000000000062
 20
0.1000000000000014
 30
0.0
 11
0.9230000000000071
 21
0.1000000000000014
 31
0.0
  0
LINE
  5
1E0
100
AcDbEntity
  8
USP-GEO
100
AcDbLine
 10
0.9630000000000062
 20
0.0707106781186582
 30
0.0
 11
0.9230000000000071
 21
0.0707106781186582
 31
0.0
  0
ARC
  5
1E1
100
AcDbEntity
  8
USP-GEO
100
AcDbCircle
 10
0.9630000000000062
 20
0.0
 30
0.0
 40
0.1
100
AcDbArc
 50
359.9999999999998
 51
89.99999999999991
  0
LINE
  5
1E2
100
AcDbEntity
  8
USP-HID
100
AcDbLine
 10
0.9630000000000045
 20
1.400000000000019
 30
0.0
 11
0.9230000000000053
 21
1.400000000000019
 31
0.0
  0
LINE
  5
1E3
100
AcDbEntity
  8
USP-HID
100
AcDbLine
 10
0.9630000000000027
 20
1.381750000000081
 30
0.0
 11
0.9230000000000035
 21
1.381750000000081
 31
0.0
  0
LINE
  5
1E4
100
AcDbEntity
  8
USP-HID
100
AcDbLine
 10
0.9630000000000027
 20
1.146300047856385
 30
0.0
 11
0.9230000000000035
 21
1.146300047856385
 31
0.0
  0
LINE
  5
1E5
100
AcDbEntity
  8
USP-HID
100
AcDbLine
 10
0.9630000000000027
 20
1.310300047856387
 30
0.0
 11
0.9230000000000035
 21
1.310300047856387
 31
0.0
  0
LINE
  5
1E6
100
AcDbEntity
  8
USP-GEO
100
AcDbLine
 10
0.9630000000000018
 20
0.9379066104867561
 30
0.0
 11
0.9230000000000027
 21
0.9379066104867561
 31
0.0
  0
LINE
  5
1E7
100
AcDbEntity
  8
USP-GEO
100
AcDbLine
 10
0.9630000000000009
 20
1.250000000000119
 30
0.0
 11
0.9230000000000027
 21
1.250000000000119
 31
0.0
  0
LINE
  5
1E8
100
AcDbEntity
  8
USP-GEO
100
AcDbLine
 10
0.9230000000000035
 20
0.9964852542494373
 30
0.0
 11
0.9230000000000035
 21
0.9379066104867455
 31
0.0
  0
LINE
  5
1E9
100
AcDbEntity
  8
USP-GEO
100
AcDbLine
 10
0.9230000000000035
 20
1.25000000000011
 30
0.0
 11
0.9230000000000035
 21
1.191421356237418
 31
0.0
  0
LINE
  5
1EA
100
AcDbEntity
  8
USP-GEO
100
AcDbLine
 10
0.9230000000000035
 20
1.191421356237418
 30
0.0
 11
0.9230000000000035
 21
0.9964852542494444
 31
0.0
  0
LINE
  5
1EB
100
AcDbEntity
  8
USP-GEO
100
AcDbLine
 10
0.9630000000000027
 20
0.9964852542494373
 30
0.0
 11
0.9630000000000027
 21
0.9379066104867455
 31
0.0
  0
LINE
  5
1EC
100
AcDbEntity
  8
USP-GEO
100
AcDbLine
 10
0.9630000000000027
 20
1.191421356237418
 30
0.0
 11
0.9630000000000027
 21
1.25000000000011
 31
0.0
  0
LINE
  5
1ED
100
AcDbEntity
  8
USP-GEO
100
AcDbLine
 10
0.9630000000000027
 20
0.9964852542494426
 30
0.0
 11
0.9630000000000027
 21
1.191421356237416
 31
0.0
  0
LINE
  5
1EE
100
AcDbEntity
  8
USP-HID
100
AcDbLine
 10
0.9630000000000036
 20
1.827000000000005
 30
0.0
 11
0.9230000000000044
 21
1.827000000000005
 31
0.0
  0
LINE
  5
1EF
100
AcDbEntity
  8
USP-HID
100
AcDbLine
 10
0.9630000000000045
 20
1.570710678118679
 30
0.0
 11
0.9230000000000053
 21
1.570710678118679
 31
0.0
  0
LINE
  5
1F0
100
AcDbEntity
  8
USP-HID
100
AcDbLine
 10
0.9630000000000027
 20
1.694250000000081
 30
0.0
 11
0.9230000000000035
 21
1.694250000000081
 31
0.0
  0
LINE
  5
1F1
100
AcDbEntity
  8
USP-GEO
100
AcDbLine
 10
0.4910000000000148
 20
1.666847497513295
 30
0.0
 11
0.4910000000000033
 21
1.827000000000102
 31
0.0
  0
LINE
  5
1F2
100
AcDbEntity
  8
USP-GEO
100
AcDbLine
 10
0.4910000000000246
 20
1.666847497513295
 30
0.0
 11
0.583500000000023
 21
1.821420486254698
 31
0.0
  0
LINE
  5
1F3
100
AcDbEntity
  8
USP-GEO
100
AcDbLine
 10
0.4910000000000255
 20
1.656494735709189
 30
0.0
 11
0.5835000000000239
 21
1.811067724450591
 31
0.0
  0
LINE
  5
1F4
100
AcDbEntity
  8
USP-GEO
100
AcDbLine
 10
0.689000000000017
 20
1.666847497513295
 30
0.0
 11
0.6890000000000054
 21
1.827000000000095
 31
0.0
  0
LINE
  5
1F5
100
AcDbEntity
  8
USP-GEO
100
AcDbLine
 10
0.5965000000000238
 20
1.821420486254687
 30
0.0
 11
0.6890000000000214
 21
1.666847497513291
 31
0.0
  0
LINE
  5
1F6
100
AcDbEntity
  8
USP-GEO
100
AcDbLine
 10
0.5965000000000256
 20
1.811067724450587
 30
0.0
 11
0.6890000000000241
 21
1.656494735709189
 31
0.0
  0
LINE
  5
1F7
100
AcDbEntity
  8
USP-HID
100
AcDbLine
 10
0.4910000000000175
 20
1.611258925895974
 30
0.0
 11
0.6890000000000214
 21
1.611258925895977
 31
0.0
  0
LINE
  5
1F8
100
AcDbEntity
  8
USP-GEO
100
AcDbLine
 10
0.4910000000000183
 20
1.571258925895973
 30
0.0
 11
0.6890000000000223
 21
1.571258925895977
 31
0.0
  0
LINE
  5
1F9
100
AcDbEntity
  8
USP-GEO
100
AcDbLine
 10
0.4910000000000183
 20
1.571258925895977
 30
0.0
 11
0.4910000000000201
 21
1.656494735709193
 31
0.0
  0
LINE
  5
1FA
100
AcDbEntity
  8
USP-GEO
100
AcDbLine
 10
0.4910000000000219
 20
1.656494735709193
 30
0.0
 11
0.4910000000000201
 21
1.666847497513295
 31
0.0
  0
LINE
  5
1FB
100
AcDbEntity
  8
USP-GEO
100
AcDbLine
 10
0.689000000000025
 20
1.666847497513295
 30
0.0
 11
0.6890000000000267
 21
1.656494735709193
 31
0.0
  0
LINE
  5
1FC
100
AcDbEntity
  8
USP-GEO
100
AcDbLine
 10
0.6890000000000223
 20
1.571258925895977
 30
0.0
 11
0.6890000000000241
 21
1.656494735709193
 31
0.0
  0
LINE
  5
1FD
100
AcDbEntity
  8
USP-HID
100
AcDbLine
 10
0.6890000000000036
 20
1.8470000000001
 30
0.0
 11
0.4910000000000033
 21
1.847000000000097
 31
0.0
  0
LINE
  5
1FE
100
AcDbEntity
  8
USP-HID
100
AcDbLine
 10
0.6890000000000045
 20
1.807000000000101
 30
0.0
 11
0.4910000000000033
 21
1.807000000000098
 31
0.0
  0
LINE
  5
1FF
100
AcDbEntity
  8
USP-HID
100
AcDbLine
 10
0.4910000000000033
 20
1.867000000000111
 30
0.0
 11
0.4910000000000033
 21
1.82700000000011
 31
0.0
  0
LINE
  5
200
100
AcDbEntity
  8
USP-HID
100
AcDbLine
 10
0.5820000000000008
 20
1.867000000000096
 30
0.0
 11
0.5820000000000008
 21
1.82700000000009
 31
0.0
  0
LINE
  5
201
100
AcDbEntity
  8
USP-GEO
100
AcDbLine
 10
0.590000000000023
 20
1.81055860055935
 30
0.0
 11
0.5900000000000248
 21
1.800205838755248
 31
0.0
  0
LINE
  5
202
100
AcDbEntity
  8
USP-GEO
100
AcDbLine
 10
0.5835000000000222
 20
1.821420486254694
 30
0.0
 11
0.590000000000023
 21
1.810558600559351
 31
0.0
  0
LINE
  5
203
100
AcDbEntity
  8
USP-GEO
100
AcDbLine
 10
0.5835000000000239
 20
1.811067724450595
 30
0.0
 11
0.5835000000000222
 21
1.821420486254696
 31
0.0
  0
LINE
  5
204
100
AcDbEntity
  8
USP-GEO
100
AcDbLine
 10
0.5835000000000248
 20
1.811067724450593
 30
0.0
 11
0.5900000000000248
 21
1.800205838755251
 31
0.0
  0
LINE
  5
205
100
AcDbEntity
  8
USP-GEO
100
AcDbLine
 10
0.5900000000000248
 20
1.810558600559348
 30
0.0
 11
0.5965000000000238
 21
1.821420486254689
 31
0.0
  0
LINE
  5
206
100
AcDbEntity
  8
USP-GEO
100
AcDbLine
 10
0.5965000000000256
 20
1.811067724450587
 30
0.0
 11
0.5965000000000238
 21
1.821420486254689
 31
0.0
  0
LINE
  5
207
100
AcDbEntity
  8
USP-GEO
100
AcDbLine
 10
0.5900000000000257
 20
1.800205838755251
 30
0.0
 11
0.5965000000000256
 21
1.811067724450593
 31
0.0
  0
LINE
  5
208
100
AcDbEntity
  8
USP-HID
100
AcDbLine
 10
0.6890000000000045
 20
1.867000000000111
 30
0.0
 11
0.6890000000000045
 21
1.82700000000011
 31
0.0
  0
LINE
  5
209
100
AcDbEntity
  8
USP-HID
100
AcDbLine
 10
0.9230000000000044
 20
1.827000000000005
 30
0.0
 11
0.9230000000000044
 21
1.867000000000004
 31
0.0
  0
ARC
  5
20A
100
AcDbEntity
  8
USP-GEO
100
AcDbCircle
 10
2.525000000000005
 20
1.500000000000007
 30
0.0
 40
0.1
100
AcDbArc
 50
179.9999999999998
 51
269.9999999999998
  0
LINE
  5
20B
100
AcDbEntity
  8
USP-GEO
100
AcDbLine
 10
2.564999999999997
 20
1.827000000000126
 30
0.0
 11
2.564999999999997
 21
1.250000000000126
 31
0.0
  0
LINE
  5
20C
100
AcDbEntity
  8
USP-GEO
100
AcDbLine
 10
2.524999999999996
 20
1.250000000000122
 30
0.0
 11
2.524999999999996
 21
1.867000000000119
 31
0.0
  0
LINE
  5
20D
100
AcDbEntity
  8
USP-GEO
100
AcDbLine
 10
2.565000000000003
 20
0.0707106781186795
 30
0.0
 11
2.565000000000001
 21
0.937906610486717
 31
0.0
  0
LINE
  5
20E
100
AcDbEntity
  8
USP-GEO
100
AcDbLine
 10
2.525000000000002
 20
0.0707106781186795
 30
0.0
 11
2.525
 21
0.9379066104867064
 31
0.0
  0
ARC
  5
20F
100
AcDbEntity
  8
USP-GEO
100
AcDbCircle
 10
2.525000000000007
 20
0.0000000000000071
 30
0.0
 40
0.1
100
AcDbArc
 50
89.99999999999991
 51
179.9999999999998
  0
LINE
  5
210
100
AcDbEntity
  8
USP-HID
100
AcDbLine
 10
2.525000000000002
 20
0.1000000000000014
 30
0.0
 11
2.565000000000003
 21
0.1000000000000014
 31
0.0
  0
LINE
  5
211
100
AcDbEntity
  8
USP-GEO
100
AcDbLine
 10
2.525000000000002
 20
0.0707106781186795
 30
0.0
 11
2.565000000000003
 21
0.0707106781186795
 31
0.0
  0
LINE
  5
212
100
AcDbEntity
  8
USP-GEO
100
AcDbLine
 10
2.564999999999999
 20
0.9379066104867526
 30
0.0
 11
2.564999999999999
 21
0.9964852542494444
 31
0.0
  0
LINE
  5
213
100
AcDbEntity
  8
USP-GEO
100
AcDbLine
 10
2.524999999999998
 20
0.9379066104867526
 30
0.0
 11
2.524999999999998
 21
0.9964852542494444
 31
0.0
  0
LINE
  5
214
100
AcDbEntity
  8
USP-GEO
100
AcDbLine
 10
2.524999999999996
 20
0.937906610486749
 30
0.0
 11
2.564999999999999
 21
0.937906610486749
 31
0.0
  0
LINE
  5
215
100
AcDbEntity
  8
USP-GEO
100
AcDbLine
 10
2.564999999999999
 20
1.191421356237425
 30
0.0
 11
2.564999999999999
 21
1.250000000000117
 31
0.0
  0
LINE
  5
216
100
AcDbEntity
  8
USP-GEO
100
AcDbLine
 10
2.525
 20
1.250000000000117
 30
0.0
 11
2.525
 21
1.191421356237423
 31
0.0
  0
LINE
  5
217
100
AcDbEntity
  8
USP-HID
100
AcDbLine
 10
2.524999999999998
 20
1.146300047856392
 30
0.0
 11
2.564999999999997
 21
1.146300047856392
 31
0.0
  0
LINE
  5
218
100
AcDbEntity
  8
USP-GEO
100
AcDbLine
 10
2.564999999999999
 20
0.9964852542494426
 30
0.0
 11
2.564999999999999
 21
1.191421356237421
 31
0.0
  0
LINE
  5
219
100
AcDbEntity
  8
USP-GEO
100
AcDbLine
 10
2.525
 20
0.9964852542494426
 30
0.0
 11
2.525
 21
1.191421356237421
 31
0.0
  0
LINE
  5
21A
100
AcDbEntity
  8
USP-GEO
100
AcDbLine
 10
2.524999999999996
 20
1.250000000000092
 30
0.0
 11
2.524999999999996
 21
1.250000000000099
 31
0.0
  0
LINE
  5
21B
100
AcDbEntity
  8
USP-HID
100
AcDbLine
 10
2.525
 20
1.400000000000005
 30
0.0
 11
2.565000000000001
 21
1.400000000000005
 31
0.0
  0
LINE
  5
21C
100
AcDbEntity
  8
USP-HID
100
AcDbLine
 10
2.524999999999998
 20
1.381750000000081
 30
0.0
 11
2.564999999999997
 21
1.381750000000081
 31
0.0
  0
LINE
  5
21D
100
AcDbEntity
  8
USP-HID
100
AcDbLine
 10
2.524999999999998
 20
1.310300047856394
 30
0.0
 11
2.564999999999997
 21
1.310300047856394
 31
0.0
  0
LINE
  5
21E
100
AcDbEntity
  8
USP-GEO
100
AcDbLine
 10
2.564999999999997
 20
1.250000000000126
 30
0.0
 11
2.524999999999998
 21
1.250000000000126
 31
0.0
  0
LINE
  5
21F
100
AcDbEntity
  8
USP-GEO
100
AcDbLine
 10
2.524999999999996
 20
1.867000000000123
 30
0.0
 11
3.488000000000001
 21
1.867000000000125
 31
0.0
  0
LINE
  5
220
100
AcDbEntity
  8
USP-GEO
100
AcDbLine
 10
3.487999999999999
 20
1.827000000000126
 30
0.0
 11
2.564999999999997
 21
1.827000000000124
 31
0.0
  0
LINE
  5
221
100
AcDbEntity
  8
USP-HID
100
AcDbLine
 10
2.798999999999995
 20
1.8470000000001
 30
0.0
 11
2.996999999999996
 21
1.847000000000099
 31
0.0
  0
LINE
  5
222
100
AcDbEntity
  8
USP-HID
100
AcDbLine
 10
2.798999999999997
 20
1.807000000000101
 30
0.0
 11
2.996999999999998
 21
1.807000000000099
 31
0.0
  0
LINE
  5
223
100
AcDbEntity
  8
USP-HID
100
AcDbLine
 10
2.798999999999979
 20
1.611258925895977
 30
0.0
 11
2.996999999999982
 21
1.611258925895976
 31
0.0
  0
LINE
  5
224
100
AcDbEntity
  8
USP-GEO
100
AcDbLine
 10
2.891499999999975
 20
1.821420486254687
 30
0.0
 11
2.798999999999978
 21
1.666847497513289
 31
0.0
  0
LINE
  5
225
100
AcDbEntity
  8
USP-GEO
100
AcDbLine
 10
2.891499999999973
 20
1.811067724450589
 30
0.0
 11
2.798999999999976
 21
1.656494735709189
 31
0.0
  0
LINE
  5
226
100
AcDbEntity
  8
USP-GEO
100
AcDbLine
 10
2.798999999999978
 20
1.571258925895977
 30
0.0
 11
2.99699999999998
 21
1.571258925895975
 31
0.0
  0
LINE
  5
227
100
AcDbEntity
  8
USP-HID
100
AcDbLine
 10
2.524999999999998
 20
1.570710678118658
 30
0.0
 11
2.564999999999999
 21
1.570710678118658
 31
0.0
  0
LINE
  5
228
100
AcDbEntity
  8
USP-HID
100
AcDbLine
 10
2.524999999999998
 20
1.694250000000081
 30
0.0
 11
2.564999999999997
 21
1.694250000000081
 31
0.0
  0
LINE
  5
229
100
AcDbEntity
  8
USP-HID
100
AcDbLine
 10
2.565000000000001
 20
1.867000000000011
 30
0.0
 11
2.565000000000001
 21
1.827000000000012
 31
0.0
  0
LINE
  5
22A
100
AcDbEntity
  8
USP-HID
100
AcDbLine
 10
2.524999999999998
 20
1.827000000000012
 30
0.0
 11
2.564999999999999
 21
1.827000000000012
 31
0.0
  0
LINE
  5
22B
100
AcDbEntity
  8
USP-GEO
100
AcDbLine
 10
2.798999999999983
 20
1.666847497513295
 30
0.0
 11
2.798999999999994
 21
1.827000000000094
 31
0.0
  0
LINE
  5
22C
100
AcDbEntity
  8
USP-GEO
100
AcDbLine
 10
2.798999999999978
 20
1.571258925895977
 30
0.0
 11
2.798999999999976
 21
1.656494735709186
 31
0.0
  0
LINE
  5
22D
100
AcDbEntity
  8
USP-GEO
100
AcDbLine
 10
2.798999999999974
 20
1.666847497513295
 30
0.0
 11
2.798999999999972
 21
1.656494735709193
 31
0.0
  0
LINE
  5
22E
100
AcDbEntity
  8
USP-HID
100
AcDbLine
 10
2.798999999999999
 20
1.867000000000111
 30
0.0
 11
2.798999999999999
 21
1.827000000000108
 31
0.0
  0
LINE
  5
22F
100
AcDbEntity
  8
USP-GEO
100
AcDbLine
 10
2.996999999999987
 20
1.666847497513288
 30
0.0
 11
2.996999999999998
 21
1.827000000000099
 31
0.0
  0
LINE
  5
230
100
AcDbEntity
  8
USP-GEO
100
AcDbLine
 10
2.996999999999975
 20
1.666847497513288
 30
0.0
 11
2.904499999999975
 21
1.821420486254691
 31
0.0
  0
LINE
  5
231
100
AcDbEntity
  8
USP-GEO
100
AcDbLine
 10
2.996999999999975
 20
1.656494735709189
 30
0.0
 11
2.904499999999975
 21
1.811067724450593
 31
0.0
  0
LINE
  5
232
100
AcDbEntity
  8
USP-GEO
100
AcDbLine
 10
2.996999999999978
 20
1.656494735709193
 30
0.0
 11
2.99699999999998
 21
1.666847497513295
 31
0.0
  0
LINE
  5
233
100
AcDbEntity
  8
USP-GEO
100
AcDbLine
 10
2.99699999999998
 20
1.571258925895977
 30
0.0
 11
2.996999999999978
 21
1.656494735709193
 31
0.0
  0
LINE
  5
234
100
AcDbEntity
  8
USP-HID
100
AcDbLine
 10
2.906
 20
1.867000000000111
 30
0.0
 11
2.906
 21
1.827000000000118
 31
0.0
  0
LINE
  5
235
100
AcDbEntity
  8
USP-GEO
100
AcDbLine
 10
2.897999999999976
 20
1.81055860055935
 30
0.0
 11
2.897999999999974
 21
1.800205838755248
 31
0.0
  0
LINE
  5
236
100
AcDbEntity
  8
USP-GEO
100
AcDbLine
 10
2.904499999999977
 20
1.811067724450593
 30
0.0
 11
2.897999999999974
 21
1.80020583875525
 31
0.0
  0
LINE
  5
237
100
AcDbEntity
  8
USP-GEO
100
AcDbLine
 10
2.904499999999977
 20
1.811067724450595
 30
0.0
 11
2.904499999999979
 21
1.821420486254696
 31
0.0
  0
LINE
  5
238
100
AcDbEntity
  8
USP-GEO
100
AcDbLine
 10
2.904499999999979
 20
1.821420486254694
 30
0.0
 11
2.897999999999978
 21
1.810558600559351
 31
0.0
  0
LINE
  5
239
100
AcDbEntity
  8
USP-GEO
100
AcDbLine
 10
2.897999999999974
 20
1.81055860055935
 30
0.0
 11
2.891499999999973
 21
1.821420486254691
 31
0.0
  0
LINE
  5
23A
100
AcDbEntity
  8
USP-GEO
100
AcDbLine
 10
2.891499999999975
 20
1.811067724450587
 30
0.0
 11
2.891499999999977
 21
1.821420486254689
 31
0.0
  0
LINE
  5
23B
100
AcDbEntity
  8
USP-GEO
100
AcDbLine
 10
2.897999999999973
 20
1.800205838755244
 30
0.0
 11
2.891499999999973
 21
1.811067724450586
 31
0.0
  0
LINE
  5
23C
100
AcDbEntity
  8
USP-HID
100
AcDbLine
 10
2.996999999999996
 20
1.867000000000111
 30
0.0
 11
2.996999999999996
 21
1.82700000000011
 31
0.0
  0
LINE
  5
23D
100
AcDbEntity
  8
USP-HID
100
AcDbLine
 10
3.106000000000001
 20
1.867000000000096
 30
0.0
 11
3.106000000000001
 21
1.827000000000097
 31
0.0
  0
LINE
  5
23E
100
AcDbEntity
  8
USP-HID
100
AcDbLine
 10
3.070000000000002
 20
1.867000000000111
 30
0.0
 11
3.070000000000002
 21
1.827000000000118
 31
0.0
  0
LINE
  5
23F
100
AcDbEntity
  8
USP-HID
100
AcDbLine
 10
3.17590661048664
 20
1.867000000000111
 30
0.0
 11
3.17590661048664
 21
1.82700000000011
 31
0.0
  0
LINE
  5
240
100
AcDbEntity
  8
USP-HID
100
AcDbLine
 10
3.270000000000003
 20
1.867000000000096
 30
0.0
 11
3.270000000000003
 21
1.827000000000097
 31
0.0
  0
LINE
  5
241
100
AcDbEntity
  8
USP-GEO
100
AcDbLine
 10
3.488000000000001
 20
1.867000000000125
 30
0.0
 11
3.488000000000001
 21
1.827000000000124
 31
0.0
  0
ENDBLK
  5
243
100
AcDbEntity
  8
0
100
AcDbBlockEnd
  0
ENDSEC
  0
SECTION
  2
ENTITIES
  0
INSERT
  5
3
100
AcDbEntity
  8
USP
100
AcDbBlockReference
  2
JL28_S
 10
1.319561092922948
 20
0.7745772105632227
 30
0.0
  0
INSERT
  5
C6
100
AcDbEntity
  8
USP
100
AcDbBlockReference
  2
JL28_F
 10
5.578073438049633
 20
0.7745772105632441
 30
0.0
  0
INSERT
  5
1CE
100
AcDbEntity
  8
USP
100
AcDbBlockReference
  2
JL28_T
 10
5.519494794286941
 20
10.85678380785821
 30
0.0
  0
ENDSEC
  0
SECTION
  2
OBJECTS
  0
DICTIONARY
  5
258
102
{ACAD_XDICTIONARY
360
259
102
}
100
AcDbDictionary
  3
ACAD_GROUP
350
256
  3
ACAD_MLINESTYLE
350
257
1001
ACAD
1000
TREAT_AS_HARD
1070
     0
  0
DICTIONARY
  5
A
100
AcDbDictionary
280
     1
1001
ACAD
1000
TREAT_AS_HARD
1070
     1
  0
DICTIONARY
  5
244
100
AcDbDictionary
280
     1
  0
DICTIONARY
  5
248
100
AcDbDictionary
280
     1
  0
DICTIONARY
  5
259
100
AcDbDictionary
280
     1
  0
DICTIONARY
  5
256
102
{ACAD_REACTORS
330
258
102
}
100
AcDbDictionary
1001
ACAD
1000
TREAT_AS_HARD
1070
     0
  0
DICTIONARY
  5
257
102
{ACAD_REACTORS
330
258
102
}
100
AcDbDictionary
  3
STANDARD
350
25A
1001
ACAD
1000
TREAT_AS_HARD
1070
     0
  0
MLINESTYLE
  5
25A
102
{ACAD_REACTORS
330
257
102
}
100
AcDbMlineStyle
  2
STANDARD
 70
     0
  3

 62
     0
 51
90.0
 52
90.0
 71
     2
 49
0.5
 62
   256
  6
BYLAYER
 49
-0.5
 62
   256
  6
BYLAYER
  0
ENDSEC
  0
EOF
