  0
SECTION
  2
HEADER
  9
$ACADVER
  1
AC1014
  9
$ACADMAINTVER
 70
     9
  9
$DWGCODEPAGE
  3
ANSI_1252
  9
$INSBASE
 10
0.0
 20
0.0
 30
0.0
  9
$EXTMIN
 10
0.1894095516916507
 20
0.0018727031024283
 30
0.0
  9
$EXTMAX
 10
8.017514331594963
 20
10.00271027076983
 30
0.0
  9
$LIMMIN
 10
0.0
 20
0.0
  9
$LIMMAX
 10
12.0
 20
9.0
  9
$ORTHOMODE
 70
     1
  9
$REGENMODE
 70
     1
  9
$FILLMODE
 70
     1
  9
$QTEXTMODE
 70
     0
  9
$MIRRTEXT
 70
     0
  9
$DRAGMODE
 70
     2
  9
$LTSCALE
 40
1.5
  9
$OSMODE
 70
     0
  9
$ATTMODE
 70
     1
  9
$TEXTSIZE
 40
0.75
  9
$TRACEWID
 40
0.05
  9
$TEXTSTYLE
  7
STANDARD
  9
$CLAYER
  8
USP
  9
$CELTYPE
  6
BYLAYER
  9
$CECOLOR
 62
   256
  9
$CELTSCALE
 40
1.0
  9
$DELOBJ
 70
     1
  9
$DISPSILH
 70
     1
  9
$DIMSCALE
 40
7.0
  9
$DIMASZ
 40
0.125
  9
$DIMEXO
 40
0.0625
  9
$DIMDLI
 40
0.37890625
  9
$DIMRND
 40
0.0
  9
$DIMDLE
 40
0.0
  9
$DIMEXE
 40
0.09375
  9
$DIMTP
 40
0.0
  9
$DIMTM
 40
0.0
  9
$DIMTXT
 40
0.109375
  9
$DIMCEN
 40
0.0
  9
$DIMTSZ
 40
0.0
  9
$DIMTOL
 70
     0
  9
$DIMLIM
 70
     0
  9
$DIMTIH
 70
     1
  9
$DIMTOH
 70
     1
  9
$DIMSE1
 70
     0
  9
$DIMSE2
 70
     0
  9
$DIMTAD
 70
     0
  9
$DIMZIN
 70
     8
  9
$DIMBLK
  1

  9
$DIMASO
 70
     1
  9
$DIMSHO
 70
     1
  9
$DIMPOST
  1

  9
$DIMAPOST
  1

  9
$DIMALT
 70
     0
  9
$DIMALTD
 70
     2
  9
$DIMALTF
 40
25.4
  9
$DIMLFAC
 40
1.0
  9
$DIMTOFL
 70
     0
  9
$DIMTVP
 40
0.0
  9
$DIMTIX
 70
     0
  9
$DIMSOXD
 70
     0
  9
$DIMSAH
 70
     0
  9
$DIMBLK1
  1

  9
$DIMBLK2
  1

  9
$DIMSTYLE
  2
STANDARD
  9
$DIMCLRD
 70
     0
  9
$DIMCLRE
 70
     0
  9
$DIMCLRT
 70
   256
  9
$DIMTFAC
 40
1.0
  9
$DIMGAP
 40
0.08984375
  9
$DIMJUST
 70
     0
  9
$DIMSD1
 70
     0
  9
$DIMSD2
 70
     0
  9
$DIMTOLJ
 70
     1
  9
$DIMTZIN
 70
     0
  9
$DIMALTZ
 70
     0
  9
$DIMALTTZ
 70
     0
  9
$DIMFIT
 70
     3
  9
$DIMUPT
 70
     1
  9
$DIMUNIT
 70
     7
  9
$DIMDEC
 70
     4
  9
$DIMTDEC
 70
     4
  9
$DIMALTU
 70
     2
  9
$DIMALTTD
 70
     2
  9
$DIMTXSTY
  7
STANDARD
  9
$DIMAUNIT
 70
     0
  9
$LUNITS
 70
     5
  9
$LUPREC
 70
     6
  9
$SKETCHINC
 40
0.1
  9
$FILLETRAD
 40
0.0
  9
$AUNITS
 70
     0
  9
$AUPREC
 70
     1
  9
$MENU
  1
CUSTOM
  9
$ELEVATION
 40
0.0
  9
$PELEVATION
 40
0.0
  9
$THICKNESS
 40
0.0
  9
$LIMCHECK
 70
     0
  9
$BLIPMODE
 70
     0
  9
$CHAMFERA
 40
0.0
  9
$CHAMFERB
 40
0.0
  9
$CHAMFERC
 40
0.0
  9
$CHAMFERD
 40
0.0
  9
$SKPOLY
 70
     0
  9
$TDCREATE
 40
2451263.663231366
  9
$TDUPDATE
 40
2452759.745375613
  9
$TDINDWG
 40
0.4675430440
  9
$TDUSRTIMER
 40
0.4675430440
  9
$USRTIMER
 70
     1
  9
$ANGBASE
 50
0.0
  9
$ANGDIR
 70
     0
  9
$PDMODE
 70
     0
  9
$PDSIZE
 40
0.0
  9
$PLINEWID
 40
0.0
  9
$COORDS
 70
     2
  9
$SPLFRAME
 70
     0
  9
$SPLINETYPE
 70
     6
  9
$SPLINESEGS
 70
     8
  9
$ATTDIA
 70
     0
  9
$ATTREQ
 70
     0
  9
$HANDLING
 70
     1
  9
$HANDSEED
  5
1F3
  9
$SURFTAB1
 70
     6
  9
$SURFTAB2
 70
     6
  9
$SURFTYPE
 70
     6
  9
$SURFU
 70
     6
  9
$SURFV
 70
     6
  9
$UCSNAME
  2

  9
$UCSORG
 10
0.0
 20
0.0
 30
0.0
  9
$UCSXDIR
 10
1.0
 20
0.0
 30
0.0
  9
$UCSYDIR
 10
0.0
 20
1.0
 30
0.0
  9
$PUCSNAME
  2

  9
$PUCSORG
 10
0.0
 20
0.0
 30
0.0
  9
$PUCSXDIR
 10
1.0
 20
0.0
 30
0.0
  9
$PUCSYDIR
 10
0.0
 20
1.0
 30
0.0
  9
$USERI1
 70
     0
  9
$USERI2
 70
     0
  9
$USERI3
 70
     0
  9
$USERI4
 70
     0
  9
$USERI5
 70
     0
  9
$USERR1
 40
0.0
  9
$USERR2
 40
0.0
  9
$USERR3
 40
0.0
  9
$USERR4
 40
0.0
  9
$USERR5
 40
0.0
  9
$WORLDVIEW
 70
     1
  9
$SHADEDGE
 70
     3
  9
$SHADEDIF
 70
    70
  9
$TILEMODE
 70
     1
  9
$MAXACTVP
 70
    16
  9
$PINSBASE
 10
0.0
 20
0.0
 30
0.0
  9
$PLIMCHECK
 70
     0
  9
$PEXTMIN
 10
1.000000000000000E+20
 20
1.000000000000000E+20
 30
1.000000000000000E+20
  9
$PEXTMAX
 10
-1.000000000000000E+20
 20
-1.000000000000000E+20
 30
-1.000000000000000E+20
  9
$PLIMMIN
 10
0.0
 20
0.0
  9
$PLIMMAX
 10
12.0
 20
9.0
  9
$UNITMODE
 70
     0
  9
$VISRETAIN
 70
     0
  9
$PLINEGEN
 70
     0
  9
$PSLTSCALE
 70
     0
  9
$TREEDEPTH
 70
  3020
  9
$PICKSTYLE
 70
     1
  9
$CMLSTYLE
  2
STANDARD
  9
$CMLJUST
 70
     0
  9
$CMLSCALE
 40
1.0
  9
$PROXYGRAPHICS
 70
     1
  9
$MEASUREMENT
 70
     0
  0
ENDSEC
  0
SECTION
  2
CLASSES
  0
CLASS
  1
ACDBDICTIONARYWDFLT
  2
AcDbDictionaryWithDefault
  3
AutoCAD 2000
 90
        0
280
     1
281
     0
  0
CLASS
  1
ACDBPLACEHOLDER
  2
AcDbPlaceHolder
  3
AutoCAD 2000
 90
        0
280
     1
281
     0
  0
CLASS
  1
LAYOUT
  2
AcDbLayout
  3
AutoCAD 2000
 90
        0
280
     1
281
     0
  0
CLASS
  1
DICTIONARYVAR
  2
AcDbDictionaryVar
  3
"AutoCAD"
 90
        0
280
     1
281
     0
  0
CLASS
  1
LONG_TRANSACTION
  2
AcDbLongTransaction
  3
AutoCAD 2000
 90
        0
280
     1
281
     0
  0
CLASS
  1
LWPOLYLINE
  2
AcDbPolyline
  3
"AutoCAD"
 90
        0
280
     1
281
     1
  0
CLASS
  1
HATCH
  2
AcDbHatch
  3
"ACAD_SEDONA"
 90
        0
280
     1
281
     1
  0
CLASS
  1
XRECORD
  2
AcDbXrecord
  3
"<Built In>"
 90
        0
280
     0
281
     0
  0
ENDSEC
  0
SECTION
  2
TABLES
  0
TABLE
  2
VPORT
  5
1DD
100
AcDbSymbolTable
 70
     1
  0
VPORT
  5
1EF
100
AcDbSymbolTableRecord
100
AcDbViewportTableRecord
  2
*ACTIVE
 70
     0
 10
0.0
 20
0.0
 11
1.0
 21
1.0
 12
-15.31584120881651
 22
15.47960497805099
 13
0.0
 23
0.0
 14
1.0
 24
1.0
 15
0.0
 25
0.0
 16
0.0
 26
0.0
 36
1.0
 17
23.09603071721725
 27
-10.27010416511325
 37
-10.44050274849355
 40
10.41525621967061
 41
1.457627118644067
 42
50.0
 43
10.55307667737539
 44
10.55307667737539
 50
0.0
 51
0.0
 71
     0
 72
   100
 73
     1
 74
     1
 75
     0
 76
     0
 77
     0
 78
     0
  0
ENDTAB
  0
TABLE
  2
LTYPE
  5
1D9
100
AcDbSymbolTable
 70
     1
  0
LTYPE
  5
1DA
100
AcDbSymbolTableRecord
100
AcDbLinetypeTableRecord
  2
BYBLOCK
 70
     0
  3

 72
    65
 73
     0
 40
0.0
  0
LTYPE
  5
6
100
AcDbSymbolTableRecord
100
AcDbLinetypeTableRecord
  2
BYLAYER
 70
     0
  3

 72
    65
 73
     0
 40
0.0
  0
LTYPE
  5
5
100
AcDbSymbolTableRecord
100
AcDbLinetypeTableRecord
  2
CONTINUOUS
 70
     0
  3
Solid line
 72
    65
 73
     0
 40
0.0
  0
ENDTAB
  0
TABLE
  2
LAYER
  5
1D7
100
AcDbSymbolTable
 70
     5
  0
LAYER
  5
8A
100
AcDbSymbolTableRecord
100
AcDbLayerTableRecord
  2
0
 70
     0
 62
     7
  6
CONTINUOUS
  0
LAYER
  5
D
100
AcDbSymbolTableRecord
100
AcDbLayerTableRecord
  2
USP-GEO
 70
     0
 62
     7
  6
CONTINUOUS
  0
LAYER
  5
12
100
AcDbSymbolTableRecord
100
AcDbLayerTableRecord
  2
USP-TXT
 70
     0
 62
     7
  6
CONTINUOUS
  0
LAYER
  5
9
102
{ACAD_XDICTIONARY
360
A
102
}
100
AcDbSymbolTableRecord
100
AcDbLayerTableRecord
  2
USP-HID
 70
     0
 62
     7
  6
CONTINUOUS
  0
LAYER
  5
4
100
AcDbSymbolTableRecord
100
AcDbLayerTableRecord
  2
USP
 70
     0
 62
     7
  6
CONTINUOUS
  0
ENDTAB
  0
TABLE
  2
STYLE
  5
1D8
100
AcDbSymbolTable
 70
     1
  0
STYLE
  5
13
100
AcDbSymbolTableRecord
100
AcDbTextStyleTableRecord
  2
STANDARD
 70
     0
 40
0.0
 41
1.0
 50
0.0
 71
     0
 42
0.75
  3
txt
  4

  0
ENDTAB
  0
TABLE
  2
VIEW
  5
1DB
100
AcDbSymbolTable
 70
     0
  0
ENDTAB
  0
TABLE
  2
UCS
  5
1DC
100
AcDbSymbolTable
 70
     0
  0
ENDTAB
  0
TABLE
  2
APPID
  5
1DF
100
AcDbSymbolTable
 70
     1
  0
APPID
  5
B
100
AcDbSymbolTableRecord
100
AcDbRegAppTableRecord
  2
ACAD
 70
     0
  0
ENDTAB
  0
TABLE
  2
DIMSTYLE
  5
1E0
100
AcDbSymbolTable
 70
     1
  0
DIMSTYLE
105
1E7
100
AcDbSymbolTableRecord
100
AcDbDimStyleTableRecord
  2
STANDARD
 70
     0
  3

  4

  5

  6

  7

 40
1.0
 41
0.18
 42
0.0625
 43
0.38
 44
0.18
 45
0.0
 46
0.0
 47
0.0
 48
0.0
140
0.18
141
0.09
142
0.0
143
25.4
144
1.0
145
0.0
146
1.0
147
0.09
 71
     0
 72
     0
 73
     1
 74
     1
 75
     0
 76
     0
 77
     0
 78
     0
170
     0
171
     2
172
     0
173
     0
174
     0
175
     0
176
     0
177
     0
178
     0
270
     2
271
     4
272
     4
273
     2
274
     2
340
13
275
     0
280
     0
281
     0
282
     0
283
     1
284
     0
285
     0
286
     0
287
     3
288
     0
  0
ENDTAB
  0
TABLE
  2
BLOCK_RECORD
  5
1
100
AcDbSymbolTable
 70
     3
  0
BLOCK_RECORD
  5
2
102
{ACAD_XDICTIONARY
360
1D0
102
}
100
AcDbSymbolTableRecord
100
AcDbBlockTableRecord
  2
*MODEL_SPACE
  0
BLOCK_RECORD
  5
1D3
102
{ACAD_XDICTIONARY
360
1D4
102
}
100
AcDbSymbolTableRecord
100
AcDbBlockTableRecord
  2
*PAPER_SPACE
  0
BLOCK_RECORD
  5
7
100
AcDbSymbolTableRecord
100
AcDbBlockTableRecord
  2
JL26_S
  0
BLOCK_RECORD
  5
8D
100
AcDbSymbolTableRecord
100
AcDbBlockTableRecord
  2
JL26_F
  0
BLOCK_RECORD
  5
15D
100
AcDbSymbolTableRecord
100
AcDbBlockTableRecord
  2
JL26_T
  0
ENDTAB
  0
ENDSEC
  0
SECTION
  2
BLOCKS
  0
BLOCK
  5
1D1
100
AcDbEntity
  8
0
100
AcDbBlockBegin
  2
*MODEL_SPACE
 70
     0
 10
0.0
 20
0.0
 30
0.0
  3
*MODEL_SPACE
  1

  0
ENDBLK
  5
1D2
100
AcDbEntity
  8
0
100
AcDbBlockEnd
  0
BLOCK
  5
1D5
100
AcDbEntity
 67
     1
  8
0
100
AcDbBlockBegin
  2
*PAPER_SPACE
 70
     0
 10
0.0
 20
0.0
 30
0.0
  3
*PAPER_SPACE
  1

  0
ENDBLK
  5
1D6
100
AcDbEntity
 67
     1
  8
0
100
AcDbBlockEnd
  0
BLOCK
  5
89
100
AcDbEntity
  8
0
100
AcDbBlockBegin
  2
JL26_S
 70
     0
 10
0.0
 20
0.0
 30
0.0
  3
JL26_S
  1

  0
LINE
  5
8
100
AcDbEntity
  8
USP-HID
100
AcDbLine
 10
0.6169999999998508
 20
4.553639719431981
 30
0.0
 11
0.616999999999859
 21
4.279232484543972
 31
0.0
  0
CIRCLE
  5
C
100
AcDbEntity
  8
USP-GEO
100
AcDbCircle
 10
0.3289999999998585
 20
4.387999999999995
 30
0.0
 40
0.15625
  0
LINE
  5
E
100
AcDbEntity
  8
USP-GEO
100
AcDbLine
 10
0.0399999999998516
 20
4.55363971943196
 30
0.0
 11
0.0399999999998566
 21
4.412218363194649
 31
0.0
  0
ARC
  5
F
100
AcDbEntity
  8
USP-GEO
100
AcDbCircle
 10
0.8169999999998491
 20
4.553639719431989
 30
0.0
 40
0.2
100
AcDbArc
 50
180.000000000002
 51
225.0000000000026
  0
LINE
  5
10
100
AcDbEntity
  8
USP-GEO
100
AcDbLine
 10
-0.0000000000001493
 20
4.55363971943196
 30
0.0
 11
-0.0000000000001443
 21
4.412218363194649
 31
0.0
  0
TEXT
  5
11
100
AcDbEntity
  8
USP-TXT
100
AcDbText
 10
-0.6576458333333257
 20
-0.5594645935985654
 30
0.0
 40
0.203125
  1
JL26 - SIDE VIEW
 72
     1
 11
0.9335000000000079
 21
-0.5594645935985654
 31
0.0
100
AcDbText
  0
LINE
  5
14
100
AcDbEntity
  8
USP-HID
100
AcDbLine
 10
0.4670000000000126
 20
0.0400000000000045
 30
0.0
 11
1.767000000000012
 21
0.0400000000000506
 31
0.0
  0
LINE
  5
15
100
AcDbEntity
  8
USP-GEO
100
AcDbLine
 10
0.4670000000000137
 20
0.0000000000000043
 30
0.0
 11
1.767000000000013
 21
0.0000000000000504
 31
0.0
  0
LINE
  5
16
100
AcDbEntity
  8
USP-GEO
100
AcDbLine
 10
1.796289321881337
 20
0.1107106781187255
 30
0.0
 11
0.6755786437626597
 21
1.231421356237323
 31
0.0
  0
LINE
  5
17
100
AcDbEntity
  8
USP-GEO
100
AcDbLine
 10
0.0399999999999635
 20
1.372842712474611
 30
0.0
 11
0.0399999999999685
 21
1.231421356237302
 31
0.0
  0
ARC
  5
18
100
AcDbEntity
  8
USP-GEO
100
AcDbCircle
 10
0.8169999999999646
 20
1.37284271247464
 30
0.0
 40
0.2
100
AcDbArc
 50
180.000000000002
 51
225.000000000002
  0
LINE
  5
19
100
AcDbEntity
  8
USP-GEO
100
AcDbLine
 10
-0.0000000000000356
 20
1.372842712474611
 30
0.0
 11
-0.0000000000000306
 21
1.231421356237302
 31
0.0
  0
ARC
  5
1A
100
AcDbEntity
  8
USP-GEO
100
AcDbCircle
 10
0.3670000000000115
 20
0.0400000000000034
 30
0.0
 40
0.1
100
AcDbArc
 50
0.0000000000020356
 51
135.0000000000012
  0
LINE
  5
1B
100
AcDbEntity
  8
USP-GEO
100
AcDbLine
 10
0.3670000000000115
 20
0.0399999999999998
 30
0.0
 11
0.4670000000000117
 21
0.0400000000000034
 31
0.0
  0
LINE
  5
1C
100
AcDbEntity
  8
USP-GEO
100
AcDbLine
 10
0.4670000000000134
 20
0.0000000000000042
 30
0.0
 11
0.3670000000000133
 21
0.0000000000000007
 31
0.0
  0
LINE
  5
1D
100
AcDbEntity
  8
USP-GEO
100
AcDbLine
 10
0.0399999999999697
 20
1.231421356237302
 30
0.0
 11
0.0400000000000009
 21
0.3669999999999961
 31
0.0
  0
LINE
  5
1E
100
AcDbEntity
  8
USP-GEO
100
AcDbLine
 10
0.0
 20
0.3669999999999907
 30
0.0
 11
-0.0000000000000312
 21
1.231421356237299
 31
0.0
  0
LINE
  5
1F
100
AcDbEntity
  8
USP-GEO
100
AcDbLine
 10
0.0400000000000015
 20
0.3669999999999953
 30
0.0
 11
0.2962893218813554
 21
0.1107106781186578
 31
0.0
  0
LINE
  5
20
100
AcDbEntity
  8
USP-GEO
100
AcDbLine
 10
0.3670000000000115
 20
0.0399999999999998
 30
0.0
 11
0.3670000000000129
 21
0.0
 31
0.0
  0
LINE
  5
21
100
AcDbEntity
  8
USP-GEO
100
AcDbLine
 10
0.0000000000000011
 20
0.3669999999999894
 30
0.0
 11
0.0400000000000009
 21
0.3669999999999944
 31
0.0
  0
LINE
  5
22
100
AcDbEntity
  8
USP-GEO
100
AcDbLine
 10
0.4670000000000117
 20
0.0400000000000015
 30
0.0
 11
0.467000000000013
 21
0.0000000000000042
 31
0.0
  0
LINE
  5
23
100
AcDbEntity
  8
USP-GEO
100
AcDbLine
 10
0.6169999999999121
 20
2.866639719431984
 30
0.0
 11
0.616999999999889
 21
3.463767515456052
 31
0.0
  0
LINE
  5
24
100
AcDbEntity
  8
USP-GEO
100
AcDbLine
 10
0.0399999999998892
 20
3.463767515456024
 30
0.0
 11
0.0399999999999103
 21
2.866639719431955
 31
0.0
  0
LINE
  5
25
100
AcDbEntity
  8
USP-GEO
100
AcDbLine
 10
0.6169999999999121
 20
2.866639719431984
 30
0.0
 11
0.616999999999891
 21
3.463767515456051
 31
0.0
  0
LINE
  5
26
100
AcDbEntity
  8
USP-GEO
100
AcDbLine
 10
-0.0000000000000888
 20
2.866639719431955
 30
0.0
 11
-0.0000000000001099
 21
3.463767515456026
 31
0.0
  0
LINE
  5
27
100
AcDbEntity
  8
USP-GEO
100
AcDbLine
 10
0.0399999999999388
 20
2.113124973681309
 30
0.0
 11
0.0399999999999455
 21
1.918188871693349
 31
0.0
  0
LINE
  5
28
100
AcDbEntity
  8
USP-GEO
100
AcDbLine
 10
-0.0000000000000622
 20
2.113124973681304
 30
0.0
 11
-0.0000000000000554
 21
1.918188871693343
 31
0.0
  0
LINE
  5
29
100
AcDbEntity
  8
USP-GEO
100
AcDbLine
 10
0.0399999999999511
 20
1.776767515456026
 30
0.0
 11
0.0399999999999654
 21
1.372842712474611
 31
0.0
  0
LINE
  5
2A
100
AcDbEntity
  8
USP-GEO
100
AcDbLine
 10
-0.0000000000000355
 20
1.372842712474611
 30
0.0
 11
-0.0000000000000498
 21
1.776767515456023
 31
0.0
  0
LINE
  5
2B
100
AcDbEntity
  8
USP-HID
100
AcDbLine
 10
0.0399999999999654
 20
1.376999999999987
 30
0.0
 11
-0.0000000000000344
 21
1.376999999999986
 31
0.0
  0
LINE
  5
2C
100
AcDbEntity
  8
USP-HID
100
AcDbLine
 10
0.039999999999959
 20
1.540999999999987
 30
0.0
 11
-0.0000000000000409
 21
1.540999999999985
 31
0.0
  0
LINE
  5
2D
100
AcDbEntity
  8
USP-GEO
100
AcDbLine
 10
0.0399999999999443
 20
1.918188871693349
 30
0.0
 11
0.0399999999999493
 21
1.776767515456033
 31
0.0
  0
LINE
  5
2E
100
AcDbEntity
  8
USP-GEO
100
AcDbLine
 10
-0.0000000000000548
 20
1.918188871693342
 30
0.0
 11
-0.0000000000000498
 21
1.776767515456026
 31
0.0
  0
LINE
  5
2F
100
AcDbEntity
  8
USP-GEO
100
AcDbLine
 10
0.0399999999999232
 20
2.530282261206676
 30
0.0
 11
0.0399999999999282
 21
2.38886090496936
 31
0.0
  0
LINE
  5
30
100
AcDbEntity
  8
USP-GEO
100
AcDbLine
 10
-0.0000000000000727
 20
2.38886090496936
 30
0.0
 11
-0.0000000000000777
 21
2.530282261206676
 31
0.0
  0
LINE
  5
31
100
AcDbEntity
  8
USP-GEO
100
AcDbLine
 10
0.0399999999999269
 20
2.38886090496936
 30
0.0
 11
0.0399999999999317
 21
2.254546329918608
 31
0.0
  0
LINE
  5
32
100
AcDbEntity
  8
USP-GEO
100
AcDbLine
 10
-0.0000000000000675
 20
2.254546329918608
 30
0.0
 11
-0.0000000000000723
 21
2.38886090496936
 31
0.0
  0
LINE
  5
33
100
AcDbEntity
  8
USP-GEO
100
AcDbLine
 10
0.0399999999999335
 20
2.254546329918615
 30
0.0
 11
0.0399999999999385
 21
2.113124973681302
 31
0.0
  0
LINE
  5
34
100
AcDbEntity
  8
USP-GEO
100
AcDbLine
 10
-0.0000000000000624
 20
2.113124973681296
 30
0.0
 11
-0.0000000000000674
 21
2.254546329918608
 31
0.0
  0
LINE
  5
35
100
AcDbEntity
  8
USP-GEO
100
AcDbLine
 10
0.0399999999999176
 20
2.725218363194652
 30
0.0
 11
0.0399999999999246
 21
2.530282261206683
 31
0.0
  0
LINE
  5
36
100
AcDbEntity
  8
USP-GEO
100
AcDbLine
 10
-0.0000000000000764
 20
2.530282261206676
 30
0.0
 11
-0.0000000000000834
 21
2.725218363194644
 31
0.0
  0
LINE
  5
37
100
AcDbEntity
  8
USP-HID
100
AcDbLine
 10
0.0399999999999221
 20
2.595999999999988
 30
0.0
 11
-0.0000000000000764
 21
2.595999999999987
 31
0.0
  0
LINE
  5
38
100
AcDbEntity
  8
USP-HID
100
AcDbLine
 10
0.0399999999999174
 20
2.759999999999988
 30
0.0
 11
-0.0000000000000828
 21
2.759999999999987
 31
0.0
  0
LINE
  5
39
100
AcDbEntity
  8
USP-HID
100
AcDbLine
 10
0.0399999999999174
 20
2.751999999999987
 30
0.0
 11
-0.0000000000000842
 21
2.751999999999986
 31
0.0
  0
LINE
  5
3A
100
AcDbEntity
  8
USP-GEO
100
AcDbLine
 10
0.0399999999999102
 20
2.866639719431955
 30
0.0
 11
0.0399999999999152
 21
2.725218363194644
 31
0.0
  0
LINE
  5
3B
100
AcDbEntity
  8
USP-GEO
100
AcDbLine
 10
-0.0000000000000889
 20
2.866639719431955
 30
0.0
 11
-0.0000000000000839
 21
2.725218363194644
 31
0.0
  0
CIRCLE
  5
3C
100
AcDbEntity
  8
USP-HID
100
AcDbCircle
 10
0.6386999521436554
 20
2.096000000000008
 30
0.0
 40
0.082
  0
LINE
  5
3D
100
AcDbEntity
  8
USP-GEO
100
AcDbLine
 10
0.675578643762635
 20
1.918188871693363
 30
0.0
 11
0.8705147457505974
 21
2.11312497368134
 31
0.0
  0
LINE
  5
3E
100
AcDbEntity
  8
USP-GEO
100
AcDbLine
 10
0.9290933895132846
 20
2.163453670081421
 30
0.0
 11
0.9290933895133026
 21
2.029139095030669
 31
0.0
  0
ARC
  5
3F
100
AcDbEntity
  8
USP-GEO
100
AcDbCircle
 10
0.7290933895133005
 20
2.02913909503064
 30
0.0
 40
0.2
100
AcDbArc
 50
315.0000000000021
 51
0.0000000000020356
  0
LINE
  5
40
100
AcDbEntity
  8
USP-GEO
100
AcDbLine
 10
0.6169999999999636
 20
1.372842712474633
 30
0.0
 11
0.6169999999999494
 21
1.776767515456054
 31
0.0
  0
LINE
  5
41
100
AcDbEntity
  8
USP-GEO
100
AcDbLine
 10
0.870514745750615
 20
1.887717738793331
 30
0.0
 11
0.6755786437626457
 21
1.692781636805348
 31
0.0
  0
ARC
  5
42
100
AcDbEntity
  8
USP-GEO
100
AcDbCircle
 10
0.8169999999999584
 20
1.551360280568044
 30
0.0
 40
0.2
100
AcDbArc
 50
135.0000000000015
 51
180.000000000002
  0
ARC
  5
43
100
AcDbEntity
  8
USP-GEO
100
AcDbCircle
 10
0.8169999999999486
 20
1.776767515456062
 30
0.0
 40
0.2
100
AcDbArc
 50
135.0000000000016
 51
180.000000000002
  0
ARC
  5
44
100
AcDbEntity
  8
USP-GEO
100
AcDbCircle
 10
0.7290933895132917
 20
2.254546329918636
 30
0.0
 40
0.2
100
AcDbArc
 50
315.0000000000019
 51
0.0000000000020356
  0
ARC
  5
45
100
AcDbEntity
  8
USP-GEO
100
AcDbCircle
 10
0.7290933895132863
 20
2.388860904969388
 30
0.0
 40
0.2
100
AcDbArc
 50
0.0000000000020356
 51
45.00000000000194
  0
LINE
  5
46
100
AcDbEntity
  8
USP-HID
100
AcDbLine
 10
0.870514745750593
 20
2.304875026318701
 30
0.0
 11
0.6755786437626155
 21
2.499811128306665
 31
0.0
  0
CIRCLE
  5
47
100
AcDbEntity
  8
USP-GEO
100
AcDbCircle
 10
0.6386999521436465
 20
2.322000000000014
 30
0.0
 40
0.082
  0
ARC
  5
48
100
AcDbEntity
  8
USP-HID
100
AcDbCircle
 10
0.729093389513297
 20
2.163453670081392
 30
0.0
 40
0.2
100
AcDbArc
 50
13.16356116736593
 51
45.00000000000122
  0
LINE
  5
49
100
AcDbEntity
  8
USP-GEO
100
AcDbLine
 10
0.9290933895132802
 20
2.254546329918622
 30
0.0
 11
0.9290933895132889
 21
2.388860904969374
 31
0.0
  0
ARC
  5
4A
100
AcDbEntity
  8
USP-GEO
100
AcDbCircle
 10
0.729093389513297
 20
2.163453670081392
 30
0.0
 40
0.2
100
AcDbArc
 50
0.0000000000020356
 51
13.16356116736593
  0
LINE
  5
4B
100
AcDbEntity
  8
USP-GEO
100
AcDbLine
 10
0.8705147457505901
 20
2.530282261206704
 30
0.0
 11
0.6755786437626077
 21
2.725218363194674
 31
0.0
  0
LINE
  5
4C
100
AcDbEntity
  8
USP-HID
100
AcDbLine
 10
0.6169999999999094
 20
2.866639719431984
 30
0.0
 11
0.6169999999999174
 21
2.641232484543967
 31
0.0
  0
ARC
  5
4D
100
AcDbEntity
  8
USP-HID
100
AcDbCircle
 10
0.8169999999999202
 20
2.641232484543974
 30
0.0
 40
0.2
100
AcDbArc
 50
180.000000000002
 51
225.0000000000022
  0
ARC
  5
4E
100
AcDbEntity
  8
USP-GEO
100
AcDbCircle
 10
0.8169999999999104
 20
2.866639719431991
 30
0.0
 40
0.2
100
AcDbArc
 50
180.000000000002
 51
225.0000000000026
  0
LINE
  5
4F
100
AcDbEntity
  8
USP-GEO
100
AcDbLine
 10
0.2456929793878433
 20
3.821629674908779
 30
0.0
 11
0.0399999999998941
 21
3.465358983848618
 31
0.0
  0
LINE
  5
50
100
AcDbEntity
  8
USP-GEO
100
AcDbLine
 10
0.0599999999998919
 20
3.419999999999991
 30
0.0
 11
0.2803339955392177
 21
3.801629674908775
 31
0.0
  0
LINE
  5
51
100
AcDbEntity
  8
USP-GEO
100
AcDbLine
 10
0.0399999999998784
 20
3.800124973681309
 30
0.0
 11
0.0399999999998851
 21
3.605188871693347
 31
0.0
  0
LINE
  5
52
100
AcDbEntity
  8
USP-GEO
100
AcDbLine
 10
-0.0000000000001226
 20
3.800124973681309
 30
0.0
 11
-0.0000000000001158
 21
3.605188871693347
 31
0.0
  0
LINE
  5
53
100
AcDbEntity
  8
USP-HID
100
AcDbLine
 10
0.0399999999999092
 20
2.915999999999987
 30
0.0
 11
-0.0000000000000906
 21
2.915999999999986
 31
0.0
  0
LINE
  5
54
100
AcDbEntity
  8
USP-HID
100
AcDbLine
 10
0.0199999999998857
 20
3.430717967697237
 30
0.0
 11
0.0399999999998904
 21
3.465358983848624
 31
0.0
  0
LINE
  5
55
100
AcDbEntity
  8
USP-HID
100
AcDbLine
 10
0.0399999999998931
 20
3.425358983848603
 30
0.0
 11
0.0199999999998891
 21
3.430717967697225
 31
0.0
  0
LINE
  5
56
100
AcDbEntity
  8
USP-HID
100
AcDbLine
 10
-0.0000000000001101
 20
3.419999999999991
 30
0.0
 11
0.0399999999998917
 21
3.419999999999992
 31
0.0
  0
LINE
  5
57
100
AcDbEntity
  8
USP-GEO
100
AcDbLine
 10
0.0599999999998886
 20
3.419999999999979
 30
0.0
 11
0.0399999999998911
 21
3.4253589838486
 31
0.0
  0
LINE
  5
58
100
AcDbEntity
  8
USP-GEO
100
AcDbLine
 10
0.0399999999998839
 20
3.605188871693347
 30
0.0
 11
0.0399999999998889
 21
3.463767515456031
 31
0.0
  0
LINE
  5
59
100
AcDbEntity
  8
USP-GEO
100
AcDbLine
 10
-0.0000000000001152
 20
3.605188871693346
 30
0.0
 11
-0.0000000000001102
 21
3.463767515456031
 31
0.0
  0
LINE
  5
5A
100
AcDbEntity
  8
USP-GEO
100
AcDbLine
 10
0.0399999999998683
 20
4.075860904969364
 30
0.0
 11
0.039999999999873
 21
3.941546329918613
 31
0.0
  0
LINE
  5
5B
100
AcDbEntity
  8
USP-GEO
100
AcDbLine
 10
-0.0000000000001279
 20
3.941546329918613
 30
0.0
 11
-0.0000000000001327
 21
4.075860904969364
 31
0.0
  0
ARC
  5
5C
100
AcDbEntity
  8
USP-GEO
100
AcDbCircle
 10
0.1807410741040041
 20
3.859129674908783
 30
0.0
 40
0.075
100
AcDbArc
 50
330.0000000000034
 51
75.00000000000304
  0
ARC
  5
5D
100
AcDbEntity
  8
USP-GEO
100
AcDbCircle
 10
0.1807410741040041
 20
3.859129674908783
 30
0.0
 40
0.115
100
AcDbArc
 50
329.999999999998
 51
75.00000000000233
  0
LINE
  5
5E
100
AcDbEntity
  8
USP-GEO
100
AcDbLine
 10
0.0399999999998732
 20
3.941546329918613
 30
0.0
 11
0.0399999999998781
 21
3.800124973681301
 31
0.0
  0
LINE
  5
5F
100
AcDbEntity
  8
USP-GEO
100
AcDbLine
 10
-0.0000000000001228
 20
3.800124973681302
 30
0.0
 11
-0.0000000000001278
 21
3.941546329918613
 31
0.0
  0
LINE
  5
60
100
AcDbEntity
  8
USP-GEO
100
AcDbLine
 10
0.0455795137452908
 20
3.972991819385392
 30
0.0
 11
0.2001525024866886
 21
3.931574111880463
 31
0.0
  0
LINE
  5
61
100
AcDbEntity
  8
USP-GEO
100
AcDbLine
 10
0.0559322755493911
 20
4.011628852436956
 30
0.0
 11
0.2105052642907894
 21
3.970211144932028
 31
0.0
  0
LINE
  5
62
100
AcDbEntity
  8
USP-HID
100
AcDbLine
 10
0.0564413994406292
 20
3.970081385885036
 30
0.0
 11
0.0667941612447313
 21
4.0087184189366
 31
0.0
  0
LINE
  5
63
100
AcDbEntity
  8
USP-HID
100
AcDbLine
 10
-0.0000000000001297
 20
4.008475823477245
 30
0.0
 11
0.0399999999998711
 21
4.008475823477247
 31
0.0
  0
LINE
  5
64
100
AcDbEntity
  8
USP-GEO
100
AcDbLine
 10
0.0559322755493916
 20
4.011628852436953
 30
0.0
 11
0.0455795137452906
 21
3.972991819385393
 31
0.0
  0
LINE
  5
65
100
AcDbEntity
  8
USP-GEO
100
AcDbLine
 10
0.2001525024866895
 20
3.931574111880461
 30
0.0
 11
0.210505264290791
 21
3.970211144932026
 31
0.0
  0
LINE
  5
66
100
AcDbEntity
  8
USP-GEO
100
AcDbLine
 10
0.0399999999998572
 20
4.412218363194649
 30
0.0
 11
0.0399999999998642
 21
4.217282261206681
 31
0.0
  0
LINE
  5
67
100
AcDbEntity
  8
USP-GEO
100
AcDbLine
 10
-0.0000000000001368
 20
4.217282261206681
 30
0.0
 11
-0.0000000000001438
 21
4.412218363194649
 31
0.0
  0
LINE
  5
68
100
AcDbEntity
  8
USP-HID
100
AcDbLine
 10
0.0399999999998653
 20
4.209999999999993
 30
0.0
 11
-0.000000000000135
 21
4.209999999999991
 31
0.0
  0
LINE
  5
69
100
AcDbEntity
  8
USP-HID
100
AcDbLine
 10
0.0399999999998635
 20
4.241999999999992
 30
0.0
 11
-0.0000000000001357
 21
4.241999999999991
 31
0.0
  0
LINE
  5
6A
100
AcDbEntity
  8
USP-GEO
100
AcDbLine
 10
0.0399999999998646
 20
4.217282261206681
 30
0.0
 11
0.0399999999998696
 21
4.075860904969364
 31
0.0
  0
LINE
  5
6B
100
AcDbEntity
  8
USP-GEO
100
AcDbLine
 10
-0.0000000000001313
 20
4.075860904969364
 30
0.0
 11
-0.0000000000001363
 21
4.217282261206681
 31
0.0
  0
LINE
  5
6C
100
AcDbEntity
  8
USP-HID
100
AcDbLine
 10
0.0399999999998606
 20
4.373999999999993
 30
0.0
 11
-0.0000000000001397
 21
4.373999999999991
 31
0.0
  0
LINE
  5
6D
100
AcDbEntity
  8
USP-HID
100
AcDbLine
 10
0.0399999999998624
 20
4.276999999999986
 30
0.0
 11
-0.0000000000001374
 21
4.276999999999985
 31
0.0
  0
CIRCLE
  5
6E
100
AcDbEntity
  8
USP-HID
100
AcDbCircle
 10
0.6386999521435986
 20
3.734000000000013
 30
0.0
 40
0.082
  0
LINE
  5
6F
100
AcDbEntity
  8
USP-GEO
100
AcDbLine
 10
0.6755786437625746
 20
3.605188871693361
 30
0.0
 11
0.8705147457505383
 21
3.800124973681339
 31
0.0
  0
ARC
  5
70
100
AcDbEntity
  8
USP-GEO
100
AcDbCircle
 10
0.7290933895132419
 20
3.667139095030639
 30
0.0
 40
0.2
100
AcDbArc
 50
315.0000000000021
 51
0.0000000000020356
  0
ARC
  5
71
100
AcDbEntity
  8
USP-GEO
100
AcDbCircle
 10
0.8169999999999006
 20
3.18936028056805
 30
0.0
 40
0.2
100
AcDbArc
 50
135.0000000000018
 51
180.000000000002
  0
LINE
  5
72
100
AcDbEntity
  8
USP-GEO
100
AcDbLine
 10
0.8705147457505564
 20
3.525717738793336
 30
0.0
 11
0.6755786437625862
 21
3.330781636805352
 31
0.0
  0
ARC
  5
73
100
AcDbEntity
  8
USP-GEO
100
AcDbCircle
 10
0.8169999999998882
 20
3.463767515456059
 30
0.0
 40
0.2
100
AcDbArc
 50
135.0000000000018
 51
180.000000000002
  0
ARC
  5
74
100
AcDbEntity
  8
USP-GEO
100
AcDbCircle
 10
0.7290933895132313
 20
3.941546329918634
 30
0.0
 40
0.2
100
AcDbArc
 50
315.0000000000019
 51
0.0000000000020356
  0
ARC
  5
75
100
AcDbEntity
  8
USP-GEO
100
AcDbCircle
 10
0.7290933895132259
 20
4.075860904969386
 30
0.0
 40
0.2
100
AcDbArc
 50
0.0000000000020356
 51
45.00000000000197
  0
LINE
  5
76
100
AcDbEntity
  8
USP-HID
100
AcDbLine
 10
0.8705147457505347
 20
3.9428750263187
 30
0.0
 11
0.6755786437625582
 21
4.137811128306663
 31
0.0
  0
CIRCLE
  5
77
100
AcDbEntity
  8
USP-GEO
100
AcDbCircle
 10
0.6386999521435879
 20
4.009000000000011
 30
0.0
 40
0.082
  0
LINE
  5
78
100
AcDbEntity
  8
USP-GEO
100
AcDbLine
 10
0.9290933895132198
 20
3.94154632991862
 30
0.0
 11
0.9290933895132285
 21
4.075860904969371
 31
0.0
  0
ARC
  5
79
100
AcDbEntity
  8
USP-GEO
100
AcDbCircle
 10
0.7290933895132384
 20
3.80145367008139
 30
0.0
 40
0.2
100
AcDbArc
 50
0.0000000000020356
 51
20.5014844892882
  0
LINE
  5
7A
100
AcDbEntity
  8
USP-GEO
100
AcDbLine
 10
0.9290933895132269
 20
3.801453670081419
 30
0.0
 11
0.9290933895132457
 21
3.667139095030667
 31
0.0
  0
ARC
  5
7B
100
AcDbEntity
  8
USP-HID
100
AcDbCircle
 10
0.7290933895132384
 20
3.80145367008139
 30
0.0
 40
0.2
100
AcDbArc
 50
20.5014844892882
 51
45.00000000000275
  0
LINE
  5
7C
100
AcDbEntity
  8
USP-GEO
100
AcDbLine
 10
0.8705147457505315
 20
4.217282261206702
 30
0.0
 11
0.6755786437625464
 21
4.412218363194672
 31
0.0
  0
ARC
  5
7D
100
AcDbEntity
  8
USP-HID
100
AcDbCircle
 10
0.8169999999998616
 20
4.279232484543979
 30
0.0
 40
0.2
100
AcDbArc
 50
180.000000000002
 51
225.000000000002
  0
LINE
  5
7E
100
AcDbEntity
  8
USP-GEO
100
AcDbLine
 10
1.767000000000013
 20
0.0000000000000497
 30
0.0
 11
1.767000000000011
 21
0.0400000000000496
 31
0.0
  0
ARC
  5
7F
100
AcDbEntity
  8
USP-GEO
100
AcDbCircle
 10
1.867000000000013
 20
0.0400000000000531
 30
0.0
 40
0.1
100
AcDbArc
 50
135.0000000000009
 51
180.000000000002
  0
LINE
  5
80
100
AcDbEntity
  8
USP-GEO
100
AcDbLine
 10
1.767000000000013
 20
0.0400000000000496
 30
0.0
 11
1.867000000000013
 21
0.0400000000000531
 31
0.0
  0
LINE
  5
81
100
AcDbEntity
  8
USP-GEO
100
AcDbLine
 10
1.867000000000013
 20
0.0400000000000531
 30
0.0
 11
1.867000000000014
 21
0.0000000000000523
 31
0.0
  0
LINE
  5
82
100
AcDbEntity
  8
USP-GEO
100
AcDbLine
 10
1.867000000000014
 20
0.000000000000054
 30
0.0
 11
1.767000000000014
 21
0.0000000000000504
 31
0.0
  0
LINE
  5
83
100
AcDbEntity
  8
USP-GEO
100
AcDbLine
 10
0.0399999999998433
 20
4.76299999999999
 30
0.0
 11
0.6169999999998421
 21
4.76300000000001
 31
0.0
  0
LINE
  5
84
100
AcDbEntity
  8
USP-GEO
100
AcDbLine
 10
0.0399999999998443
 20
4.76299999999999
 30
0.0
 11
0.0399999999998517
 21
4.55363971943196
 31
0.0
  0
LINE
  5
85
100
AcDbEntity
  8
USP-GEO
100
AcDbLine
 10
-0.0000000000001492
 20
4.55363971943196
 30
0.0
 11
-0.0000000000001567
 21
4.762999999999991
 31
0.0
  0
LINE
  5
86
100
AcDbEntity
  8
USP-HID
100
AcDbLine
 10
0.0399999999998559
 20
4.440999999999986
 30
0.0
 11
-0.0000000000001457
 21
4.440999999999984
 31
0.0
  0
LINE
  5
87
100
AcDbEntity
  8
USP-GEO
100
AcDbLine
 10
-0.0000000000001563
 20
4.762999999999988
 30
0.0
 11
0.0399999999998438
 21
4.76299999999999
 31
0.0
  0
LINE
  5
88
100
AcDbEntity
  8
USP-GEO
100
AcDbLine
 10
0.6169999999998499
 20
4.553639719431981
 30
0.0
 11
0.6169999999998426
 21
4.763000000000011
 31
0.0
  0
ENDBLK
  5
8B
100
AcDbEntity
  8
0
100
AcDbBlockEnd
  0
BLOCK
  5
15A
100
AcDbEntity
  8
0
100
AcDbBlockBegin
  2
JL26_F
 70
     0
 10
0.0
 20
0.0
 30
0.0
  3
JL26_F
  1

  0
TEXT
  5
8E
100
AcDbEntity
  8
USP-TXT
100
AcDbText
 10
0.0174374999999969
 20
-0.5594645935986158
 30
0.0
 40
0.203125
  1
JL26 - FRONT VIEW
 72
     1
 11
1.743999999999997
 21
-0.5594645935986158
 31
0.0
100
AcDbText
  0
LINE
  5
8F
100
AcDbEntity
  8
USP-GEO
100
AcDbLine
 10
1.062999999999989
 20
0.0400000000000027
 30
0.0
 11
2.425000000000001
 21
0.0400000000000026
 31
0.0
  0
LINE
  5
90
100
AcDbEntity
  8
USP-GEO
100
AcDbLine
 10
1.06299999999999
 20
0.0000000000000036
 30
0.0
 11
2.425000000000002
 21
0.0000000000000034
 31
0.0
  0
LINE
  5
91
100
AcDbEntity
  8
USP-GEO
100
AcDbLine
 10
-0.0000000000000018
 20
4.279232484543899
 30
0.0
 11
0.0
 21
4.762999999999939
 31
0.0
  0
LINE
  5
92
100
AcDbEntity
  8
USP-GEO
100
AcDbLine
 10
0.9630000000000018
 20
4.762999999999959
 30
0.0
 11
0.9630000000000018
 21
4.27923248454392
 31
0.0
  0
LINE
  5
93
100
AcDbEntity
  8
USP-GEO
100
AcDbLine
 10
0.9230000000000027
 20
4.762999999999959
 30
0.0
 11
0.9230000000000027
 21
4.279232484543918
 31
0.0
  0
ARC
  5
94
100
AcDbEntity
  8
USP-GEO
100
AcDbCircle
 10
0.2000000000000019
 20
1.372842712474561
 30
0.0
 40
0.2
100
AcDbArc
 50
180.0
 51
225.0000000000001
  0
LINE
  5
95
100
AcDbEntity
  8
USP-GEO
100
AcDbLine
 10
0.9630000000000009
 20
1.231421356237275
 30
0.0
 11
0.9630000000000009
 21
1.372842712474582
 31
0.0
  0
LINE
  5
96
100
AcDbEntity
  8
USP-GEO
100
AcDbLine
 10
0.9230000000000018
 20
1.372842712474575
 30
0.0
 11
0.9230000000000018
 21
1.231421356237268
 31
0.0
  0
LINE
  5
97
100
AcDbEntity
  8
USP-GEO
100
AcDbLine
 10
0.9230000000000009
 20
0.3669999999999369
 30
0.0
 11
0.0585786437626927
 21
1.231421356237246
 31
0.0
  0
LINE
  5
98
100
AcDbEntity
  8
USP-GEO
100
AcDbLine
 10
0.9630000000000018
 20
0.1107106781186536
 30
0.0
 11
0.9630000000000018
 21
1.231421356237271
 31
0.0
  0
LINE
  5
99
100
AcDbEntity
  8
USP-GEO
100
AcDbLine
 10
0.9230000000000027
 20
1.231421356237271
 30
0.0
 11
0.9230000000000027
 21
0.1107106781186531
 31
0.0
  0
LINE
  5
9A
100
AcDbEntity
  8
USP-GEO
100
AcDbLine
 10
1.063000000000001
 20
0.0400000000000027
 30
0.0
 11
0.9630000000000018
 21
0.0399999999999992
 31
0.0
  0
LINE
  5
9B
100
AcDbEntity
  8
USP-GEO
100
AcDbLine
 10
0.9630000000000018
 20
0.0
 30
0.0
 11
1.063000000000001
 21
0.0000000000000036
 31
0.0
  0
LINE
  5
9C
100
AcDbEntity
  8
USP-HID
100
AcDbLine
 10
0.9630000000000009
 20
0.1399999999999707
 30
0.0
 11
0.9230000000000018
 21
0.1399999999999707
 31
0.0
  0
LINE
  5
9D
100
AcDbEntity
  8
USP-GEO
100
AcDbLine
 10
0.9630000000000018
 20
0.0399999999999992
 30
0.0
 11
0.9630000000000018
 21
0.110710678118654
 31
0.0
  0
LINE
  5
9E
100
AcDbEntity
  8
USP-GEO
100
AcDbLine
 10
0.9230000000000027
 20
0.039999999999999
 30
0.0
 11
0.9230000000000027
 21
0.0
 31
0.0
  0
LINE
  5
9F
100
AcDbEntity
  8
USP-GEO
100
AcDbLine
 10
0.9230000000000027
 20
0.1107106781186539
 30
0.0
 11
0.9230000000000027
 21
0.0399999999999992
 31
0.0
  0
LINE
  5
A0
100
AcDbEntity
  8
USP-GEO
100
AcDbLine
 10
0.9630000000000027
 20
0.1107106781186538
 30
0.0
 11
0.9230000000000035
 21
0.1107106781186538
 31
0.0
  0
LINE
  5
A1
100
AcDbEntity
  8
USP-GEO
100
AcDbLine
 10
0.9630000000000018
 20
0.0
 30
0.0
 11
0.9230000000000027
 21
0.0
 31
0.0
  0
LINE
  5
A2
100
AcDbEntity
  8
USP-HID
100
AcDbLine
 10
0.963
 20
0.3669999999999405
 30
0.0
 11
0.9230000000000009
 21
0.3669999999999405
 31
0.0
  0
LINE
  5
A3
100
AcDbEntity
  8
USP-GEO
100
AcDbLine
 10
1.062999999999989
 20
0.0400000000000027
 30
0.0
 11
1.062999999999989
 21
0.0000000000000027
 31
0.0
  0
LINE
  5
A4
100
AcDbEntity
  8
USP-GEO
100
AcDbLine
 10
-0.0000000000000009
 20
2.641232484543901
 30
0.0
 11
0.0
 21
3.189360280567972
 31
0.0
  0
LINE
  5
A5
100
AcDbEntity
  8
USP-GEO
100
AcDbLine
 10
0.9630000000000018
 20
3.189360280567992
 30
0.0
 11
0.9630000000000018
 21
2.641232484543922
 31
0.0
  0
LINE
  5
A6
100
AcDbEntity
  8
USP-GEO
100
AcDbLine
 10
0.9230000000000027
 20
3.189360280567985
 30
0.0
 11
0.9230000000000027
 21
2.641232484543917
 31
0.0
  0
LINE
  5
A7
100
AcDbEntity
  8
USP-GEO
100
AcDbLine
 10
0.3120933895133637
 20
2.029139095030584
 30
0.0
 11
0.3120933895133504
 21
2.163453670081335
 31
0.0
  0
LINE
  5
A8
100
AcDbEntity
  8
USP-GEO
100
AcDbLine
 10
0.0585786437626927
 20
1.692781636805275
 30
0.0
 11
0.253514745750671
 21
1.887717738793252
 31
0.0
  0
LINE
  5
A9
100
AcDbEntity
  8
USP-GEO
100
AcDbLine
 10
0.0
 20
1.372842712474554
 30
0.0
 11
-0.0000000000000009
 21
1.551360280567965
 31
0.0
  0
ARC
  5
AA
100
AcDbEntity
  8
USP-GEO
100
AcDbCircle
 10
0.2000000000000028
 20
1.551360280567966
 30
0.0
 40
0.2
100
AcDbArc
 50
135.0000000000002
 51
180.0
  0
CIRCLE
  5
AB
100
AcDbEntity
  8
USP-GEO
100
AcDbCircle
 10
0.2999999999999998
 20
1.458999999999942
 30
0.0
 40
0.082
  0
ARC
  5
AC
100
AcDbEntity
  8
USP-GEO
100
AcDbCircle
 10
0.1120933895133609
 20
2.029139095030568
 30
0.0
 40
0.2
100
AcDbArc
 50
314.9999999999998
 51
0.0
  0
LINE
  5
AD
100
AcDbEntity
  8
USP-GEO
100
AcDbLine
 10
0.2535147457506639
 20
2.304875026318622
 30
0.0
 11
0.0585786437626936
 21
2.499811128306592
 31
0.0
  0
ARC
  5
AE
100
AcDbEntity
  8
USP-GEO
100
AcDbCircle
 10
0.2000000000000028
 20
2.641232484543895
 30
0.0
 40
0.2
100
AcDbArc
 50
180.0
 51
225.0
  0
ARC
  5
AF
100
AcDbEntity
  8
USP-GEO
100
AcDbCircle
 10
0.1120933895133609
 20
2.16345367008132
 30
0.0
 40
0.2
100
AcDbArc
 50
0.0
 51
44.99999999999998
  0
CIRCLE
  5
B0
100
AcDbEntity
  8
USP-GEO
100
AcDbCircle
 10
0.3000000000000007
 20
2.677999999999936
 30
0.0
 40
0.082
  0
LINE
  5
B1
100
AcDbEntity
  8
USP-GEO
100
AcDbLine
 10
0.9630000000000009
 20
2.16345367008137
 30
0.0
 11
0.9630000000000009
 21
2.029139095030619
 31
0.0
  0
LINE
  5
B2
100
AcDbEntity
  8
USP-GEO
100
AcDbLine
 10
0.9230000000000027
 20
2.16345367008137
 30
0.0
 11
0.9230000000000027
 21
2.029139095030618
 31
0.0
  0
LINE
  5
B3
100
AcDbEntity
  8
USP-GEO
100
AcDbLine
 10
0.9630000000000018
 20
1.887717738793281
 30
0.0
 11
0.9630000000000018
 21
1.692781636805297
 31
0.0
  0
LINE
  5
B4
100
AcDbEntity
  8
USP-GEO
100
AcDbLine
 10
0.9230000000000027
 20
1.887717738793281
 30
0.0
 11
0.9230000000000027
 21
1.692781636805297
 31
0.0
  0
LINE
  5
B5
100
AcDbEntity
  8
USP-GEO
100
AcDbLine
 10
0.9630000000000018
 20
1.551360280567987
 30
0.0
 11
0.9630000000000018
 21
1.372842712474577
 31
0.0
  0
LINE
  5
B6
100
AcDbEntity
  8
USP-GEO
100
AcDbLine
 10
0.9230000000000018
 20
1.551360280567987
 30
0.0
 11
0.9230000000000018
 21
1.372842712474577
 31
0.0
  0
LINE
  5
B7
100
AcDbEntity
  8
USP-GEO
100
AcDbLine
 10
0.9630000000000018
 20
1.551360280567987
 30
0.0
 11
0.9630000000000018
 21
1.6927816368053
 31
0.0
  0
LINE
  5
B8
100
AcDbEntity
  8
USP-GEO
100
AcDbLine
 10
0.9230000000000027
 20
1.6927816368053
 30
0.0
 11
0.9230000000000027
 21
1.551360280567987
 31
0.0
  0
LINE
  5
B9
100
AcDbEntity
  8
USP-GEO
100
AcDbLine
 10
0.9630000000000018
 20
2.029139095030597
 30
0.0
 11
0.9630000000000018
 21
1.887717738793286
 31
0.0
  0
LINE
  5
BA
100
AcDbEntity
  8
USP-GEO
100
AcDbLine
 10
0.9230000000000027
 20
2.029139095030597
 30
0.0
 11
0.9230000000000027
 21
1.887717738793285
 31
0.0
  0
LINE
  5
BB
100
AcDbEntity
  8
USP-HID
100
AcDbLine
 10
0.9630000000000009
 20
2.013999999999957
 30
0.0
 11
0.9229999999999991
 21
2.013999999999957
 31
0.0
  0
LINE
  5
BC
100
AcDbEntity
  8
USP-GEO
100
AcDbLine
 10
0.9630000000000009
 20
2.304875026318651
 30
0.0
 11
0.9630000000000009
 21
2.499811128306614
 31
0.0
  0
LINE
  5
BD
100
AcDbEntity
  8
USP-GEO
100
AcDbLine
 10
0.9230000000000027
 20
2.499811128306614
 30
0.0
 11
0.9230000000000027
 21
2.304875026318651
 31
0.0
  0
LINE
  5
BE
100
AcDbEntity
  8
USP-GEO
100
AcDbLine
 10
0.9630000000000009
 20
2.304875026318656
 30
0.0
 11
0.9630000000000009
 21
2.163453670081349
 31
0.0
  0
LINE
  5
BF
100
AcDbEntity
  8
USP-GEO
100
AcDbLine
 10
0.9230000000000027
 20
2.304875026318656
 30
0.0
 11
0.9230000000000027
 21
2.163453670081349
 31
0.0
  0
LINE
  5
C0
100
AcDbEntity
  8
USP-HID
100
AcDbLine
 10
0.9630000000000018
 20
2.177999999999957
 30
0.0
 11
0.923
 21
2.177999999999957
 31
0.0
  0
LINE
  5
C1
100
AcDbEntity
  8
USP-GEO
100
AcDbLine
 10
0.9630000000000018
 20
2.499811128306608
 30
0.0
 11
0.9630000000000018
 21
2.641232484543916
 31
0.0
  0
LINE
  5
C2
100
AcDbEntity
  8
USP-GEO
100
AcDbLine
 10
0.9230000000000027
 20
2.641232484543916
 30
0.0
 11
0.9230000000000027
 21
2.499811128306608
 31
0.0
  0
LINE
  5
C3
100
AcDbEntity
  8
USP-HID
100
AcDbLine
 10
0.4910000000000219
 20
3.931574111880411
 30
0.0
 11
0.5835000000000204
 21
3.972991819385335
 31
0.0
  0
LINE
  5
C4
100
AcDbEntity
  8
USP-HID
100
AcDbLine
 10
0.6890000000000019
 20
3.43071796769718
 30
0.0
 11
0.4910000000000015
 21
3.430717967697187
 31
0.0
  0
LINE
  5
C5
100
AcDbEntity
  8
USP-GEO
100
AcDbLine
 10
0.4910000000000228
 20
3.970211144931969
 30
0.0
 11
0.5835000000000213
 21
4.011628852436892
 31
0.0
  0
LINE
  5
C6
100
AcDbEntity
  8
USP-GEO
100
AcDbLine
 10
0.689000000000001
 20
3.419999999999941
 30
0.0
 11
0.4909999999999997
 21
3.419999999999948
 31
0.0
  0
LINE
  5
C7
100
AcDbEntity
  8
USP-GEO
100
AcDbLine
 10
0.4910000000000006
 20
4.008475823477194
 30
0.0
 11
0.5712061477896633
 21
4.228840402866453
 31
0.0
  0
LINE
  5
C8
100
AcDbEntity
  8
USP-GEO
100
AcDbLine
 10
0.4910000000000006
 20
3.419999999999942
 30
0.0
 11
0.4910000000000175
 21
3.801629674908726
 31
0.0
  0
ARC
  5
C9
100
AcDbEntity
  8
USP-GEO
100
AcDbCircle
 10
0.1120933895133618
 20
3.667139095030567
 30
0.0
 40
0.2
100
AcDbArc
 50
314.9999999999996
 51
0.0
  0
LINE
  5
CA
100
AcDbEntity
  8
USP-GEO
100
AcDbLine
 10
0.0585786437626927
 20
3.330781636805279
 30
0.0
 11
0.2535147457506701
 21
3.525717738793257
 31
0.0
  0
ARC
  5
CB
100
AcDbEntity
  8
USP-GEO
100
AcDbCircle
 10
0.2000000000000028
 20
3.189360280567971
 30
0.0
 40
0.2
100
AcDbArc
 50
135.0000000000001
 51
180.0
  0
LINE
  5
CC
100
AcDbEntity
  8
USP-GEO
100
AcDbLine
 10
0.2535147457506639
 20
3.94287502631862
 30
0.0
 11
0.0585786437626936
 21
4.137811128306591
 31
0.0
  0
ARC
  5
CD
100
AcDbEntity
  8
USP-GEO
100
AcDbCircle
 10
0.2000000000000028
 20
4.2792324845439
 30
0.0
 40
0.2
100
AcDbArc
 50
180.0
 51
225.0000000000001
  0
ARC
  5
CE
100
AcDbEntity
  8
USP-GEO
100
AcDbCircle
 10
0.1120933895133609
 20
3.801453670081318
 30
0.0
 40
0.2
100
AcDbArc
 50
0.0
 51
44.99999999999998
  0
LINE
  5
CF
100
AcDbEntity
  8
USP-GEO
100
AcDbLine
 10
0.3120933895133637
 20
3.667139095030587
 30
0.0
 11
0.3120933895133504
 21
3.801453670081339
 31
0.0
  0
LINE
  5
D0
100
AcDbEntity
  8
USP-GEO
100
AcDbLine
 10
0.4910000000000139
 20
3.801629674908722
 30
0.0
 11
0.4910000000000183
 21
3.97021114493197
 31
0.0
  0
LINE
  5
D1
100
AcDbEntity
  8
USP-GEO
100
AcDbLine
 10
0.4909999999999988
 20
3.970211144931976
 30
0.0
 11
0.4909999999999988
 21
4.008475823477194
 31
0.0
  0
CIRCLE
  5
D2
100
AcDbEntity
  8
USP-GEO
100
AcDbCircle
 10
0.3000000000000007
 20
4.291999999999941
 30
0.0
 40
0.082
  0
LINE
  5
D3
100
AcDbEntity
  8
USP-GEO
100
AcDbLine
 10
0.6890000000000019
 20
3.419999999999942
 30
0.0
 11
0.6890000000000187
 21
3.801629674908724
 31
0.0
  0
LINE
  5
D4
100
AcDbEntity
  8
USP-GEO
100
AcDbLine
 10
0.9630000000000018
 20
3.667139095030595
 30
0.0
 11
0.9630000000000018
 21
3.525717738793284
 31
0.0
  0
LINE
  5
D5
100
AcDbEntity
  8
USP-GEO
100
AcDbLine
 10
0.9230000000000027
 20
3.667139095030595
 30
0.0
 11
0.9230000000000027
 21
3.525717738793283
 31
0.0
  0
LINE
  5
D6
100
AcDbEntity
  8
USP-GEO
100
AcDbLine
 10
0.9630000000000018
 20
3.189360280567992
 30
0.0
 11
0.9630000000000018
 21
3.330781636805304
 31
0.0
  0
LINE
  5
D7
100
AcDbEntity
  8
USP-GEO
100
AcDbLine
 10
0.9230000000000027
 20
3.330781636805297
 30
0.0
 11
0.9230000000000027
 21
3.189360280567985
 31
0.0
  0
LINE
  5
D8
100
AcDbEntity
  8
USP-GEO
100
AcDbLine
 10
0.9630000000000018
 20
3.525717738793286
 30
0.0
 11
0.9630000000000018
 21
3.330781636805302
 31
0.0
  0
LINE
  5
D9
100
AcDbEntity
  8
USP-GEO
100
AcDbLine
 10
0.9230000000000027
 20
3.525717738793286
 30
0.0
 11
0.9230000000000027
 21
3.330781636805302
 31
0.0
  0
LINE
  5
DA
100
AcDbEntity
  8
USP-HID
100
AcDbLine
 10
0.9630000000000009
 20
3.651999999999962
 30
0.0
 11
0.9230000000000027
 21
3.651999999999962
 31
0.0
  0
LINE
  5
DB
100
AcDbEntity
  8
USP-GEO
100
AcDbLine
 10
0.608793852621103
 20
4.228840402866456
 30
0.0
 11
0.6890000000000028
 21
4.008475823477193
 31
0.0
  0
LINE
  5
DC
100
AcDbEntity
  8
USP-GEO
100
AcDbLine
 10
0.9630000000000018
 20
3.94287502631865
 30
0.0
 11
0.9630000000000018
 21
4.137811128306612
 31
0.0
  0
LINE
  5
DD
100
AcDbEntity
  8
USP-GEO
100
AcDbLine
 10
0.9230000000000027
 20
4.137811128306613
 30
0.0
 11
0.9230000000000027
 21
3.942875026318651
 31
0.0
  0
LINE
  5
DE
100
AcDbEntity
  8
USP-GEO
100
AcDbLine
 10
0.689000000000017
 20
3.801629674908729
 30
0.0
 11
0.6890000000000214
 21
3.970211144931976
 31
0.0
  0
LINE
  5
DF
100
AcDbEntity
  8
USP-HID
100
AcDbLine
 10
0.5965000000000212
 20
3.972991819385341
 30
0.0
 11
0.6890000000000196
 21
3.931574111880411
 31
0.0
  0
LINE
  5
E0
100
AcDbEntity
  8
USP-GEO
100
AcDbLine
 10
0.5965000000000238
 20
4.011628852436905
 30
0.0
 11
0.6890000000000223
 21
3.970211144931977
 31
0.0
  0
LINE
  5
E1
100
AcDbEntity
  8
USP-HID
100
AcDbLine
 10
0.5900000000000203
 20
3.970081385884988
 30
0.0
 11
0.5900000000000221
 21
4.008718418936553
 31
0.0
  0
LINE
  5
E2
100
AcDbEntity
  8
USP-HID
100
AcDbLine
 10
0.5835000000000213
 20
3.972991819385334
 30
0.0
 11
0.5900000000000212
 21
3.970081385884987
 31
0.0
  0
LINE
  5
E3
100
AcDbEntity
  8
USP-HID
100
AcDbLine
 10
0.5835000000000213
 20
4.011628852436896
 30
0.0
 11
0.5835000000000195
 21
3.972991819385333
 31
0.0
  0
LINE
  5
E4
100
AcDbEntity
  8
USP-HID
100
AcDbLine
 10
0.5900000000000239
 20
3.970081385884996
 30
0.0
 11
0.5965000000000229
 21
3.972991819385342
 31
0.0
  0
LINE
  5
E5
100
AcDbEntity
  8
USP-HID
100
AcDbLine
 10
0.5965000000000238
 20
4.011628852436903
 30
0.0
 11
0.5965000000000221
 21
3.972991819385342
 31
0.0
  0
LINE
  5
E6
100
AcDbEntity
  8
USP-GEO
100
AcDbLine
 10
0.5835000000000222
 20
4.011628852436898
 30
0.0
 11
0.590000000000023
 21
4.008718418936552
 31
0.0
  0
LINE
  5
E7
100
AcDbEntity
  8
USP-GEO
100
AcDbLine
 10
0.5900000000000248
 20
4.008718418936554
 30
0.0
 11
0.5965000000000238
 21
4.0116288524369
 31
0.0
  0
LINE
  5
E8
100
AcDbEntity
  8
USP-GEO
100
AcDbLine
 10
0.6890000000000019
 20
4.008475823477187
 30
0.0
 11
0.6890000000000019
 21
3.970211144931976
 31
0.0
  0
LINE
  5
E9
100
AcDbEntity
  8
USP-GEO
100
AcDbLine
 10
0.9630000000000018
 20
3.942875026318655
 30
0.0
 11
0.9630000000000018
 21
3.801453670081347
 31
0.0
  0
LINE
  5
EA
100
AcDbEntity
  8
USP-GEO
100
AcDbLine
 10
0.9230000000000027
 20
3.942875026318655
 30
0.0
 11
0.9230000000000027
 21
3.801453670081347
 31
0.0
  0
LINE
  5
EB
100
AcDbEntity
  8
USP-HID
100
AcDbLine
 10
0.9630000000000018
 20
3.815999999999962
 30
0.0
 11
0.9230000000000027
 21
3.815999999999962
 31
0.0
  0
LINE
  5
EC
100
AcDbEntity
  8
USP-GEO
100
AcDbLine
 10
0.9630000000000018
 20
3.801453670081368
 30
0.0
 11
0.9630000000000018
 21
3.667139095030616
 31
0.0
  0
LINE
  5
ED
100
AcDbEntity
  8
USP-GEO
100
AcDbLine
 10
0.9230000000000027
 20
3.801453670081368
 30
0.0
 11
0.9230000000000027
 21
3.667139095030616
 31
0.0
  0
ARC
  5
EE
100
AcDbEntity
  8
USP-GEO
100
AcDbCircle
 10
0.5900000002053832
 20
4.22199999999994
 30
0.0
 40
0.02
100
AcDbArc
 50
20.00000000000146
 51
159.9999999999985
  0
LINE
  5
EF
100
AcDbEntity
  8
USP-GEO
100
AcDbLine
 10
0.9630000000000018
 20
4.137811128306607
 30
0.0
 11
0.9630000000000018
 21
4.279232484543914
 31
0.0
  0
LINE
  5
F0
100
AcDbEntity
  8
USP-GEO
100
AcDbLine
 10
0.9230000000000027
 20
4.279232484543921
 30
0.0
 11
0.9230000000000027
 21
4.137811128306614
 31
0.0
  0
LINE
  5
F1
100
AcDbEntity
  8
USP-HID
100
AcDbLine
 10
0.9630000000000009
 20
4.231749999999944
 30
0.0
 11
0.9230000000000018
 21
4.231749999999944
 31
0.0
  0
LINE
  5
F2
100
AcDbEntity
  8
USP-GEO
100
AcDbLine
 10
0.9230000000000027
 20
4.762999999999938
 30
0.0
 11
0.0000000000000009
 21
4.762999999999938
 31
0.0
  0
LINE
  5
F3
100
AcDbEntity
  8
USP-HID
100
AcDbLine
 10
0.9630000000000009
 20
4.544249999999944
 30
0.0
 11
0.9230000000000018
 21
4.544249999999944
 31
0.0
  0
LINE
  5
F4
100
AcDbEntity
  8
USP-GEO
100
AcDbLine
 10
0.963
 20
4.762999999999959
 30
0.0
 11
0.9230000000000018
 21
4.762999999999959
 31
0.0
  0
CIRCLE
  5
F5
100
AcDbEntity
  8
USP-GEO
100
AcDbCircle
 10
2.988
 20
4.358999999999934
 30
0.0
 40
0.082
  0
ARC
  5
F6
100
AcDbEntity
  8
USP-GEO
100
AcDbCircle
 10
3.287999999999997
 20
4.55363971943191
 30
0.0
 40
0.2
100
AcDbArc
 50
314.9999999999995
 51
0.0
  0
LINE
  5
F7
100
AcDbEntity
  8
USP-GEO
100
AcDbLine
 10
2.564999999999998
 20
4.412218363194622
 30
0.0
 11
2.564999999999998
 21
4.553639719431931
 31
0.0
  0
LINE
  5
F8
100
AcDbEntity
  8
USP-GEO
100
AcDbLine
 10
2.524999999999997
 20
4.553639719431931
 30
0.0
 11
2.524999999999997
 21
4.412218363194623
 31
0.0
  0
ARC
  5
F9
100
AcDbEntity
  8
USP-GEO
100
AcDbCircle
 10
3.287999999999997
 20
1.372842712474561
 30
0.0
 40
0.2
100
AcDbArc
 50
314.9999999999999
 51
0.0
  0
LINE
  5
FA
100
AcDbEntity
  8
USP-GEO
100
AcDbLine
 10
2.564999999999997
 20
1.231421356237275
 30
0.0
 11
2.564999999999997
 21
1.372842712474582
 31
0.0
  0
LINE
  5
FB
100
AcDbEntity
  8
USP-GEO
100
AcDbLine
 10
2.524999999999995
 20
1.372842712474582
 30
0.0
 11
2.524999999999995
 21
1.231421356237275
 31
0.0
  0
LINE
  5
FC
100
AcDbEntity
  8
USP-GEO
100
AcDbLine
 10
3.429421356237307
 20
1.231421356237251
 30
0.0
 11
2.564999999999995
 21
0.3669999999999457
 31
0.0
  0
LINE
  5
FD
100
AcDbEntity
  8
USP-GEO
100
AcDbLine
 10
2.564999999999998
 20
0.1107106781186751
 30
0.0
 11
2.564999999999998
 21
1.231421356237273
 31
0.0
  0
LINE
  5
FE
100
AcDbEntity
  8
USP-GEO
100
AcDbLine
 10
2.524999999999997
 20
0.1107106781186751
 30
0.0
 11
2.524999999999997
 21
1.231421356237273
 31
0.0
  0
LINE
  5
FF
100
AcDbEntity
  8
USP-HID
100
AcDbLine
 10
2.524999999999996
 20
0.1399999999999529
 30
0.0
 11
2.564999999999998
 21
0.1399999999999529
 31
0.0
  0
LINE
  5
100
100
AcDbEntity
  8
USP-GEO
100
AcDbLine
 10
2.524999999999996
 20
0.0
 30
0.0
 11
2.564999999999997
 21
0.0
 31
0.0
  0
LINE
  5
101
100
AcDbEntity
  8
USP-GEO
100
AcDbLine
 10
2.524999999999997
 20
0.1107106781186751
 30
0.0
 11
2.564999999999998
 21
0.1107106781186751
 31
0.0
  0
LINE
  5
102
100
AcDbEntity
  8
USP-GEO
100
AcDbLine
 10
2.524999999999996
 20
0.1107106781186565
 30
0.0
 11
2.524999999999996
 21
0.0399999999999992
 31
0.0
  0
LINE
  5
103
100
AcDbEntity
  8
USP-GEO
100
AcDbLine
 10
2.525000000000002
 20
0.0399999999999992
 30
0.0
 11
2.425000000000002
 21
0.0400000000000027
 31
0.0
  0
LINE
  5
104
100
AcDbEntity
  8
USP-GEO
100
AcDbLine
 10
2.425000000000002
 20
0.0400000000000027
 30
0.0
 11
2.425000000000002
 21
0.0000000000000019
 31
0.0
  0
LINE
  5
105
100
AcDbEntity
  8
USP-GEO
100
AcDbLine
 10
2.425000000000003
 20
0.0000000000000036
 30
0.0
 11
2.525000000000003
 21
0.0
 31
0.0
  0
LINE
  5
106
100
AcDbEntity
  8
USP-GEO
100
AcDbLine
 10
2.564999999999998
 20
0.0399999999999992
 30
0.0
 11
2.564999999999998
 21
0.1107106781186563
 31
0.0
  0
LINE
  5
107
100
AcDbEntity
  8
USP-GEO
100
AcDbLine
 10
2.564999999999998
 20
-0.0000000000000007
 30
0.0
 11
2.564999999999998
 21
0.0399999999999992
 31
0.0
  0
LINE
  5
108
100
AcDbEntity
  8
USP-HID
100
AcDbLine
 10
2.524999999999995
 20
0.366999999999944
 30
0.0
 11
2.564999999999996
 21
0.366999999999944
 31
0.0
  0
LINE
  5
109
100
AcDbEntity
  8
USP-GEO
100
AcDbLine
 10
3.234485254249339
 20
2.113124973681252
 30
0.0
 11
3.429421356237299
 21
1.918188871693292
 31
0.0
  0
LINE
  5
10A
100
AcDbEntity
  8
USP-GEO
100
AcDbLine
 10
3.429421356237305
 20
2.725218363194594
 30
0.0
 11
3.234485254249336
 21
2.530282261206625
 31
0.0
  0
LINE
  5
10B
100
AcDbEntity
  8
USP-GEO
100
AcDbLine
 10
3.234485254249339
 20
3.800124973681258
 30
0.0
 11
3.4294213562373
 21
3.605188871693297
 31
0.0
  0
LINE
  5
10C
100
AcDbEntity
  8
USP-GEO
100
AcDbLine
 10
3.429421356237305
 20
4.412218363194599
 30
0.0
 11
3.234485254249336
 21
4.21728226120663
 31
0.0
  0
LINE
  5
10D
100
AcDbEntity
  8
USP-GEO
100
AcDbLine
 10
2.524999999999995
 20
2.866639719431933
 30
0.0
 11
2.524999999999995
 21
3.463767515456002
 31
0.0
  0
CIRCLE
  5
10E
100
AcDbEntity
  8
USP-GEO
100
AcDbCircle
 10
3.187999999999999
 20
2.833999999999935
 30
0.0
 40
0.082
  0
LINE
  5
10F
100
AcDbEntity
  8
USP-GEO
100
AcDbLine
 10
2.564999999999996
 20
2.866639719431933
 30
0.0
 11
2.564999999999996
 21
3.463767515456001
 31
0.0
  0
LINE
  5
110
100
AcDbEntity
  8
USP-GEO
100
AcDbLine
 10
2.524999999999995
 20
2.866639719431933
 30
0.0
 11
2.524999999999995
 21
3.463767515456001
 31
0.0
  0
LINE
  5
111
100
AcDbEntity
  8
USP-GEO
100
AcDbLine
 10
2.564999999999998
 20
1.918188871693313
 30
0.0
 11
2.564999999999998
 21
2.113124973681289
 31
0.0
  0
LINE
  5
112
100
AcDbEntity
  8
USP-GEO
100
AcDbLine
 10
2.524999999999995
 20
2.113124973681289
 30
0.0
 11
2.524999999999995
 21
1.918188871693314
 31
0.0
  0
LINE
  5
113
100
AcDbEntity
  8
USP-GEO
100
AcDbLine
 10
2.564999999999998
 20
1.372842712474582
 30
0.0
 11
2.564999999999998
 21
1.776767515456004
 31
0.0
  0
LINE
  5
114
100
AcDbEntity
  8
USP-GEO
100
AcDbLine
 10
2.524999999999995
 20
1.372842712474582
 30
0.0
 11
2.524999999999995
 21
1.776767515456004
 31
0.0
  0
LINE
  5
115
100
AcDbEntity
  8
USP-GEO
100
AcDbLine
 10
2.564999999999998
 20
1.776767515456004
 30
0.0
 11
2.564999999999998
 21
1.918188871693317
 31
0.0
  0
LINE
  5
116
100
AcDbEntity
  8
USP-GEO
100
AcDbLine
 10
2.524999999999997
 20
1.918188871693317
 30
0.0
 11
2.524999999999997
 21
1.776767515456004
 31
0.0
  0
CIRCLE
  5
117
100
AcDbEntity
  8
USP-GEO
100
AcDbCircle
 10
3.187999999999999
 20
1.458999999999935
 30
0.0
 40
0.082
  0
LINE
  5
118
100
AcDbEntity
  8
USP-GEO
100
AcDbLine
 10
2.564999999999996
 20
2.388860904969345
 30
0.0
 11
2.564999999999996
 21
2.530282261206652
 31
0.0
  0
LINE
  5
119
100
AcDbEntity
  8
USP-GEO
100
AcDbLine
 10
2.524999999999995
 20
2.388860904969345
 30
0.0
 11
2.524999999999995
 21
2.530282261206652
 31
0.0
  0
LINE
  5
11A
100
AcDbEntity
  8
USP-GEO
100
AcDbLine
 10
2.564999999999997
 20
2.254546329918571
 30
0.0
 11
2.564999999999997
 21
2.388860904969323
 31
0.0
  0
LINE
  5
11B
100
AcDbEntity
  8
USP-GEO
100
AcDbLine
 10
2.524999999999996
 20
2.254546329918571
 30
0.0
 11
2.524999999999996
 21
2.388860904969323
 31
0.0
  0
LINE
  5
11C
100
AcDbEntity
  8
USP-HID
100
AcDbLine
 10
2.524999999999997
 20
2.239999999999963
 30
0.0
 11
2.564999999999998
 21
2.239999999999963
 31
0.0
  0
LINE
  5
11D
100
AcDbEntity
  8
USP-GEO
100
AcDbLine
 10
2.524999999999996
 20
2.113124973681281
 30
0.0
 11
2.524999999999996
 21
2.254546329918593
 31
0.0
  0
LINE
  5
11E
100
AcDbEntity
  8
USP-GEO
100
AcDbLine
 10
2.564999999999997
 20
2.113124973681281
 30
0.0
 11
2.564999999999997
 21
2.254546329918593
 31
0.0
  0
LINE
  5
11F
100
AcDbEntity
  8
USP-HID
100
AcDbLine
 10
2.524999999999996
 20
2.403999999999963
 30
0.0
 11
2.564999999999998
 21
2.403999999999963
 31
0.0
  0
LINE
  5
120
100
AcDbEntity
  8
USP-GEO
100
AcDbLine
 10
2.564999999999998
 20
2.530282261206654
 30
0.0
 11
2.564999999999998
 21
2.725218363194623
 31
0.0
  0
LINE
  5
121
100
AcDbEntity
  8
USP-GEO
100
AcDbLine
 10
2.524999999999997
 20
2.530282261206654
 30
0.0
 11
2.524999999999997
 21
2.725218363194623
 31
0.0
  0
LINE
  5
122
100
AcDbEntity
  8
USP-GEO
100
AcDbLine
 10
2.524999999999996
 20
2.866639719431933
 30
0.0
 11
2.524999999999996
 21
2.725218363194625
 31
0.0
  0
LINE
  5
123
100
AcDbEntity
  8
USP-GEO
100
AcDbLine
 10
2.564999999999996
 20
2.725218363194624
 30
0.0
 11
2.564999999999996
 21
2.866639719431933
 31
0.0
  0
ARC
  5
124
100
AcDbEntity
  8
USP-GEO
100
AcDbCircle
 10
3.375906610486639
 20
2.388860904969309
 30
0.0
 40
0.2
100
AcDbArc
 50
134.999999999997
 51
180.0
  0
LINE
  5
125
100
AcDbEntity
  8
USP-GEO
100
AcDbLine
 10
3.175906610486636
 20
2.388860904969309
 30
0.0
 11
3.17590661048665
 21
2.254546329918557
 31
0.0
  0
ARC
  5
126
100
AcDbEntity
  8
USP-GEO
100
AcDbCircle
 10
3.375906610486639
 20
2.254546329918564
 30
0.0
 40
0.2
100
AcDbArc
 50
180.0
 51
225.0000000000012
  0
LINE
  5
127
100
AcDbEntity
  8
USP-GEO
100
AcDbLine
 10
2.798999999999996
 20
3.419999999999943
 30
0.0
 11
2.799000000000013
 21
3.801629674908726
 31
0.0
  0
LINE
  5
128
100
AcDbEntity
  8
USP-GEO
100
AcDbLine
 10
2.996999999999996
 20
3.41999999999994
 30
0.0
 11
2.997000000000013
 21
3.801629674908723
 31
0.0
  0
LINE
  5
129
100
AcDbEntity
  8
USP-GEO
100
AcDbLine
 10
2.564999999999998
 20
3.605188871693311
 30
0.0
 11
2.564999999999998
 21
3.800124973681288
 31
0.0
  0
LINE
  5
12A
100
AcDbEntity
  8
USP-GEO
100
AcDbLine
 10
2.524999999999995
 20
3.800124973681288
 30
0.0
 11
2.524999999999995
 21
3.605188871693312
 31
0.0
  0
LINE
  5
12B
100
AcDbEntity
  8
USP-HID
100
AcDbLine
 10
2.996999999999997
 20
3.43071796769718
 30
0.0
 11
2.798999999999997
 21
3.430717967697187
 31
0.0
  0
LINE
  5
12C
100
AcDbEntity
  8
USP-GEO
100
AcDbLine
 10
2.996999999999997
 20
3.419999999999941
 30
0.0
 11
2.798999999999997
 21
3.419999999999948
 31
0.0
  0
LINE
  5
12D
100
AcDbEntity
  8
USP-GEO
100
AcDbLine
 10
2.524999999999997
 20
3.605188871693314
 30
0.0
 11
2.524999999999997
 21
3.463767515456002
 31
0.0
  0
LINE
  5
12E
100
AcDbEntity
  8
USP-GEO
100
AcDbLine
 10
2.564999999999998
 20
3.463767515456002
 30
0.0
 11
2.564999999999998
 21
3.605188871693314
 31
0.0
  0
LINE
  5
12F
100
AcDbEntity
  8
USP-HID
100
AcDbLine
 10
2.799000000000019
 20
3.931574111880411
 30
0.0
 11
2.891500000000018
 21
3.972991819385335
 31
0.0
  0
LINE
  5
130
100
AcDbEntity
  8
USP-GEO
100
AcDbLine
 10
2.79900000000002
 20
3.970211144931969
 30
0.0
 11
2.891500000000018
 21
4.011628852436892
 31
0.0
  0
ARC
  5
131
100
AcDbEntity
  8
USP-GEO
100
AcDbCircle
 10
2.897999999794617
 20
4.22199999999994
 30
0.0
 40
0.02
100
AcDbArc
 50
19.99999999999907
 51
160.0000000000066
  0
LINE
  5
132
100
AcDbEntity
  8
USP-GEO
100
AcDbLine
 10
2.798999999999997
 20
4.008475823477192
 30
0.0
 11
2.879206147378897
 21
4.228840402866452
 31
0.0
  0
LINE
  5
133
100
AcDbEntity
  8
USP-GEO
100
AcDbLine
 10
2.564999999999998
 20
3.941546329918569
 30
0.0
 11
2.564999999999998
 21
4.075860904969321
 31
0.0
  0
LINE
  5
134
100
AcDbEntity
  8
USP-GEO
100
AcDbLine
 10
2.524999999999996
 20
3.941546329918569
 30
0.0
 11
2.524999999999996
 21
4.075860904969321
 31
0.0
  0
LINE
  5
135
100
AcDbEntity
  8
USP-GEO
100
AcDbLine
 10
2.564999999999998
 20
3.800124973681278
 30
0.0
 11
2.564999999999998
 21
3.94154632991859
 31
0.0
  0
LINE
  5
136
100
AcDbEntity
  8
USP-GEO
100
AcDbLine
 10
2.524999999999996
 20
3.800124973681278
 30
0.0
 11
2.524999999999996
 21
3.94154632991859
 31
0.0
  0
LINE
  5
137
100
AcDbEntity
  8
USP-HID
100
AcDbLine
 10
2.524999999999995
 20
3.926999999999961
 30
0.0
 11
2.564999999999998
 21
3.926999999999961
 31
0.0
  0
LINE
  5
138
100
AcDbEntity
  8
USP-GEO
100
AcDbLine
 10
2.79900000000001
 20
3.801629674908722
 30
0.0
 11
2.799000000000014
 21
3.97021114493197
 31
0.0
  0
LINE
  5
139
100
AcDbEntity
  8
USP-GEO
100
AcDbLine
 10
2.799000000000001
 20
3.970211144931976
 30
0.0
 11
2.799000000000001
 21
4.008475823477194
 31
0.0
  0
LINE
  5
13A
100
AcDbEntity
  8
USP-GEO
100
AcDbLine
 10
2.564999999999998
 20
4.217282261206651
 30
0.0
 11
2.564999999999998
 21
4.412218363194622
 31
0.0
  0
LINE
  5
13B
100
AcDbEntity
  8
USP-GEO
100
AcDbLine
 10
2.524999999999995
 20
4.217282261206651
 30
0.0
 11
2.524999999999995
 21
4.412218363194623
 31
0.0
  0
LINE
  5
13C
100
AcDbEntity
  8
USP-HID
100
AcDbLine
 10
2.524999999999996
 20
4.231749999999944
 30
0.0
 11
2.564999999999997
 21
4.231749999999944
 31
0.0
  0
LINE
  5
13D
100
AcDbEntity
  8
USP-HID
100
AcDbLine
 10
2.524999999999996
 20
4.090999999999961
 30
0.0
 11
2.564999999999998
 21
4.090999999999961
 31
0.0
  0
LINE
  5
13E
100
AcDbEntity
  8
USP-GEO
100
AcDbLine
 10
2.524999999999996
 20
4.075860904969342
 30
0.0
 11
2.524999999999996
 21
4.21728226120665
 31
0.0
  0
LINE
  5
13F
100
AcDbEntity
  8
USP-GEO
100
AcDbLine
 10
2.564999999999997
 20
4.075860904969342
 30
0.0
 11
2.564999999999997
 21
4.21728226120665
 31
0.0
  0
LINE
  5
140
100
AcDbEntity
  8
USP-GEO
100
AcDbLine
 10
2.916793852210334
 20
4.22884040286645
 30
0.0
 11
2.996999999999998
 21
4.008475823477189
 31
0.0
  0
LINE
  5
141
100
AcDbEntity
  8
USP-GEO
100
AcDbLine
 10
3.175906610486635
 20
4.075860904969314
 30
0.0
 11
3.17590661048665
 21
3.941546329918562
 31
0.0
  0
LINE
  5
142
100
AcDbEntity
  8
USP-GEO
100
AcDbLine
 10
2.997000000000014
 20
3.801629674908729
 30
0.0
 11
2.997000000000018
 21
3.970211144931976
 31
0.0
  0
LINE
  5
143
100
AcDbEntity
  8
USP-HID
100
AcDbLine
 10
2.898000000000016
 20
3.970081385884985
 30
0.0
 11
2.898000000000018
 21
4.00871841893655
 31
0.0
  0
LINE
  5
144
100
AcDbEntity
  8
USP-HID
100
AcDbLine
 10
2.891500000000015
 20
3.972991819385335
 30
0.0
 11
2.898000000000016
 21
3.970081385884987
 31
0.0
  0
LINE
  5
145
100
AcDbEntity
  8
USP-HID
100
AcDbLine
 10
2.891500000000018
 20
4.011628852436896
 30
0.0
 11
2.891500000000016
 21
3.972991819385334
 31
0.0
  0
LINE
  5
146
100
AcDbEntity
  8
USP-HID
100
AcDbLine
 10
2.898000000000018
 20
3.970081385884996
 30
0.0
 11
2.904500000000017
 21
3.972991819385342
 31
0.0
  0
LINE
  5
147
100
AcDbEntity
  8
USP-HID
100
AcDbLine
 10
2.904500000000017
 20
3.972991819385342
 30
0.0
 11
2.997000000000014
 21
3.931574111880412
 31
0.0
  0
LINE
  5
148
100
AcDbEntity
  8
USP-HID
100
AcDbLine
 10
2.90450000000002
 20
4.011628852436903
 30
0.0
 11
2.904500000000018
 21
3.972991819385343
 31
0.0
  0
LINE
  5
149
100
AcDbEntity
  8
USP-GEO
100
AcDbLine
 10
2.891500000000018
 20
4.011628852436898
 30
0.0
 11
2.898000000000019
 21
4.008718418936552
 31
0.0
  0
LINE
  5
14A
100
AcDbEntity
  8
USP-GEO
100
AcDbLine
 10
2.904500000000019
 20
4.011628852436905
 30
0.0
 11
2.997000000000017
 21
3.970211144931977
 31
0.0
  0
LINE
  5
14B
100
AcDbEntity
  8
USP-GEO
100
AcDbLine
 10
2.89800000000002
 20
4.008718418936561
 30
0.0
 11
2.90450000000002
 21
4.011628852436906
 31
0.0
  0
LINE
  5
14C
100
AcDbEntity
  8
USP-GEO
100
AcDbLine
 10
2.997
 20
4.008475823477194
 30
0.0
 11
2.997
 21
3.970211144931976
 31
0.0
  0
ARC
  5
14D
100
AcDbEntity
  8
USP-GEO
100
AcDbCircle
 10
3.375906610486639
 20
3.941546329918562
 30
0.0
 40
0.2
100
AcDbArc
 50
180.0
 51
225.0000000000008
  0
ARC
  5
14E
100
AcDbEntity
  8
USP-GEO
100
AcDbCircle
 10
3.375906610486638
 20
4.075860904969314
 30
0.0
 40
0.2
100
AcDbArc
 50
134.9999999999971
 51
180.0
  0
LINE
  5
14F
100
AcDbEntity
  8
USP-GEO
100
AcDbLine
 10
3.488
 20
3.463767515455973
 30
0.0
 11
3.488
 21
2.866639719431905
 31
0.0
  0
LINE
  5
150
100
AcDbEntity
  8
USP-GEO
100
AcDbLine
 10
3.488000000000002
 20
1.776767515455976
 30
0.0
 11
3.488000000000002
 21
1.372842712474561
 31
0.0
  0
ARC
  5
151
100
AcDbEntity
  8
USP-GEO
100
AcDbCircle
 10
3.287999999999998
 20
1.776767515455976
 30
0.0
 40
0.2
100
AcDbArc
 50
0.0
 51
45.0000000000027
  0
ARC
  5
152
100
AcDbEntity
  8
USP-GEO
100
AcDbCircle
 10
3.287999999999998
 20
2.866639719431905
 30
0.0
 40
0.2
100
AcDbArc
 50
314.9999999999995
 51
0.0
  0
ARC
  5
153
100
AcDbEntity
  8
USP-GEO
100
AcDbCircle
 10
3.287999999999998
 20
3.46376751545598
 30
0.0
 40
0.2
100
AcDbArc
 50
0.0
 51
45.00000000000287
  0
LINE
  5
154
100
AcDbEntity
  8
USP-GEO
100
AcDbLine
 10
3.487999999999998
 20
4.762999999999937
 30
0.0
 11
2.564999999999997
 21
4.762999999999937
 31
0.0
  0
LINE
  5
155
100
AcDbEntity
  8
USP-GEO
100
AcDbLine
 10
2.564999999999997
 20
4.553639719431931
 30
0.0
 11
2.564999999999997
 21
4.76299999999996
 31
0.0
  0
LINE
  5
156
100
AcDbEntity
  8
USP-GEO
100
AcDbLine
 10
2.524999999999997
 20
4.553639719431931
 30
0.0
 11
2.524999999999997
 21
4.76299999999996
 31
0.0
  0
LINE
  5
157
100
AcDbEntity
  8
USP-HID
100
AcDbLine
 10
2.524999999999995
 20
4.544249999999944
 30
0.0
 11
2.564999999999997
 21
4.544249999999944
 31
0.0
  0
LINE
  5
158
100
AcDbEntity
  8
USP-GEO
100
AcDbLine
 10
2.564999999999997
 20
4.762999999999959
 30
0.0
 11
2.524999999999996
 21
4.762999999999959
 31
0.0
  0
LINE
  5
159
100
AcDbEntity
  8
USP-GEO
100
AcDbLine
 10
3.487999999999998
 20
4.762999999999939
 30
0.0
 11
3.487999999999998
 21
4.55363971943191
 31
0.0
  0
ENDBLK
  5
15B
100
AcDbEntity
  8
0
100
AcDbBlockEnd
  0
BLOCK
  5
1CE
100
AcDbEntity
  8
0
100
AcDbBlockBegin
  2
JL26_T
 70
     0
 10
0.0
 20
0.0
 30
0.0
  3
JL26_T
  1

  0
TEXT
  5
15E
100
AcDbEntity
  8
USP-TXT
100
AcDbText
 10
0.2205624999999975
 20
-0.6426500562181019
 30
0.0
 40
0.203125
  1
JL26 - TOP VIEW
 72
     1
 11
1.743999999999997
 21
-0.6426500562181019
 31
0.0
100
AcDbText
  0
LINE
  5
15F
100
AcDbEntity
  8
USP-GEO
100
AcDbLine
 10
1.062999999999991
 20
0.0
 30
0.0
 11
2.425000000000004
 21
0.0000000000000018
 31
0.0
  0
LINE
  5
160
100
AcDbEntity
  8
USP-GEO
100
AcDbLine
 10
1.062999999999997
 20
1.5
 30
0.0
 11
2.425000000000004
 21
1.500000000000001
 31
0.0
  0
LINE
  5
161
100
AcDbEntity
  8
USP-GEO
100
AcDbLine
 10
0.9230000000000044
 20
1.25000000000017
 30
0.0
 11
0.9230000000000035
 21
1.827000000000168
 31
0.0
  0
LINE
  5
162
100
AcDbEntity
  8
USP-GEO
100
AcDbLine
 10
0.9630000000000027
 20
1.867000000000171
 30
0.0
 11
0.9630000000000027
 21
1.250000000000172
 31
0.0
  0
LINE
  5
163
100
AcDbEntity
  8
USP-GEO
100
AcDbLine
 10
0.9630000000000036
 20
0.0707106781186582
 30
0.0
 11
0.9630000000000027
 21
0.9379066104867508
 31
0.0
  0
LINE
  5
164
100
AcDbEntity
  8
USP-GEO
100
AcDbLine
 10
0.9230000000000044
 20
0.9379066104867419
 30
0.0
 11
0.9230000000000053
 21
0.0707106781186582
 31
0.0
  0
ARC
  5
165
100
AcDbEntity
  8
USP-GEO
100
AcDbCircle
 10
0.9630000000000045
 20
0.0
 30
0.0
 40
0.1
100
AcDbArc
 50
359.9999999999998
 51
89.99999999999994
  0
LINE
  5
166
100
AcDbEntity
  8
USP-HID
100
AcDbLine
 10
0.9630000000000045
 20
0.1000000000000014
 30
0.0
 11
0.9230000000000053
 21
0.1000000000000014
 31
0.0
  0
LINE
  5
167
100
AcDbEntity
  8
USP-GEO
100
AcDbLine
 10
0.9630000000000045
 20
0.0707106781186582
 30
0.0
 11
0.9230000000000053
 21
0.0707106781186582
 31
0.0
  0
ARC
  5
168
100
AcDbEntity
  8
USP-GEO
100
AcDbCircle
 10
0.9629999999999983
 20
1.5
 30
0.0
 40
0.1
100
AcDbArc
 50
269.9999999999999
 51
359.9999999999998
  0
LINE
  5
169
100
AcDbEntity
  8
USP-GEO
100
AcDbLine
 10
0.9630000000000027
 20
0.9964852542494782
 30
0.0
 11
0.9630000000000027
 21
1.191421356237455
 31
0.0
  0
LINE
  5
16A
100
AcDbEntity
  8
USP-GEO
100
AcDbLine
 10
0.9230000000000035
 20
1.191421356237455
 30
0.0
 11
0.9230000000000035
 21
0.9964852542494799
 31
0.0
  0
LINE
  5
16B
100
AcDbEntity
  8
USP-GEO
100
AcDbLine
 10
0.9630000000000027
 20
0.9964852542494764
 30
0.0
 11
0.9630000000000027
 21
0.937906610486781
 31
0.0
  0
LINE
  5
16C
100
AcDbEntity
  8
USP-GEO
100
AcDbLine
 10
0.9230000000000035
 20
0.9964852542494764
 30
0.0
 11
0.9230000000000035
 21
0.937906610486781
 31
0.0
  0
LINE
  5
16D
100
AcDbEntity
  8
USP-GEO
100
AcDbLine
 10
0.9630000000000027
 20
0.9379066104867916
 30
0.0
 11
0.9230000000000035
 21
0.9379066104867916
 31
0.0
  0
LINE
  5
16E
100
AcDbEntity
  8
USP-HID
100
AcDbLine
 10
0.9630000000000027
 20
1.146300047856414
 30
0.0
 11
0.9230000000000035
 21
1.146300047856414
 31
0.0
  0
LINE
  5
16F
100
AcDbEntity
  8
USP-HID
100
AcDbLine
 10
0.9630000000000027
 20
1.310300047856415
 30
0.0
 11
0.9230000000000035
 21
1.310300047856415
 31
0.0
  0
LINE
  5
170
100
AcDbEntity
  8
USP-GEO
100
AcDbLine
 10
0.9630000000000018
 20
1.250000000000168
 30
0.0
 11
0.9230000000000035
 21
1.250000000000168
 31
0.0
  0
LINE
  5
171
100
AcDbEntity
  8
USP-GEO
100
AcDbLine
 10
0.9630000000000027
 20
1.191421356237457
 30
0.0
 11
0.9630000000000027
 21
1.250000000000152
 31
0.0
  0
LINE
  5
172
100
AcDbEntity
  8
USP-GEO
100
AcDbLine
 10
0.9230000000000035
 20
1.250000000000152
 30
0.0
 11
0.9230000000000035
 21
1.191421356237457
 31
0.0
  0
LINE
  5
173
100
AcDbEntity
  8
USP-HID
100
AcDbLine
 10
0.9630000000000027
 20
1.400000000000019
 30
0.0
 11
0.9230000000000035
 21
1.400000000000019
 31
0.0
  0
LINE
  5
174
100
AcDbEntity
  8
USP-HID
100
AcDbLine
 10
0.9630000000000027
 20
1.381750000000153
 30
0.0
 11
0.9230000000000035
 21
1.381750000000153
 31
0.0
  0
LINE
  5
175
100
AcDbEntity
  8
USP-HID
100
AcDbLine
 10
0.6890000000000028
 20
1.847000000000122
 30
0.0
 11
0.4910000000000024
 21
1.847000000000118
 31
0.0
  0
LINE
  5
176
100
AcDbEntity
  8
USP-HID
100
AcDbLine
 10
0.6890000000000028
 20
1.807000000000122
 30
0.0
 11
0.4910000000000015
 21
1.807000000000119
 31
0.0
  0
LINE
  5
177
100
AcDbEntity
  8
USP-HID
100
AcDbLine
 10
0.4910000000000166
 20
1.611258925896009
 30
0.0
 11
0.6890000000000196
 21
1.611258925896013
 31
0.0
  0
LINE
  5
178
100
AcDbEntity
  8
USP-GEO
100
AcDbLine
 10
0.4910000000000228
 20
1.666847497513323
 30
0.0
 11
0.5835000000000213
 21
1.821420486254725
 31
0.0
  0
LINE
  5
179
100
AcDbEntity
  8
USP-GEO
100
AcDbLine
 10
0.4910000000000246
 20
1.656494735709225
 30
0.0
 11
0.583500000000023
 21
1.811067724450628
 31
0.0
  0
LINE
  5
17A
100
AcDbEntity
  8
USP-GEO
100
AcDbLine
 10
0.9230000000000035
 20
1.827000000000166
 30
0.0
 11
0.0000000000000009
 21
1.827000000000166
 31
0.0
  0
LINE
  5
17B
100
AcDbEntity
  8
USP-GEO
100
AcDbLine
 10
0.0
 20
1.867000000000173
 30
0.0
 11
0.9630000000000018
 21
1.867000000000173
 31
0.0
  0
LINE
  5
17C
100
AcDbEntity
  8
USP-GEO
100
AcDbLine
 10
0.4910000000000175
 20
1.571258925896009
 30
0.0
 11
0.6890000000000205
 21
1.571258925896012
 31
0.0
  0
LINE
  5
17D
100
AcDbEntity
  8
USP-GEO
100
AcDbLine
 10
0.0000000000000009
 20
1.827000000000168
 30
0.0
 11
0.0000000000000009
 21
1.867000000000167
 31
0.0
  0
LINE
  5
17E
100
AcDbEntity
  8
USP-HID
100
AcDbLine
 10
0.312093389513362
 20
1.867000000000132
 30
0.0
 11
0.312093389513362
 21
1.827000000000133
 31
0.0
  0
LINE
  5
17F
100
AcDbEntity
  8
USP-HID
100
AcDbLine
 10
0.2180000000000017
 20
1.867000000000153
 30
0.0
 11
0.2180000000000017
 21
1.827000000000154
 31
0.0
  0
LINE
  5
180
100
AcDbEntity
  8
USP-GEO
100
AcDbLine
 10
0.4910000000000139
 20
1.666847497513323
 30
0.0
 11
0.4910000000000024
 21
1.827000000000122
 31
0.0
  0
LINE
  5
181
100
AcDbEntity
  8
USP-GEO
100
AcDbLine
 10
0.4910000000000175
 20
1.571258925896005
 30
0.0
 11
0.4910000000000192
 21
1.656494735709221
 31
0.0
  0
LINE
  5
182
100
AcDbEntity
  8
USP-GEO
100
AcDbLine
 10
0.491000000000021
 20
1.656494735709227
 30
0.0
 11
0.4910000000000192
 21
1.666847497513328
 31
0.0
  0
LINE
  5
183
100
AcDbEntity
  8
USP-HID
100
AcDbLine
 10
0.3820000000000014
 20
1.867000000000153
 30
0.0
 11
0.3820000000000014
 21
1.827000000000154
 31
0.0
  0
LINE
  5
184
100
AcDbEntity
  8
USP-HID
100
AcDbLine
 10
0.4910000000000024
 20
1.867000000000146
 30
0.0
 11
0.4910000000000024
 21
1.827000000000145
 31
0.0
  0
LINE
  5
185
100
AcDbEntity
  8
USP-GEO
100
AcDbLine
 10
0.6890000000000161
 20
1.666847497513323
 30
0.0
 11
0.6890000000000045
 21
1.827000000000118
 31
0.0
  0
LINE
  5
186
100
AcDbEntity
  8
USP-GEO
100
AcDbLine
 10
0.5965000000000229
 20
1.821420486254723
 30
0.0
 11
0.6890000000000214
 21
1.666847497513325
 31
0.0
  0
LINE
  5
187
100
AcDbEntity
  8
USP-GEO
100
AcDbLine
 10
0.5965000000000247
 20
1.811067724450623
 30
0.0
 11
0.6890000000000232
 21
1.656494735709225
 31
0.0
  0
LINE
  5
188
100
AcDbEntity
  8
USP-GEO
100
AcDbLine
 10
0.6890000000000232
 20
1.666847497513328
 30
0.0
 11
0.689000000000025
 21
1.656494735709227
 31
0.0
  0
LINE
  5
189
100
AcDbEntity
  8
USP-GEO
100
AcDbLine
 10
0.6890000000000205
 20
1.571258925896012
 30
0.0
 11
0.6890000000000223
 21
1.656494735709223
 31
0.0
  0
LINE
  5
18A
100
AcDbEntity
  8
USP-GEO
100
AcDbLine
 10
0.5900000000000221
 20
1.810558600559385
 30
0.0
 11
0.5900000000000239
 21
1.800205838755283
 31
0.0
  0
LINE
  5
18B
100
AcDbEntity
  8
USP-GEO
100
AcDbLine
 10
0.5835000000000222
 20
1.82142048625473
 30
0.0
 11
0.5900000000000221
 21
1.810558600559387
 31
0.0
  0
LINE
  5
18C
100
AcDbEntity
  8
USP-GEO
100
AcDbLine
 10
0.5835000000000222
 20
1.811067724450623
 30
0.0
 11
0.5835000000000204
 21
1.821420486254725
 31
0.0
  0
LINE
  5
18D
100
AcDbEntity
  8
USP-GEO
100
AcDbLine
 10
0.5835000000000239
 20
1.811067724450623
 30
0.0
 11
0.5900000000000248
 21
1.80020583875528
 31
0.0
  0
LINE
  5
18E
100
AcDbEntity
  8
USP-GEO
100
AcDbLine
 10
0.5900000000000248
 20
1.810558600559378
 30
0.0
 11
0.5965000000000238
 21
1.821420486254718
 31
0.0
  0
LINE
  5
18F
100
AcDbEntity
  8
USP-GEO
100
AcDbLine
 10
0.5965000000000247
 20
1.811067724450623
 30
0.0
 11
0.5965000000000229
 21
1.821420486254725
 31
0.0
  0
LINE
  5
190
100
AcDbEntity
  8
USP-GEO
100
AcDbLine
 10
0.5900000000000257
 20
1.80020583875528
 30
0.0
 11
0.5965000000000247
 21
1.811067724450621
 31
0.0
  0
LINE
  5
191
100
AcDbEntity
  8
USP-HID
100
AcDbLine
 10
0.6890000000000036
 20
1.867000000000146
 30
0.0
 11
0.6890000000000036
 21
1.827000000000145
 31
0.0
  0
LINE
  5
192
100
AcDbEntity
  8
USP-HID
100
AcDbLine
 10
0.9630000000000027
 20
1.570710678118679
 30
0.0
 11
0.9230000000000035
 21
1.570710678118679
 31
0.0
  0
LINE
  5
193
100
AcDbEntity
  8
USP-HID
100
AcDbLine
 10
0.9630000000000027
 20
1.694250000000153
 30
0.0
 11
0.9230000000000035
 21
1.694250000000153
 31
0.0
  0
LINE
  5
194
100
AcDbEntity
  8
USP-HID
100
AcDbLine
 10
0.9230000000000027
 20
1.827000000000012
 30
0.0
 11
0.9230000000000027
 21
1.867000000000011
 31
0.0
  0
LINE
  5
195
100
AcDbEntity
  8
USP-HID
100
AcDbLine
 10
0.9630000000000018
 20
1.827000000000012
 30
0.0
 11
0.9230000000000027
 21
1.827000000000012
 31
0.0
  0
LINE
  5
196
100
AcDbEntity
  8
USP-GEO
100
AcDbLine
 10
2.524999999999998
 20
1.867000000000167
 30
0.0
 11
3.488000000000001
 21
1.867000000000167
 31
0.0
  0
LINE
  5
197
100
AcDbEntity
  8
USP-GEO
100
AcDbLine
 10
3.488000000000001
 20
1.827000000000168
 30
0.0
 11
2.564999999999999
 21
1.827000000000168
 31
0.0
  0
LINE
  5
198
100
AcDbEntity
  8
USP-GEO
100
AcDbLine
 10
2.524999999999998
 20
1.25000000000017
 30
0.0
 11
2.524999999999998
 21
1.867000000000169
 31
0.0
  0
LINE
  5
199
100
AcDbEntity
  8
USP-GEO
100
AcDbLine
 10
2.564999999999999
 20
1.827000000000168
 30
0.0
 11
2.565
 21
1.250000000000168
 31
0.0
  0
ARC
  5
19A
100
AcDbEntity
  8
USP-GEO
100
AcDbCircle
 10
2.525000000000003
 20
0.0
 30
0.0
 40
0.1
100
AcDbArc
 50
89.99999999999994
 51
179.9999999999998
  0
ARC
  5
19B
100
AcDbEntity
  8
USP-GEO
100
AcDbCircle
 10
2.525000000000004
 20
1.500000000000007
 30
0.0
 40
0.1
100
AcDbArc
 50
179.9999999999998
 51
269.9999999999999
  0
LINE
  5
19C
100
AcDbEntity
  8
USP-GEO
100
AcDbLine
 10
2.565
 20
0.0707106781186795
 30
0.0
 11
2.564999999999999
 21
0.9379066104867561
 31
0.0
  0
LINE
  5
19D
100
AcDbEntity
  8
USP-GEO
100
AcDbLine
 10
2.524999999999999
 20
0.0707106781186795
 30
0.0
 11
2.524999999999998
 21
0.9379066104867472
 31
0.0
  0
LINE
  5
19E
100
AcDbEntity
  8
USP-HID
100
AcDbLine
 10
2.524999999999998
 20
0.1000000000000014
 30
0.0
 11
2.564999999999999
 21
0.1000000000000014
 31
0.0
  0
LINE
  5
19F
100
AcDbEntity
  8
USP-GEO
100
AcDbLine
 10
2.524999999999999
 20
0.0707106781186795
 30
0.0
 11
2.565
 21
0.0707106781186795
 31
0.0
  0
LINE
  5
1A0
100
AcDbEntity
  8
USP-GEO
100
AcDbLine
 10
2.564999999999999
 20
0.9964852542494853
 30
0.0
 11
2.564999999999999
 21
1.191421356237469
 31
0.0
  0
LINE
  5
1A1
100
AcDbEntity
  8
USP-GEO
100
AcDbLine
 10
2.524999999999997
 20
0.9964852542494853
 30
0.0
 11
2.524999999999997
 21
1.191421356237471
 31
0.0
  0
LINE
  5
1A2
100
AcDbEntity
  8
USP-GEO
100
AcDbLine
 10
2.564999999999999
 20
0.9379066104867881
 30
0.0
 11
2.564999999999999
 21
0.9964852542494835
 31
0.0
  0
LINE
  5
1A3
100
AcDbEntity
  8
USP-GEO
100
AcDbLine
 10
2.524999999999998
 20
0.9379066104867881
 30
0.0
 11
2.524999999999998
 21
0.9964852542494835
 31
0.0
  0
LINE
  5
1A4
100
AcDbEntity
  8
USP-GEO
100
AcDbLine
 10
2.524999999999998
 20
0.9379066104867845
 30
0.0
 11
2.565
 21
0.9379066104867845
 31
0.0
  0
LINE
  5
1A5
100
AcDbEntity
  8
USP-HID
100
AcDbLine
 10
2.524999999999997
 20
1.146300047856428
 30
0.0
 11
2.564999999999999
 21
1.146300047856428
 31
0.0
  0
LINE
  5
1A6
100
AcDbEntity
  8
USP-HID
100
AcDbLine
 10
2.524999999999997
 20
1.310300047856429
 30
0.0
 11
2.564999999999999
 21
1.310300047856429
 31
0.0
  0
LINE
  5
1A7
100
AcDbEntity
  8
USP-GEO
100
AcDbLine
 10
2.564999999999999
 20
1.25000000000017
 30
0.0
 11
2.524999999999998
 21
1.25000000000017
 31
0.0
  0
LINE
  5
1A8
100
AcDbEntity
  8
USP-GEO
100
AcDbLine
 10
2.524999999999996
 20
1.250000000000106
 30
0.0
 11
2.524999999999996
 21
1.250000000000127
 31
0.0
  0
LINE
  5
1A9
100
AcDbEntity
  8
USP-GEO
100
AcDbLine
 10
2.524999999999998
 20
1.250000000000159
 30
0.0
 11
2.524999999999998
 21
1.191421356237464
 31
0.0
  0
LINE
  5
1AA
100
AcDbEntity
  8
USP-GEO
100
AcDbLine
 10
2.564999999999999
 20
1.191421356237471
 30
0.0
 11
2.564999999999999
 21
1.250000000000166
 31
0.0
  0
LINE
  5
1AB
100
AcDbEntity
  8
USP-HID
100
AcDbLine
 10
2.524999999999998
 20
1.400000000000005
 30
0.0
 11
2.564999999999999
 21
1.400000000000005
 31
0.0
  0
LINE
  5
1AC
100
AcDbEntity
  8
USP-HID
100
AcDbLine
 10
2.524999999999997
 20
1.38175000000016
 30
0.0
 11
2.564999999999998
 21
1.38175000000016
 31
0.0
  0
LINE
  5
1AD
100
AcDbEntity
  8
USP-HID
100
AcDbLine
 10
2.996999999999998
 20
1.847000000000122
 30
0.0
 11
2.798999999999998
 21
1.847000000000118
 31
0.0
  0
LINE
  5
1AE
100
AcDbEntity
  8
USP-HID
100
AcDbLine
 10
2.996999999999998
 20
1.807000000000122
 30
0.0
 11
2.798999999999998
 21
1.807000000000119
 31
0.0
  0
LINE
  5
1AF
100
AcDbEntity
  8
USP-HID
100
AcDbLine
 10
2.799000000000012
 20
1.611258925896009
 30
0.0
 11
2.997000000000015
 21
1.611258925896013
 31
0.0
  0
LINE
  5
1B0
100
AcDbEntity
  8
USP-GEO
100
AcDbLine
 10
2.799000000000019
 20
1.666847497513323
 30
0.0
 11
2.891500000000019
 21
1.821420486254726
 31
0.0
  0
LINE
  5
1B1
100
AcDbEntity
  8
USP-GEO
100
AcDbLine
 10
2.799000000000021
 20
1.656494735709225
 30
0.0
 11
2.891500000000019
 21
1.811067724450627
 31
0.0
  0
LINE
  5
1B2
100
AcDbEntity
  8
USP-GEO
100
AcDbLine
 10
2.799000000000013
 20
1.571258925896009
 30
0.0
 11
2.997000000000016
 21
1.571258925896012
 31
0.0
  0
LINE
  5
1B3
100
AcDbEntity
  8
USP-HID
100
AcDbLine
 10
2.524999999999996
 20
1.570710678118658
 30
0.0
 11
2.564999999999997
 21
1.570710678118658
 31
0.0
  0
LINE
  5
1B4
100
AcDbEntity
  8
USP-HID
100
AcDbLine
 10
2.524999999999997
 20
1.69425000000016
 30
0.0
 11
2.564999999999998
 21
1.69425000000016
 31
0.0
  0
LINE
  5
1B5
100
AcDbEntity
  8
USP-HID
100
AcDbLine
 10
2.524999999999998
 20
1.827000000000012
 30
0.0
 11
2.564999999999999
 21
1.827000000000012
 31
0.0
  0
LINE
  5
1B6
100
AcDbEntity
  8
USP-HID
100
AcDbLine
 10
2.564999999999999
 20
1.867000000000011
 30
0.0
 11
2.564999999999999
 21
1.827000000000012
 31
0.0
  0
LINE
  5
1B7
100
AcDbEntity
  8
USP-GEO
100
AcDbLine
 10
2.799000000000011
 20
1.666847497513323
 30
0.0
 11
2.798999999999999
 21
1.827000000000122
 31
0.0
  0
LINE
  5
1B8
100
AcDbEntity
  8
USP-GEO
100
AcDbLine
 10
2.799000000000013
 20
1.571258925896012
 30
0.0
 11
2.799000000000015
 21
1.656494735709223
 31
0.0
  0
LINE
  5
1B9
100
AcDbEntity
  8
USP-GEO
100
AcDbLine
 10
2.799000000000016
 20
1.656494735709227
 30
0.0
 11
2.799000000000014
 21
1.666847497513328
 31
0.0
  0
LINE
  5
1BA
100
AcDbEntity
  8
USP-HID
100
AcDbLine
 10
2.798999999999999
 20
1.867000000000146
 30
0.0
 11
2.798999999999999
 21
1.827000000000143
 31
0.0
  0
LINE
  5
1BB
100
AcDbEntity
  8
USP-GEO
100
AcDbLine
 10
2.997000000000011
 20
1.666847497513323
 30
0.0
 11
2.996999999999999
 21
1.827000000000118
 31
0.0
  0
LINE
  5
1BC
100
AcDbEntity
  8
USP-GEO
100
AcDbLine
 10
2.904500000000018
 20
1.821420486254725
 30
0.0
 11
2.997000000000015
 21
1.666847497513327
 31
0.0
  0
LINE
  5
1BD
100
AcDbEntity
  8
USP-GEO
100
AcDbLine
 10
2.90450000000002
 20
1.811067724450623
 30
0.0
 11
2.997000000000018
 21
1.656494735709225
 31
0.0
  0
LINE
  5
1BE
100
AcDbEntity
  8
USP-GEO
100
AcDbLine
 10
2.997000000000018
 20
1.666847497513328
 30
0.0
 11
2.99700000000002
 21
1.656494735709227
 31
0.0
  0
LINE
  5
1BF
100
AcDbEntity
  8
USP-GEO
100
AcDbLine
 10
2.997000000000016
 20
1.571258925896012
 30
0.0
 11
2.997000000000018
 21
1.656494735709223
 31
0.0
  0
LINE
  5
1C0
100
AcDbEntity
  8
USP-HID
100
AcDbLine
 10
2.997
 20
1.867000000000146
 30
0.0
 11
2.997
 21
1.827000000000145
 31
0.0
  0
LINE
  5
1C1
100
AcDbEntity
  8
USP-HID
100
AcDbLine
 10
2.906000000000002
 20
1.867000000000153
 30
0.0
 11
2.906000000000002
 21
1.827000000000154
 31
0.0
  0
LINE
  5
1C2
100
AcDbEntity
  8
USP-GEO
100
AcDbLine
 10
2.898000000000017
 20
1.810558600559385
 30
0.0
 11
2.898000000000019
 21
1.800205838755283
 31
0.0
  0
LINE
  5
1C3
100
AcDbEntity
  8
USP-GEO
100
AcDbLine
 10
2.891500000000016
 20
1.821420486254732
 30
0.0
 11
2.898000000000017
 21
1.810558600559389
 31
0.0
  0
LINE
  5
1C4
100
AcDbEntity
  8
USP-GEO
100
AcDbLine
 10
2.891500000000019
 20
1.81106772445063
 30
0.0
 11
2.891500000000017
 21
1.821420486254732
 31
0.0
  0
LINE
  5
1C5
100
AcDbEntity
  8
USP-GEO
100
AcDbLine
 10
2.89150000000002
 20
1.81106772445063
 30
0.0
 11
2.89800000000002
 21
1.800205838755287
 31
0.0
  0
LINE
  5
1C6
100
AcDbEntity
  8
USP-GEO
100
AcDbLine
 10
2.898000000000019
 20
1.810558600559387
 30
0.0
 11
2.904500000000018
 21
1.821420486254726
 31
0.0
  0
LINE
  5
1C7
100
AcDbEntity
  8
USP-GEO
100
AcDbLine
 10
2.90450000000002
 20
1.811067724450623
 30
0.0
 11
2.904500000000019
 21
1.821420486254725
 31
0.0
  0
LINE
  5
1C8
100
AcDbEntity
  8
USP-GEO
100
AcDbLine
 10
2.898000000000021
 20
1.80020583875528
 30
0.0
 11
2.904500000000021
 21
1.811067724450621
 31
0.0
  0
LINE
  5
1C9
100
AcDbEntity
  8
USP-HID
100
AcDbLine
 10
3.070000000000002
 20
1.867000000000153
 30
0.0
 11
3.070000000000002
 21
1.827000000000154
 31
0.0
  0
LINE
  5
1CA
100
AcDbEntity
  8
USP-HID
100
AcDbLine
 10
3.106000000000002
 20
1.867000000000103
 30
0.0
 11
3.106000000000002
 21
1.827000000000104
 31
0.0
  0
LINE
  5
1CB
100
AcDbEntity
  8
USP-HID
100
AcDbLine
 10
3.175906610486641
 20
1.867000000000146
 30
0.0
 11
3.175906610486641
 21
1.827000000000145
 31
0.0
  0
LINE
  5
1CC
100
AcDbEntity
  8
USP-HID
100
AcDbLine
 10
3.270000000000002
 20
1.867000000000103
 30
0.0
 11
3.270000000000002
 21
1.827000000000104
 31
0.0
  0
LINE
  5
1CD
100
AcDbEntity
  8
USP-GEO
100
AcDbLine
 10
3.488000000000001
 20
1.867000000000167
 30
0.0
 11
3.488000000000001
 21
1.827000000000166
 31
0.0
  0
ENDBLK
  5
1CF
100
AcDbEntity
  8
0
100
AcDbBlockEnd
  0
ENDSEC
  0
SECTION
  2
ENTITIES
  0
INSERT
  5
3
100
AcDbEntity
  8
USP
100
AcDbBlockReference
  2
JL26_S
 10
0.8470553850249764
 20
0.5613372967009937
 30
0.0
  0
INSERT
  5
8C
100
AcDbEntity
  8
USP
100
AcDbBlockReference
  2
JL26_F
 10
4.51544910321136
 20
0.5613372967010442
 30
0.0
  0
INSERT
  5
15C
100
AcDbEntity
  8
USP
100
AcDbBlockReference
  2
JL26_T
 10
4.515449103211361
 20
8.135710270769656
 30
0.0
  0
ENDSEC
  0
SECTION
  2
OBJECTS
  0
DICTIONARY
  5
1E4
102
{ACAD_XDICTIONARY
360
1E5
102
}
100
AcDbDictionary
  3
ACAD_GROUP
350
1E2
  3
ACAD_MLINESTYLE
350
1E3
1001
ACAD
1000
TREAT_AS_HARD
1070
     0
  0
DICTIONARY
  5
A
100
AcDbDictionary
280
     1
1001
ACAD
1000
TREAT_AS_HARD
1070
     1
  0
DICTIONARY
  5
1D0
100
AcDbDictionary
280
     1
  0
DICTIONARY
  5
1D4
100
AcDbDictionary
280
     1
  0
DICTIONARY
  5
1E5
100
AcDbDictionary
280
     1
  0
DICTIONARY
  5
1E2
102
{ACAD_REACTORS
330
1E4
102
}
100
AcDbDictionary
1001
ACAD
1000
TREAT_AS_HARD
1070
     0
  0
DICTIONARY
  5
1E3
102
{ACAD_REACTORS
330
1E4
102
}
100
AcDbDictionary
  3
STANDARD
350
1E6
1001
ACAD
1000
TREAT_AS_HARD
1070
     0
  0
MLINESTYLE
  5
1E6
102
{ACAD_REACTORS
330
1E3
102
}
100
AcDbMlineStyle
  2
STANDARD
 70
     0
  3

 62
     0
 51
90.0
 52
90.0
 71
     2
 49
0.5
 62
   256
  6
BYLAYER
 49
-0.5
 62
   256
  6
BYLAYER
  0
ENDSEC
  0
EOF
