  0
SECTION
  2
HEADER
  9
$ACADVER
  1
AC1014
  9
$ACADMAINTVER
 70
     9
  9
$DWGCODEPAGE
  3
ANSI_1252
  9
$INSBASE
 10
0.0
 20
0.0
 30
0.0
  9
$EXTMIN
 10
0.0005009198200083
 20
0.0007879863264009
 30
0.0
  9
$EXTMAX
 10
16.41589395781986
 20
14.68999523612672
 30
0.0
  9
$LIMMIN
 10
0.0
 20
0.0
  9
$LIMMAX
 10
12.0
 20
9.0
  9
$ORTHOMODE
 70
     1
  9
$REGENMODE
 70
     1
  9
$FILLMODE
 70
     1
  9
$QTEXTMODE
 70
     0
  9
$MIRRTEXT
 70
     0
  9
$DRAGMODE
 70
     2
  9
$LTSCALE
 40
1.5
  9
$OSMODE
 70
     0
  9
$ATTMODE
 70
     1
  9
$TEXTSIZE
 40
0.75
  9
$TRACEWID
 40
0.05
  9
$TEXTSTYLE
  7
STANDARD
  9
$CLAYER
  8
USP
  9
$CELTYPE
  6
BYLAYER
  9
$CECOLOR
 62
   256
  9
$CELTSCALE
 40
1.0
  9
$DELOBJ
 70
     1
  9
$DISPSILH
 70
     1
  9
$DIMSCALE
 40
7.0
  9
$DIMASZ
 40
0.125
  9
$DIMEXO
 40
0.0625
  9
$DIMDLI
 40
0.37890625
  9
$DIMRND
 40
0.0
  9
$DIMDLE
 40
0.0
  9
$DIMEXE
 40
0.09375
  9
$DIMTP
 40
0.0
  9
$DIMTM
 40
0.0
  9
$DIMTXT
 40
0.109375
  9
$DIMCEN
 40
0.0
  9
$DIMTSZ
 40
0.0
  9
$DIMTOL
 70
     0
  9
$DIMLIM
 70
     0
  9
$DIMTIH
 70
     1
  9
$DIMTOH
 70
     1
  9
$DIMSE1
 70
     0
  9
$DIMSE2
 70
     0
  9
$DIMTAD
 70
     0
  9
$DIMZIN
 70
     8
  9
$DIMBLK
  1

  9
$DIMASO
 70
     1
  9
$DIMSHO
 70
     1
  9
$DIMPOST
  1

  9
$DIMAPOST
  1

  9
$DIMALT
 70
     0
  9
$DIMALTD
 70
     2
  9
$DIMALTF
 40
25.4
  9
$DIMLFAC
 40
1.0
  9
$DIMTOFL
 70
     0
  9
$DIMTVP
 40
0.0
  9
$DIMTIX
 70
     0
  9
$DIMSOXD
 70
     0
  9
$DIMSAH
 70
     0
  9
$DIMBLK1
  1

  9
$DIMBLK2
  1

  9
$DIMSTYLE
  2
STANDARD
  9
$DIMCLRD
 70
     0
  9
$DIMCLRE
 70
     0
  9
$DIMCLRT
 70
   256
  9
$DIMTFAC
 40
1.0
  9
$DIMGAP
 40
0.08984375
  9
$DIMJUST
 70
     0
  9
$DIMSD1
 70
     0
  9
$DIMSD2
 70
     0
  9
$DIMTOLJ
 70
     1
  9
$DIMTZIN
 70
     0
  9
$DIMALTZ
 70
     0
  9
$DIMALTTZ
 70
     0
  9
$DIMFIT
 70
     3
  9
$DIMUPT
 70
     1
  9
$DIMUNIT
 70
     7
  9
$DIMDEC
 70
     4
  9
$DIMTDEC
 70
     4
  9
$DIMALTU
 70
     2
  9
$DIMALTTD
 70
     2
  9
$DIMTXSTY
  7
STANDARD
  9
$DIMAUNIT
 70
     0
  9
$LUNITS
 70
     5
  9
$LUPREC
 70
     6
  9
$SKETCHINC
 40
0.1
  9
$FILLETRAD
 40
0.0
  9
$AUNITS
 70
     0
  9
$AUPREC
 70
     1
  9
$MENU
  1
CUSTOM
  9
$ELEVATION
 40
0.0
  9
$PELEVATION
 40
0.0
  9
$THICKNESS
 40
0.0
  9
$LIMCHECK
 70
     0
  9
$BLIPMODE
 70
     0
  9
$CHAMFERA
 40
0.0
  9
$CHAMFERB
 40
0.0
  9
$CHAMFERC
 40
0.0
  9
$CHAMFERD
 40
0.0
  9
$SKPOLY
 70
     0
  9
$TDCREATE
 40
2451263.663231366
  9
$TDUPDATE
 40
2452759.745354085
  9
$TDINDWG
 40
0.4927001157
  9
$TDUSRTIMER
 40
0.4927001157
  9
$USRTIMER
 70
     1
  9
$ANGBASE
 50
0.0
  9
$ANGDIR
 70
     0
  9
$PDMODE
 70
     0
  9
$PDSIZE
 40
0.0
  9
$PLINEWID
 40
0.0
  9
$COORDS
 70
     2
  9
$SPLFRAME
 70
     0
  9
$SPLINETYPE
 70
     6
  9
$SPLINESEGS
 70
     8
  9
$ATTDIA
 70
     0
  9
$ATTREQ
 70
     0
  9
$HANDLING
 70
     1
  9
$HANDSEED
  5
EB
  9
$SURFTAB1
 70
     6
  9
$SURFTAB2
 70
     6
  9
$SURFTYPE
 70
     6
  9
$SURFU
 70
     6
  9
$SURFV
 70
     6
  9
$UCSNAME
  2

  9
$UCSORG
 10
0.0
 20
0.0
 30
0.0
  9
$UCSXDIR
 10
1.0
 20
0.0
 30
0.0
  9
$UCSYDIR
 10
0.0
 20
1.0
 30
0.0
  9
$PUCSNAME
  2

  9
$PUCSORG
 10
0.0
 20
0.0
 30
0.0
  9
$PUCSXDIR
 10
1.0
 20
0.0
 30
0.0
  9
$PUCSYDIR
 10
0.0
 20
1.0
 30
0.0
  9
$USERI1
 70
     0
  9
$USERI2
 70
     0
  9
$USERI3
 70
     0
  9
$USERI4
 70
     0
  9
$USERI5
 70
     0
  9
$USERR1
 40
0.0
  9
$USERR2
 40
0.0
  9
$USERR3
 40
0.0
  9
$USERR4
 40
0.0
  9
$USERR5
 40
0.0
  9
$WORLDVIEW
 70
     1
  9
$SHADEDGE
 70
     3
  9
$SHADEDIF
 70
    70
  9
$TILEMODE
 70
     1
  9
$MAXACTVP
 70
    16
  9
$PINSBASE
 10
0.0
 20
0.0
 30
0.0
  9
$PLIMCHECK
 70
     0
  9
$PEXTMIN
 10
1.000000000000000E+20
 20
1.000000000000000E+20
 30
1.000000000000000E+20
  9
$PEXTMAX
 10
-1.000000000000000E+20
 20
-1.000000000000000E+20
 30
-1.000000000000000E+20
  9
$PLIMMIN
 10
0.0
 20
0.0
  9
$PLIMMAX
 10
12.0
 20
9.0
  9
$UNITMODE
 70
     0
  9
$VISRETAIN
 70
     0
  9
$PLINEGEN
 70
     0
  9
$PSLTSCALE
 70
     0
  9
$TREEDEPTH
 70
  3020
  9
$PICKSTYLE
 70
     1
  9
$CMLSTYLE
  2
STANDARD
  9
$CMLJUST
 70
     0
  9
$CMLSCALE
 40
1.0
  9
$PROXYGRAPHICS
 70
     1
  9
$MEASUREMENT
 70
     0
  0
ENDSEC
  0
SECTION
  2
CLASSES
  0
CLASS
  1
ACDBDICTIONARYWDFLT
  2
AcDbDictionaryWithDefault
  3
AutoCAD 2000
 90
        0
280
     1
281
     0
  0
CLASS
  1
ACDBPLACEHOLDER
  2
AcDbPlaceHolder
  3
AutoCAD 2000
 90
        0
280
     1
281
     0
  0
CLASS
  1
LAYOUT
  2
AcDbLayout
  3
AutoCAD 2000
 90
        0
280
     1
281
     0
  0
CLASS
  1
DICTIONARYVAR
  2
AcDbDictionaryVar
  3
"AutoCAD"
 90
        0
280
     1
281
     0
  0
CLASS
  1
LONG_TRANSACTION
  2
AcDbLongTransaction
  3
AutoCAD 2000
 90
        0
280
     1
281
     0
  0
CLASS
  1
LWPOLYLINE
  2
AcDbPolyline
  3
"AutoCAD"
 90
        0
280
     1
281
     1
  0
CLASS
  1
HATCH
  2
AcDbHatch
  3
"ACAD_SEDONA"
 90
        0
280
     1
281
     1
  0
CLASS
  1
XRECORD
  2
AcDbXrecord
  3
"<Built In>"
 90
        0
280
     0
281
     0
  0
CLASS
  1
LONG_TRANSACTION
  2
AcDbLongTransaction
  3
AutoCAD 2000
 90
        0
280
     1
281
     0
  0
CLASS
  1
LWPOLYLINE
  2
AcDbPolyline
  3
"AutoCAD"
 90
        0
280
     1
281
     1
  0
CLASS
  1
HATCH
  2
AcDbHatch
  3
"ACAD_SEDONA"
 90
        0
280
     1
281
     1
  0
CLASS
  1
XRECORD
  2
AcDbXrecord
  3
"<Built In>"
 90
        0
280
     0
281
     0
  0
ENDSEC
  0
SECTION
  2
TABLES
  0
TABLE
  2
VPORT
  5
D4
100
AcDbSymbolTable
 70
     1
  0
VPORT
  5
E7
100
AcDbSymbolTableRecord
100
AcDbViewportTableRecord
  2
*ACTIVE
 70
     0
 10
0.0
 20
0.0
 11
1.0
 21
1.0
 12
-11.94620963123269
 22
17.91984435845952
 13
0.0
 23
0.0
 14
1.0
 24
1.0
 15
0.0
 25
0.0
 16
0.0
 26
0.0
 36
1.0
 17
23.09603071721725
 27
-10.27010416511325
 37
-10.44050274849355
 40
15.29790441403973
 41
1.457627118644067
 42
50.0
 43
10.55307667737539
 44
10.55307667737539
 50
0.0
 51
0.0
 71
     0
 72
   100
 73
     1
 74
     1
 75
     0
 76
     0
 77
     0
 78
     0
  0
ENDTAB
  0
TABLE
  2
LTYPE
  5
D0
100
AcDbSymbolTable
 70
     1
  0
LTYPE
  5
D1
100
AcDbSymbolTableRecord
100
AcDbLinetypeTableRecord
  2
BYBLOCK
 70
     0
  3

 72
    65
 73
     0
 40
0.0
  0
LTYPE
  5
6
100
AcDbSymbolTableRecord
100
AcDbLinetypeTableRecord
  2
BYLAYER
 70
     0
  3

 72
    65
 73
     0
 40
0.0
  0
LTYPE
  5
5
100
AcDbSymbolTableRecord
100
AcDbLinetypeTableRecord
  2
CONTINUOUS
 70
     0
  3
Solid line
 72
    65
 73
     0
 40
0.0
  0
ENDTAB
  0
TABLE
  2
LAYER
  5
CE
100
AcDbSymbolTable
 70
     5
  0
LAYER
  5
58
100
AcDbSymbolTableRecord
100
AcDbLayerTableRecord
  2
0
 70
     0
 62
     7
  6
CONTINUOUS
  0
LAYER
  5
10
100
AcDbSymbolTableRecord
100
AcDbLayerTableRecord
  2
USP-TXT
 70
     0
 62
     7
  6
CONTINUOUS
  0
LAYER
  5
9
102
{ACAD_XDICTIONARY
360
A
102
}
100
AcDbSymbolTableRecord
100
AcDbLayerTableRecord
  2
USP-GEO
 70
     0
 62
     7
  6
CONTINUOUS
  0
LAYER
  5
1C
102
{ACAD_XDICTIONARY
360
1D
102
}
100
AcDbSymbolTableRecord
100
AcDbLayerTableRecord
  2
USP-HID
 70
     0
 62
     7
  6
CONTINUOUS
  0
LAYER
  5
4
100
AcDbSymbolTableRecord
100
AcDbLayerTableRecord
  2
USP
 70
     0
 62
     7
  6
CONTINUOUS
  0
ENDTAB
  0
TABLE
  2
STYLE
  5
CF
100
AcDbSymbolTable
 70
     1
  0
STYLE
  5
11
100
AcDbSymbolTableRecord
100
AcDbTextStyleTableRecord
  2
STANDARD
 70
     0
 40
0.0
 41
1.0
 50
0.0
 71
     0
 42
0.75
  3
txt
  4

  0
ENDTAB
  0
TABLE
  2
VIEW
  5
D2
100
AcDbSymbolTable
 70
     0
  0
ENDTAB
  0
TABLE
  2
UCS
  5
D3
100
AcDbSymbolTable
 70
     0
  0
ENDTAB
  0
TABLE
  2
APPID
  5
D7
100
AcDbSymbolTable
 70
     1
  0
APPID
  5
B
100
AcDbSymbolTableRecord
100
AcDbRegAppTableRecord
  2
ACAD
 70
     0
  0
ENDTAB
  0
TABLE
  2
DIMSTYLE
  5
D8
100
AcDbSymbolTable
 70
     1
  0
DIMSTYLE
105
DF
100
AcDbSymbolTableRecord
100
AcDbDimStyleTableRecord
  2
STANDARD
 70
     0
  3

  4

  5

  6

  7

 40
1.0
 41
0.18
 42
0.0625
 43
0.38
 44
0.18
 45
0.0
 46
0.0
 47
0.0
 48
0.0
140
0.18
141
0.09
142
0.0
143
25.4
144
1.0
145
0.0
146
1.0
147
0.09
 71
     0
 72
     0
 73
     1
 74
     1
 75
     0
 76
     0
 77
     0
 78
     0
170
     0
171
     2
172
     0
173
     0
174
     0
175
     0
176
     0
177
     0
178
     0
270
     2
271
     4
272
     4
273
     2
274
     2
340
11
275
     0
280
     0
281
     0
282
     0
283
     1
284
     0
285
     0
286
     0
287
     3
288
     0
  0
ENDTAB
  0
TABLE
  2
BLOCK_RECORD
  5
1
100
AcDbSymbolTable
 70
     3
  0
BLOCK_RECORD
  5
2
102
{ACAD_XDICTIONARY
360
C7
102
}
100
AcDbSymbolTableRecord
100
AcDbBlockTableRecord
  2
*MODEL_SPACE
  0
BLOCK_RECORD
  5
CA
102
{ACAD_XDICTIONARY
360
CB
102
}
100
AcDbSymbolTableRecord
100
AcDbBlockTableRecord
  2
*PAPER_SPACE
  0
BLOCK_RECORD
  5
7
100
AcDbSymbolTableRecord
100
AcDbBlockTableRecord
  2
JA7_F
  0
BLOCK_RECORD
  5
5B
100
AcDbSymbolTableRecord
100
AcDbBlockTableRecord
  2
JA7_S
  0
BLOCK_RECORD
  5
A7
100
AcDbSymbolTableRecord
100
AcDbBlockTableRecord
  2
JA7_T
  0
ENDTAB
  0
ENDSEC
  0
SECTION
  2
BLOCKS
  0
BLOCK
  5
C8
100
AcDbEntity
  8
0
100
AcDbBlockBegin
  2
*MODEL_SPACE
 70
     0
 10
0.0
 20
0.0
 30
0.0
  3
*MODEL_SPACE
  1

  0
ENDBLK
  5
C9
100
AcDbEntity
  8
0
100
AcDbBlockEnd
  0
BLOCK
  5
CC
100
AcDbEntity
 67
     1
  8
0
100
AcDbBlockBegin
  2
*PAPER_SPACE
 70
     0
 10
0.0
 20
0.0
 30
0.0
  3
*PAPER_SPACE
  1

  0
ENDBLK
  5
CD
100
AcDbEntity
 67
     1
  8
0
100
AcDbBlockEnd
  0
BLOCK
  5
57
100
AcDbEntity
  8
0
100
AcDbBlockBegin
  2
JA7_F
 70
     0
 10
0.0
 20
0.0
 30
0.0
  3
JA7_F
  1

  0
LINE
  5
8
100
AcDbEntity
  8
USP-GEO
100
AcDbLine
 10
2.5747
 20
5.750000000000007
 30
0.0
 11
2.574699999999998
 21
6.0625
 31
0.0
  0
CIRCLE
  5
C
100
AcDbEntity
  8
USP-GEO
100
AcDbCircle
 10
2.074699999999998
 20
5.843750000000003
 30
0.0
 40
0.09
  0
LINE
  5
D
100
AcDbEntity
  8
USP-GEO
100
AcDbLine
 10
-0.0000000000000022
 20
6.062499999999998
 30
0.0
 11
-0.0000000000000022
 21
5.750000000000007
 31
0.0
  0
LINE
  5
E
100
AcDbEntity
  8
USP-GEO
100
AcDbLine
 10
0.0746999999999978
 20
5.750000000000007
 30
0.0
 11
0.0746999999999978
 21
6.0625
 31
0.0
  0
TEXT
  5
F
100
AcDbEntity
  8
USP-TXT
100
AcDbText
 10
-2.71265
 20
-1.451242146112985
 30
0.0
 40
0.5
  1
JA7 - FRONT VIEW
 72
     1
 11
1.287349999999999
 21
-1.451242146112985
 31
0.0
100
AcDbText
  0
LINE
  5
12
100
AcDbEntity
  8
USP-GEO
100
AcDbLine
 10
2.574699999999998
 20
0.0000000000000018
 30
0.0
 11
0.0746999999999987
 21
0.0000000000000011
 31
0.0
  0
LINE
  5
13
100
AcDbEntity
  8
USP-GEO
100
AcDbLine
 10
0.0746999999999996
 20
1.125000000000001
 30
0.0
 11
0.0746999999999996
 21
1.875000000000001
 31
0.0
  0
LINE
  5
14
100
AcDbEntity
  8
USP-GEO
100
AcDbLine
 10
-0.0000000000000004
 20
1.875000000000002
 30
0.0
 11
-0.0000000000000004
 21
1.125000000000001
 31
0.0
  0
LINE
  5
15
100
AcDbEntity
  8
USP-GEO
100
AcDbLine
 10
0.0746999999999996
 20
0.0
 30
0.0
 11
0.0746999999999996
 21
0.3750000000000018
 31
0.0
  0
LINE
  5
16
100
AcDbEntity
  8
USP-GEO
100
AcDbLine
 10
0.0
 20
0.3750000000000027
 30
0.0
 11
0.0
 21
0.0000000000000009
 31
0.0
  0
LINE
  5
17
100
AcDbEntity
  8
USP-GEO
100
AcDbLine
 10
0.0746999999999996
 20
0.0
 30
0.0
 11
0.0
 21
0.0
 31
0.0
  0
LINE
  5
18
100
AcDbEntity
  8
USP-GEO
100
AcDbLine
 10
0.0747
 20
0.3750000000000018
 30
0.0
 11
0.0747
 21
1.125000000000001
 31
0.0
  0
LINE
  5
19
100
AcDbEntity
  8
USP-GEO
100
AcDbLine
 10
0.0
 20
1.125000000000002
 30
0.0
 11
0.0
 21
0.3750000000000027
 31
0.0
  0
LINE
  5
1A
100
AcDbEntity
  8
USP-GEO
100
AcDbLine
 10
0.0747
 20
0.3750000000000018
 30
0.0
 11
0.0
 21
0.3750000000000018
 31
0.0
  0
LINE
  5
1B
100
AcDbEntity
  8
USP-HID
100
AcDbLine
 10
0.0746999999999996
 20
0.4025000000000001
 30
0.0
 11
-0.0000000000000004
 21
0.4025000000000001
 31
0.0
  0
LINE
  5
1E
100
AcDbEntity
  8
USP-HID
100
AcDbLine
 10
0.0746999999999996
 20
0.2224999999999999
 30
0.0
 11
-0.0000000000000004
 21
0.2224999999999999
 31
0.0
  0
LINE
  5
1F
100
AcDbEntity
  8
USP-GEO
100
AcDbLine
 10
0.0746999999999996
 20
1.125000000000001
 30
0.0
 11
-0.0000000000000004
 21
1.125000000000001
 31
0.0
  0
LINE
  5
20
100
AcDbEntity
  8
USP-HID
100
AcDbLine
 10
0.0746999999999987
 20
1.194500000000004
 30
0.0
 11
-0.0000000000000009
 21
1.194500000000004
 31
0.0
  0
LINE
  5
21
100
AcDbEntity
  8
USP-HID
100
AcDbLine
 10
0.0746999999999987
 20
1.014500000000004
 30
0.0
 11
-0.0000000000000013
 21
1.014500000000004
 31
0.0
  0
LINE
  5
22
100
AcDbEntity
  8
USP-GEO
100
AcDbLine
 10
0.0746999999999991
 20
3.375
 30
0.0
 11
0.0746999999999991
 21
4.125000000000003
 31
0.0
  0
LINE
  5
23
100
AcDbEntity
  8
USP-GEO
100
AcDbLine
 10
-0.0000000000000004
 20
4.125000000000003
 30
0.0
 11
-0.0000000000000004
 21
3.375
 31
0.0
  0
LINE
  5
24
100
AcDbEntity
  8
USP-GEO
100
AcDbLine
 10
0.0746999999999991
 20
1.875000000000001
 30
0.0
 11
0.0746999999999987
 21
2.625000000000001
 31
0.0
  0
LINE
  5
25
100
AcDbEntity
  8
USP-GEO
100
AcDbLine
 10
-0.0000000000000009
 20
2.625000000000002
 30
0.0
 11
-0.0000000000000004
 21
1.875000000000002
 31
0.0
  0
LINE
  5
26
100
AcDbEntity
  8
USP-GEO
100
AcDbLine
 10
0.0746999999999991
 20
1.875000000000001
 30
0.0
 11
-0.0000000000000004
 21
1.875000000000001
 31
0.0
  0
LINE
  5
27
100
AcDbEntity
  8
USP-HID
100
AcDbLine
 10
0.0746999999999996
 20
1.806462641305197
 30
0.0
 11
-0.0000000000000004
 21
1.806462641305197
 31
0.0
  0
LINE
  5
28
100
AcDbEntity
  8
USP-HID
100
AcDbLine
 10
0.0746999999999991
 20
1.626462641305197
 30
0.0
 11
-0.0000000000000004
 21
1.626462641305197
 31
0.0
  0
LINE
  5
29
100
AcDbEntity
  8
USP-HID
100
AcDbLine
 10
0.0746999999999987
 20
2.185868915281697
 30
0.0
 11
-0.0000000000000013
 21
2.185868915281697
 31
0.0
  0
LINE
  5
2A
100
AcDbEntity
  8
USP-HID
100
AcDbLine
 10
0.0746999999999987
 20
2.005868915281697
 30
0.0
 11
-0.0000000000000013
 21
2.005868915281697
 31
0.0
  0
LINE
  5
2B
100
AcDbEntity
  8
USP-GEO
100
AcDbLine
 10
0.0746999999999991
 20
3.375
 30
0.0
 11
0.0746999999999991
 21
2.625000000000002
 31
0.0
  0
LINE
  5
2C
100
AcDbEntity
  8
USP-GEO
100
AcDbLine
 10
-0.0000000000000013
 20
3.375
 30
0.0
 11
-0.0000000000000013
 21
2.625000000000002
 31
0.0
  0
LINE
  5
2D
100
AcDbEntity
  8
USP-GEO
100
AcDbLine
 10
0.0746999999999991
 20
2.625000000000002
 30
0.0
 11
-0.0000000000000013
 21
2.625000000000002
 31
0.0
  0
LINE
  5
2E
100
AcDbEntity
  8
USP-GEO
100
AcDbLine
 10
0.0746999999999991
 20
3.375
 30
0.0
 11
-0.0000000000000004
 21
3.375
 31
0.0
  0
LINE
  5
2F
100
AcDbEntity
  8
USP-GEO
100
AcDbLine
 10
0.0746999999999991
 20
4.125000000000003
 30
0.0
 11
0.0746999999999987
 21
5.000000000000003
 31
0.0
  0
LINE
  5
30
100
AcDbEntity
  8
USP-GEO
100
AcDbLine
 10
-0.0000000000000009
 20
5.000000000000003
 30
0.0
 11
-0.0000000000000004
 21
4.125000000000003
 31
0.0
  0
LINE
  5
31
100
AcDbEntity
  8
USP-GEO
100
AcDbLine
 10
0.0746999999999991
 20
4.125000000000003
 30
0.0
 11
-0.0000000000000004
 21
4.125000000000003
 31
0.0
  0
LINE
  5
32
100
AcDbEntity
  8
USP-HID
100
AcDbLine
 10
0.0746999999999982
 20
4.11031899950521
 30
0.0
 11
-0.0000000000000013
 21
4.11031899950521
 31
0.0
  0
LINE
  5
33
100
AcDbEntity
  8
USP-HID
100
AcDbLine
 10
0.0746999999999982
 20
4.686236246510583
 30
0.0
 11
-0.0000000000000022
 21
4.686236246510583
 31
0.0
  0
LINE
  5
34
100
AcDbEntity
  8
USP-HID
100
AcDbLine
 10
0.0746999999999987
 20
4.506236246510583
 30
0.0
 11
-0.0000000000000013
 21
4.506236246510583
 31
0.0
  0
LINE
  5
35
100
AcDbEntity
  8
USP-HID
100
AcDbLine
 10
0.0746999999999978
 20
4.29031899950521
 30
0.0
 11
-0.0000000000000013
 21
4.29031899950521
 31
0.0
  0
LINE
  5
36
100
AcDbEntity
  8
USP-GEO
100
AcDbLine
 10
-0.0000000000000018
 20
5.750000000000007
 30
0.0
 11
-0.0000000000000013
 21
5.000000000000003
 31
0.0
  0
LINE
  5
37
100
AcDbEntity
  8
USP-GEO
100
AcDbLine
 10
0.0746999999999987
 20
5.000000000000003
 30
0.0
 11
0.0746999999999982
 21
5.750000000000007
 31
0.0
  0
LINE
  5
38
100
AcDbEntity
  8
USP-GEO
100
AcDbLine
 10
0.0746999999999987
 20
5.000000000000003
 30
0.0
 11
-0.0000000000000013
 21
5.000000000000003
 31
0.0
  0
LINE
  5
39
100
AcDbEntity
  8
USP-GEO
100
AcDbLine
 10
0.0746999999999978
 20
5.750000000000007
 30
0.0
 11
-0.0000000000000022
 21
5.750000000000007
 31
0.0
  0
LINE
  5
3A
100
AcDbEntity
  8
USP-HID
100
AcDbLine
 10
0.0746999999999982
 20
5.753750000000003
 30
0.0
 11
-0.0000000000000013
 21
5.753750000000003
 31
0.0
  0
LINE
  5
3B
100
AcDbEntity
  8
USP-GEO
100
AcDbLine
 10
1.824699999999998
 20
1.125000000000003
 30
0.0
 11
1.824699999999999
 21
1.875000000000003
 31
0.0
  0
CIRCLE
  5
3C
100
AcDbEntity
  8
USP-GEO
100
AcDbCircle
 10
1.0747
 20
1.104500000000005
 30
0.0
 40
0.09
  0
LINE
  5
3D
100
AcDbEntity
  8
USP-GEO
100
AcDbLine
 10
2.574699999999998
 20
0.0000000000000018
 30
0.0
 11
2.574699999999998
 21
0.3750000000000035
 31
0.0
  0
LINE
  5
3E
100
AcDbEntity
  8
USP-GEO
100
AcDbLine
 10
2.574699999999998
 20
0.3750000000000035
 30
0.0
 11
1.824699999999997
 21
1.125000000000003
 31
0.0
  0
CIRCLE
  5
3F
100
AcDbEntity
  8
USP-GEO
100
AcDbCircle
 10
1.8247
 20
0.3125000000000009
 30
0.0
 40
0.09
  0
LINE
  5
40
100
AcDbEntity
  8
USP-GEO
100
AcDbLine
 10
2.574699999999998
 20
3.375000000000004
 30
0.0
 11
1.824699999999998
 21
4.125000000000003
 31
0.0
  0
CIRCLE
  5
41
100
AcDbEntity
  8
USP-GEO
100
AcDbCircle
 10
1.3247
 20
1.896500000000003
 30
0.0
 40
0.09
  0
LINE
  5
42
100
AcDbEntity
  8
USP-GEO
100
AcDbLine
 10
1.824699999999999
 20
1.875000000000003
 30
0.0
 11
2.574699999999999
 21
2.625000000000003
 31
0.0
  0
CIRCLE
  5
43
100
AcDbEntity
  8
USP-GEO
100
AcDbCircle
 10
2.074699999999998
 20
2.688500000000004
 30
0.0
 40
0.09
  0
LINE
  5
44
100
AcDbEntity
  8
USP-GEO
100
AcDbLine
 10
2.574699999999998
 20
3.375000000000004
 30
0.0
 11
2.574699999999998
 21
2.625000000000004
 31
0.0
  0
CIRCLE
  5
45
100
AcDbEntity
  8
USP-GEO
100
AcDbCircle
 10
1.324699999999998
 20
4.687500000000003
 30
0.0
 40
0.09
  0
LINE
  5
46
100
AcDbEntity
  8
USP-GEO
100
AcDbLine
 10
1.824699999999998
 20
4.125000000000003
 30
0.0
 11
1.824699999999998
 21
5.000000000000003
 31
0.0
  0
CIRCLE
  5
47
100
AcDbEntity
  8
USP-GEO
100
AcDbCircle
 10
1.824699999999998
 20
3.688000000000002
 30
0.0
 40
0.09
  0
LINE
  5
48
100
AcDbEntity
  8
USP-GEO
100
AcDbLine
 10
1.824699999999997
 20
5.000000000000003
 30
0.0
 11
2.574699999999996
 21
5.750000000000007
 31
0.0
  0
LINE
  5
49
100
AcDbEntity
  8
USP-GEO
100
AcDbLine
 10
1.824699999999997
 20
7.000000000000003
 30
0.0
 11
0.0746999999999969
 21
7.000000000000003
 31
0.0
  0
LINE
  5
4A
100
AcDbEntity
  8
USP-GEO
100
AcDbLine
 10
-0.0000000000000013
 20
6.812500000000001
 30
0.0
 11
-0.0000000000000013
 21
6.062499999999998
 31
0.0
  0
LINE
  5
4B
100
AcDbEntity
  8
USP-GEO
100
AcDbLine
 10
0.0746999999999991
 20
6.0625
 30
0.0
 11
0.0746999999999991
 21
6.812500000000003
 31
0.0
  0
LINE
  5
4C
100
AcDbEntity
  8
USP-GEO
100
AcDbLine
 10
0.0746999999999991
 20
6.0625
 30
0.0
 11
-0.0000000000000013
 21
6.0625
 31
0.0
  0
LINE
  5
4D
100
AcDbEntity
  8
USP-HID
100
AcDbLine
 10
0.0746999999999978
 20
5.933750000000003
 30
0.0
 11
-0.0000000000000022
 21
5.933750000000003
 31
0.0
  0
LINE
  5
4E
100
AcDbEntity
  8
USP-GEO
100
AcDbLine
 10
0.0746999999999978
 20
7.000000000000003
 30
0.0
 11
-0.0000000000000022
 21
7.000000000000003
 31
0.0
  0
LINE
  5
4F
100
AcDbEntity
  8
USP-GEO
100
AcDbLine
 10
0.0746999999999973
 20
6.812500000000003
 30
0.0
 11
-0.0000000000000018
 21
6.812500000000003
 31
0.0
  0
LINE
  5
50
100
AcDbEntity
  8
USP-HID
100
AcDbLine
 10
0.0746999999999978
 20
6.711043694906095
 30
0.0
 11
-0.0000000000000027
 21
6.711043694906095
 31
0.0
  0
LINE
  5
51
100
AcDbEntity
  8
USP-HID
100
AcDbLine
 10
0.0746999999999982
 20
6.531043694906095
 30
0.0
 11
-0.0000000000000022
 21
6.531043694906095
 31
0.0
  0
LINE
  5
52
100
AcDbEntity
  8
USP-GEO
100
AcDbLine
 10
-0.0000000000000018
 20
7.000000000000003
 30
0.0
 11
-0.0000000000000018
 21
6.812500000000003
 31
0.0
  0
LINE
  5
53
100
AcDbEntity
  8
USP-GEO
100
AcDbLine
 10
0.0746999999999973
 20
6.812500000000003
 30
0.0
 11
0.0746999999999973
 21
7.000000000000003
 31
0.0
  0
CIRCLE
  5
54
100
AcDbEntity
  8
USP-GEO
100
AcDbCircle
 10
1.074699999999997
 20
6.687500000000003
 30
0.0
 40
0.09
  0
LINE
  5
55
100
AcDbEntity
  8
USP-GEO
100
AcDbLine
 10
2.574699999999997
 20
6.0625
 30
0.0
 11
1.824699999999996
 21
6.8125
 31
0.0
  0
LINE
  5
56
100
AcDbEntity
  8
USP-GEO
100
AcDbLine
 10
1.824699999999996
 20
6.8125
 30
0.0
 11
1.824699999999996
 21
7.000000000000003
 31
0.0
  0
ENDBLK
  5
59
100
AcDbEntity
  8
0
100
AcDbBlockEnd
  0
BLOCK
  5
A4
100
AcDbEntity
  8
0
100
AcDbBlockBegin
  2
JA7_S
 70
     0
 10
0.0
 20
0.0
 30
0.0
  3
JA7_S
  1

  0
LINE
  5
5C
100
AcDbEntity
  8
USP-GEO
100
AcDbLine
 10
2.500000000000001
 20
5.750000000000005
 30
0.0
 11
2.500000000000001
 21
6.062499999999998
 31
0.0
  0
LINE
  5
5D
100
AcDbEntity
  8
USP-GEO
100
AcDbLine
 10
2.574700000000003
 20
5.750000000000005
 30
0.0
 11
2.574700000000003
 21
6.062499999999998
 31
0.0
  0
CIRCLE
  5
5E
100
AcDbEntity
  8
USP-GEO
100
AcDbCircle
 10
1.300763406756843
 20
5.843750000000001
 30
0.0
 40
0.09
  0
LINE
  5
5F
100
AcDbEntity
  8
USP-GEO
100
AcDbLine
 10
0.7500000000000018
 20
5.750000000000005
 30
0.0
 11
0.75
 21
6.062499999999998
 31
0.0
  0
TEXT
  5
60
100
AcDbEntity
  8
USP-TXT
100
AcDbText
 10
-2.379316666666665
 20
-1.451242146112972
 30
0.0
 40
0.5
  1
JA7 - SIDE VIEW
 72
     1
 11
1.287350000000001
 21
-1.451242146112972
 31
0.0
100
AcDbText
  0
CIRCLE
  5
61
100
AcDbEntity
  8
USP-GEO
100
AcDbCircle
 10
1.879007196049402
 20
4.200318999505212
 30
0.0
 40
0.09
  0
LINE
  5
62
100
AcDbEntity
  8
USP-GEO
100
AcDbLine
 10
0.75
 20
0.0
 30
0.0
 11
2.500000000000001
 21
0.0
 31
0.0
  0
CIRCLE
  5
63
100
AcDbEntity
  8
USP-GEO
100
AcDbCircle
 10
1.879007196049402
 20
2.095868915281697
 30
0.0
 40
0.09
  0
LINE
  5
64
100
AcDbEntity
  8
USP-GEO
100
AcDbLine
 10
0.0
 20
1.125000000000002
 30
0.0
 11
0.0
 21
1.875000000000002
 31
0.0
  0
LINE
  5
65
100
AcDbEntity
  8
USP-GEO
100
AcDbLine
 10
0.75
 20
0.3750000000000018
 30
0.0
 11
0.0
 21
1.125000000000002
 31
0.0
  0
LINE
  5
66
100
AcDbEntity
  8
USP-GEO
100
AcDbLine
 10
0.75
 20
0.0
 30
0.0
 11
0.75
 21
0.3750000000000018
 31
0.0
  0
CIRCLE
  5
67
100
AcDbEntity
  8
USP-GEO
100
AcDbCircle
 10
1.050763406756844
 20
0.3125
 30
0.0
 40
0.09
  0
CIRCLE
  5
68
100
AcDbEntity
  8
USP-GEO
100
AcDbCircle
 10
1.629007196049402
 20
1.104500000000003
 30
0.0
 40
0.09
  0
LINE
  5
69
100
AcDbEntity
  8
USP-GEO
100
AcDbLine
 10
0.75
 20
3.375
 30
0.0
 11
-0.0000000000000018
 21
4.125000000000004
 31
0.0
  0
LINE
  5
6A
100
AcDbEntity
  8
USP-GEO
100
AcDbLine
 10
0.0000000000000018
 20
1.875000000000002
 30
0.0
 11
0.7500000000000018
 21
2.625000000000002
 31
0.0
  0
CIRCLE
  5
6B
100
AcDbEntity
  8
USP-GEO
100
AcDbCircle
 10
0.4309163382193351
 20
1.716462641305197
 30
0.0
 40
0.09
  0
LINE
  5
6C
100
AcDbEntity
  8
USP-GEO
100
AcDbLine
 10
0.75
 20
3.375
 30
0.0
 11
0.7500000000000018
 21
2.625000000000002
 31
0.0
  0
LINE
  5
6D
100
AcDbEntity
  8
USP-GEO
100
AcDbLine
 10
0.0000000000000018
 20
5.000000000000001
 30
0.0
 11
0.7500000000000018
 21
5.750000000000005
 31
0.0
  0
LINE
  5
6E
100
AcDbEntity
  8
USP-GEO
100
AcDbLine
 10
0.0
 20
4.125000000000005
 30
0.0
 11
0.0
 21
5.000000000000001
 31
0.0
  0
CIRCLE
  5
6F
100
AcDbEntity
  8
USP-GEO
100
AcDbCircle
 10
0.4309163382193351
 20
4.596236246510583
 30
0.0
 40
0.09
  0
LINE
  5
70
100
AcDbEntity
  8
USP-GEO
100
AcDbLine
 10
2.500000000000001
 20
1.125000000000003
 30
0.0
 11
2.500000000000001
 21
1.875000000000002
 31
0.0
  0
LINE
  5
71
100
AcDbEntity
  8
USP-GEO
100
AcDbLine
 10
2.574700000000003
 20
1.125000000000003
 30
0.0
 11
2.574700000000003
 21
1.875000000000002
 31
0.0
  0
LINE
  5
72
100
AcDbEntity
  8
USP-GEO
100
AcDbLine
 10
2.500000000000003
 20
0.0000000000000009
 30
0.0
 11
2.500000000000003
 21
0.3750000000000027
 31
0.0
  0
LINE
  5
73
100
AcDbEntity
  8
USP-GEO
100
AcDbLine
 10
2.574700000000003
 20
0.0000000000000009
 30
0.0
 11
2.574700000000003
 21
0.3750000000000027
 31
0.0
  0
LINE
  5
74
100
AcDbEntity
  8
USP-GEO
100
AcDbLine
 10
2.500000000000003
 20
0.0000000000000009
 30
0.0
 11
2.574700000000003
 21
0.0000000000000009
 31
0.0
  0
LINE
  5
75
100
AcDbEntity
  8
USP-GEO
100
AcDbLine
 10
2.500000000000001
 20
1.125000000000003
 30
0.0
 11
2.574700000000003
 21
1.125000000000003
 31
0.0
  0
LINE
  5
76
100
AcDbEntity
  8
USP-GEO
100
AcDbLine
 10
2.500000000000001
 20
0.3750000000000027
 30
0.0
 11
2.574700000000003
 21
0.3750000000000027
 31
0.0
  0
LINE
  5
77
100
AcDbEntity
  8
USP-HID
100
AcDbLine
 10
2.500000000000003
 20
1.014500000000004
 30
0.0
 11
2.574700000000003
 21
1.014500000000004
 31
0.0
  0
LINE
  5
78
100
AcDbEntity
  8
USP-HID
100
AcDbLine
 10
2.500000000000001
 20
1.194500000000004
 30
0.0
 11
2.574700000000003
 21
1.194500000000004
 31
0.0
  0
LINE
  5
79
100
AcDbEntity
  8
USP-HID
100
AcDbLine
 10
2.500000000000003
 20
0.2225000000000008
 30
0.0
 11
2.574700000000003
 21
0.2225000000000008
 31
0.0
  0
LINE
  5
7A
100
AcDbEntity
  8
USP-HID
100
AcDbLine
 10
2.500000000000003
 20
0.402500000000001
 30
0.0
 11
2.574700000000003
 21
0.402500000000001
 31
0.0
  0
LINE
  5
7B
100
AcDbEntity
  8
USP-GEO
100
AcDbLine
 10
2.500000000000001
 20
0.3750000000000027
 30
0.0
 11
2.500000000000001
 21
1.125000000000002
 31
0.0
  0
LINE
  5
7C
100
AcDbEntity
  8
USP-GEO
100
AcDbLine
 10
2.574700000000003
 20
0.3750000000000027
 30
0.0
 11
2.574700000000003
 21
1.125000000000002
 31
0.0
  0
LINE
  5
7D
100
AcDbEntity
  8
USP-GEO
100
AcDbLine
 10
2.500000000000001
 20
3.375000000000003
 30
0.0
 11
2.500000000000001
 21
4.125000000000003
 31
0.0
  0
LINE
  5
7E
100
AcDbEntity
  8
USP-GEO
100
AcDbLine
 10
2.574700000000003
 20
3.375000000000003
 30
0.0
 11
2.574700000000003
 21
4.125000000000002
 31
0.0
  0
LINE
  5
7F
100
AcDbEntity
  8
USP-GEO
100
AcDbLine
 10
2.500000000000003
 20
1.875000000000002
 30
0.0
 11
2.500000000000003
 21
2.625000000000002
 31
0.0
  0
LINE
  5
80
100
AcDbEntity
  8
USP-GEO
100
AcDbLine
 10
2.574700000000003
 20
1.875000000000002
 30
0.0
 11
2.574700000000003
 21
2.625000000000002
 31
0.0
  0
LINE
  5
81
100
AcDbEntity
  8
USP-GEO
100
AcDbLine
 10
2.500000000000003
 20
1.875000000000002
 30
0.0
 11
2.574700000000003
 21
1.875000000000002
 31
0.0
  0
LINE
  5
82
100
AcDbEntity
  8
USP-HID
100
AcDbLine
 10
2.500000000000003
 20
1.806500000000002
 30
0.0
 11
2.574700000000003
 21
1.806500000000002
 31
0.0
  0
LINE
  5
83
100
AcDbEntity
  8
USP-HID
100
AcDbLine
 10
2.500000000000003
 20
1.986500000000002
 30
0.0
 11
2.574700000000003
 21
1.986500000000002
 31
0.0
  0
LINE
  5
84
100
AcDbEntity
  8
USP-GEO
100
AcDbLine
 10
2.500000000000001
 20
3.375000000000003
 30
0.0
 11
2.574700000000003
 21
3.375000000000003
 31
0.0
  0
LINE
  5
85
100
AcDbEntity
  8
USP-GEO
100
AcDbLine
 10
2.500000000000001
 20
2.625000000000003
 30
0.0
 11
2.574700000000003
 21
2.625000000000003
 31
0.0
  0
LINE
  5
86
100
AcDbEntity
  8
USP-HID
100
AcDbLine
 10
2.500000000000003
 20
2.598500000000004
 30
0.0
 11
2.574700000000003
 21
2.598500000000004
 31
0.0
  0
LINE
  5
87
100
AcDbEntity
  8
USP-HID
100
AcDbLine
 10
2.500000000000001
 20
2.778500000000004
 30
0.0
 11
2.574700000000003
 21
2.778500000000004
 31
0.0
  0
LINE
  5
88
100
AcDbEntity
  8
USP-GEO
100
AcDbLine
 10
2.500000000000001
 20
3.375000000000003
 30
0.0
 11
2.500000000000001
 21
2.625000000000003
 31
0.0
  0
LINE
  5
89
100
AcDbEntity
  8
USP-GEO
100
AcDbLine
 10
2.574700000000003
 20
2.625000000000003
 30
0.0
 11
2.574700000000003
 21
3.375000000000003
 31
0.0
  0
LINE
  5
8A
100
AcDbEntity
  8
USP-GEO
100
AcDbLine
 10
2.500000000000001
 20
4.125000000000003
 30
0.0
 11
2.500000000000001
 21
5.000000000000001
 31
0.0
  0
LINE
  5
8B
100
AcDbEntity
  8
USP-GEO
100
AcDbLine
 10
2.574700000000003
 20
4.125000000000001
 30
0.0
 11
2.574700000000003
 21
5.000000000000003
 31
0.0
  0
LINE
  5
8C
100
AcDbEntity
  8
USP-GEO
100
AcDbLine
 10
2.500000000000001
 20
4.125000000000003
 30
0.0
 11
2.574700000000003
 21
4.125000000000003
 31
0.0
  0
LINE
  5
8D
100
AcDbEntity
  8
USP-HID
100
AcDbLine
 10
2.500000000000003
 20
4.597500000000001
 30
0.0
 11
2.574700000000003
 21
4.597500000000001
 31
0.0
  0
LINE
  5
8E
100
AcDbEntity
  8
USP-HID
100
AcDbLine
 10
2.500000000000001
 20
3.598
 30
0.0
 11
2.574700000000001
 21
3.598
 31
0.0
  0
LINE
  5
8F
100
AcDbEntity
  8
USP-HID
100
AcDbLine
 10
2.500000000000003
 20
3.778
 30
0.0
 11
2.574700000000003
 21
3.778
 31
0.0
  0
LINE
  5
90
100
AcDbEntity
  8
USP-GEO
100
AcDbLine
 10
2.500000000000001
 20
5.750000000000005
 30
0.0
 11
2.574700000000003
 21
5.750000000000005
 31
0.0
  0
LINE
  5
91
100
AcDbEntity
  8
USP-GEO
100
AcDbLine
 10
2.500000000000001
 20
5.000000000000001
 30
0.0
 11
2.574700000000001
 21
5.000000000000001
 31
0.0
  0
LINE
  5
92
100
AcDbEntity
  8
USP-HID
100
AcDbLine
 10
2.500000000000001
 20
5.753750000000001
 30
0.0
 11
2.574700000000001
 21
5.753750000000001
 31
0.0
  0
LINE
  5
93
100
AcDbEntity
  8
USP-HID
100
AcDbLine
 10
2.500000000000003
 20
4.777500000000001
 30
0.0
 11
2.574700000000003
 21
4.777500000000001
 31
0.0
  0
LINE
  5
94
100
AcDbEntity
  8
USP-GEO
100
AcDbLine
 10
2.500000000000001
 20
5.000000000000001
 30
0.0
 11
2.500000000000001
 21
5.750000000000005
 31
0.0
  0
LINE
  5
95
100
AcDbEntity
  8
USP-GEO
100
AcDbLine
 10
2.574700000000001
 20
5.000000000000003
 30
0.0
 11
2.574700000000001
 21
5.750000000000006
 31
0.0
  0
CIRCLE
  5
96
100
AcDbEntity
  8
USP-GEO
100
AcDbCircle
 10
1.879007196049402
 20
6.621043694906093
 30
0.0
 40
0.09
  0
LINE
  5
97
100
AcDbEntity
  8
USP-GEO
100
AcDbLine
 10
2.500000000000001
 20
7.000000000000003
 30
0.0
 11
0.0000000000000018
 21
7.000000000000003
 31
0.0
  0
LINE
  5
98
100
AcDbEntity
  8
USP-GEO
100
AcDbLine
 10
0.75
 20
6.062499999999998
 30
0.0
 11
0.0000000000000018
 21
6.812500000000001
 31
0.0
  0
LINE
  5
99
100
AcDbEntity
  8
USP-GEO
100
AcDbLine
 10
0.0000000000000018
 20
6.812500000000001
 30
0.0
 11
0.0000000000000018
 21
7.000000000000001
 31
0.0
  0
LINE
  5
9A
100
AcDbEntity
  8
USP-GEO
100
AcDbLine
 10
2.500000000000001
 20
7.000000000000005
 30
0.0
 11
2.574700000000001
 21
7.000000000000005
 31
0.0
  0
LINE
  5
9B
100
AcDbEntity
  8
USP-GEO
100
AcDbLine
 10
2.500000000000001
 20
6.812499999999998
 30
0.0
 11
2.574700000000003
 21
6.812499999999998
 31
0.0
  0
LINE
  5
9C
100
AcDbEntity
  8
USP-GEO
100
AcDbLine
 10
2.500000000000001
 20
6.062499999999998
 30
0.0
 11
2.574700000000003
 21
6.062499999999998
 31
0.0
  0
LINE
  5
9D
100
AcDbEntity
  8
USP-HID
100
AcDbLine
 10
2.500000000000001
 20
6.597500000000001
 30
0.0
 11
2.574700000000001
 21
6.597500000000001
 31
0.0
  0
LINE
  5
9E
100
AcDbEntity
  8
USP-HID
100
AcDbLine
 10
2.500000000000001
 20
6.777500000000001
 30
0.0
 11
2.574700000000003
 21
6.777500000000001
 31
0.0
  0
LINE
  5
9F
100
AcDbEntity
  8
USP-HID
100
AcDbLine
 10
2.500000000000003
 20
5.933750000000001
 30
0.0
 11
2.574700000000003
 21
5.933750000000001
 31
0.0
  0
LINE
  5
A0
100
AcDbEntity
  8
USP-GEO
100
AcDbLine
 10
2.500000000000001
 20
6.062499999999998
 30
0.0
 11
2.500000000000001
 21
6.812499999999998
 31
0.0
  0
LINE
  5
A1
100
AcDbEntity
  8
USP-GEO
100
AcDbLine
 10
2.500000000000001
 20
6.812499999999998
 30
0.0
 11
2.500000000000001
 21
7.000000000000005
 31
0.0
  0
LINE
  5
A2
100
AcDbEntity
  8
USP-GEO
100
AcDbLine
 10
2.574700000000003
 20
6.062499999999998
 30
0.0
 11
2.574700000000003
 21
6.812499999999998
 31
0.0
  0
LINE
  5
A3
100
AcDbEntity
  8
USP-GEO
100
AcDbLine
 10
2.574700000000003
 20
6.812499999999998
 30
0.0
 11
2.574700000000003
 21
7.000000000000005
 31
0.0
  0
ENDBLK
  5
A5
100
AcDbEntity
  8
0
100
AcDbBlockEnd
  0
BLOCK
  5
C5
100
AcDbEntity
  8
0
100
AcDbBlockBegin
  2
JA7_T
 70
     0
 10
0.0
 20
0.0
 30
0.0
  3
JA7_T
  1

  0
TEXT
  5
A8
100
AcDbEntity
  8
USP-TXT
100
AcDbText
 10
-2.21265
 20
-1.385839121689976
 30
0.0
 40
0.5
  1
JA7 - TOP VIEW
 72
     1
 11
1.28735
 21
-1.385839121689976
 31
0.0
100
AcDbText
  0
LINE
  5
A9
100
AcDbEntity
  8
USP-GEO
100
AcDbLine
 10
1.8247
 20
2.5
 30
0.0
 11
0.0747000000000004
 21
2.5
 31
0.0
  0
LINE
  5
AA
100
AcDbEntity
  8
USP-GEO
100
AcDbLine
 10
1.8247
 20
2.574699999999999
 30
0.0
 11
-0.0000000000000004
 21
2.574699999999999
 31
0.0
  0
LINE
  5
AB
100
AcDbEntity
  8
USP-GEO
100
AcDbLine
 10
-0.0000000000000004
 20
2.574699999999999
 30
0.0
 11
0.0
 21
0.0
 31
0.0
  0
LINE
  5
AC
100
AcDbEntity
  8
USP-GEO
100
AcDbLine
 10
0.0747
 20
2.5
 30
0.0
 11
0.0747000000000004
 21
-0.0000000000000018
 31
0.0
  0
LINE
  5
AD
100
AcDbEntity
  8
USP-GEO
100
AcDbLine
 10
0.0746999999999996
 20
-0.0000000000000018
 30
0.0
 11
0.0000000000000004
 21
-0.0000000000000018
 31
0.0
  0
LINE
  5
AE
100
AcDbEntity
  8
USP-HID
100
AcDbLine
 10
0.0747000000000009
 20
0.3409163382193316
 30
0.0
 11
0.0000000000000009
 21
0.3409163382193316
 31
0.0
  0
LINE
  5
AF
100
AcDbEntity
  8
USP-HID
100
AcDbLine
 10
0.0747000000000009
 20
0.5209163382193314
 30
0.0
 11
0.0000000000000009
 21
0.5209163382193314
 31
0.0
  0
LINE
  5
B0
100
AcDbEntity
  8
USP-HID
100
AcDbLine
 10
0.0747000000000009
 20
0.9607634067568433
 30
0.0
 11
0.0000000000000009
 21
0.9607634067568433
 31
0.0
  0
LINE
  5
B1
100
AcDbEntity
  8
USP-HID
100
AcDbLine
 10
0.0747000000000013
 20
0.7499999999999965
 30
0.0
 11
0.0000000000000013
 21
0.7499999999999965
 31
0.0
  0
LINE
  5
B2
100
AcDbEntity
  8
USP-HID
100
AcDbLine
 10
0.0747000000000004
 20
1.390763406756839
 30
0.0
 11
0.0000000000000018
 21
1.390763406756839
 31
0.0
  0
LINE
  5
B3
100
AcDbEntity
  8
USP-HID
100
AcDbLine
 10
0.0747000000000004
 20
1.210763406756839
 30
0.0
 11
0.0000000000000018
 21
1.210763406756839
 31
0.0
  0
LINE
  5
B4
100
AcDbEntity
  8
USP-HID
100
AcDbLine
 10
0.0747000000000004
 20
1.5390071960494
 30
0.0
 11
0.0000000000000009
 21
1.5390071960494
 31
0.0
  0
LINE
  5
B5
100
AcDbEntity
  8
USP-HID
100
AcDbLine
 10
0.0747000000000009
 20
1.140763406756843
 30
0.0
 11
0.0000000000000009
 21
1.140763406756843
 31
0.0
  0
LINE
  5
B6
100
AcDbEntity
  8
USP-HID
100
AcDbLine
 10
0.0747000000000009
 20
1.969007196049396
 30
0.0
 11
0.0000000000000009
 21
1.969007196049396
 31
0.0
  0
LINE
  5
B7
100
AcDbEntity
  8
USP-HID
100
AcDbLine
 10
0.0747000000000009
 20
1.789007196049396
 30
0.0
 11
0.0000000000000009
 21
1.789007196049396
 31
0.0
  0
LINE
  5
B8
100
AcDbEntity
  8
USP-HID
100
AcDbLine
 10
0.0747000000000004
 20
1.7190071960494
 30
0.0
 11
0.0000000000000009
 21
1.7190071960494
 31
0.0
  0
LINE
  5
B9
100
AcDbEntity
  8
USP-HID
100
AcDbLine
 10
0.9847000000000004
 20
2.5
 30
0.0
 11
0.9847000000000004
 21
2.574699999999999
 31
0.0
  0
LINE
  5
BA
100
AcDbEntity
  8
USP-HID
100
AcDbLine
 10
1.1647
 20
2.5
 30
0.0
 11
1.1647
 21
2.574699999999999
 31
0.0
  0
LINE
  5
BB
100
AcDbEntity
  8
USP-HID
100
AcDbLine
 10
1.234700000000001
 20
2.5
 30
0.0
 11
1.234700000000001
 21
2.574699999999999
 31
0.0
  0
LINE
  5
BC
100
AcDbEntity
  8
USP-HID
100
AcDbLine
 10
1.4147
 20
2.5
 30
0.0
 11
1.4147
 21
2.574699999999999
 31
0.0
  0
LINE
  5
BD
100
AcDbEntity
  8
USP-GEO
100
AcDbLine
 10
2.574700000000001
 20
2.5
 30
0.0
 11
1.824700000000001
 21
2.5
 31
0.0
  0
LINE
  5
BE
100
AcDbEntity
  8
USP-GEO
100
AcDbLine
 10
2.5747
 20
2.574699999999999
 30
0.0
 11
1.8247
 21
2.574699999999999
 31
0.0
  0
LINE
  5
BF
100
AcDbEntity
  8
USP-HID
100
AcDbLine
 10
1.734700000000001
 20
2.5
 30
0.0
 11
1.734700000000001
 21
2.574699999999999
 31
0.0
  0
LINE
  5
C0
100
AcDbEntity
  8
USP-GEO
100
AcDbLine
 10
1.824699999999999
 20
2.5
 30
0.0
 11
1.824699999999999
 21
2.574699999999999
 31
0.0
  0
LINE
  5
C1
100
AcDbEntity
  8
USP-HID
100
AcDbLine
 10
1.9147
 20
2.5
 30
0.0
 11
1.9147
 21
2.574699999999999
 31
0.0
  0
LINE
  5
C2
100
AcDbEntity
  8
USP-HID
100
AcDbLine
 10
1.984700000000001
 20
2.5
 30
0.0
 11
1.984700000000001
 21
2.574699999999999
 31
0.0
  0
LINE
  5
C3
100
AcDbEntity
  8
USP-HID
100
AcDbLine
 10
2.164700000000001
 20
2.5
 30
0.0
 11
2.164700000000001
 21
2.574699999999999
 31
0.0
  0
LINE
  5
C4
100
AcDbEntity
  8
USP-GEO
100
AcDbLine
 10
2.574700000000001
 20
2.5
 30
0.0
 11
2.574700000000001
 21
2.574699999999999
 31
0.0
  0
ENDBLK
  5
C6
100
AcDbEntity
  8
0
100
AcDbBlockEnd
  0
ENDSEC
  0
SECTION
  2
ENTITIES
  0
INSERT
  5
3
100
AcDbEntity
  8
USP
100
AcDbBlockReference
  2
JA7_F
 10
2.713150919820008
 20
1.452030132439386
 30
0.0
  0
INSERT
  5
5A
100
AcDbEntity
  8
USP
100
AcDbBlockReference
  2
JA7_S
 10
11.4618772911532
 20
1.452030132439373
 30
0.0
  0
INSERT
  5
A6
100
AcDbEntity
  8
USP
100
AcDbBlockReference
  2
JA7_T
 10
2.713150919819999
 20
12.11529523612671
 30
0.0
  0
ENDSEC
  0
SECTION
  2
OBJECTS
  0
DICTIONARY
  5
DC
102
{ACAD_XDICTIONARY
360
DD
102
}
100
AcDbDictionary
  3
ACAD_GROUP
350
DA
  3
ACAD_MLINESTYLE
350
DB
1001
ACAD
1000
TREAT_AS_HARD
1070
     0
  0
DICTIONARY
  5
A
100
AcDbDictionary
280
     1
1001
ACAD
1000
TREAT_AS_HARD
1070
     1
  0
DICTIONARY
  5
1D
100
AcDbDictionary
280
     1
1001
ACAD
1000
TREAT_AS_HARD
1070
     1
  0
DICTIONARY
  5
C7
100
AcDbDictionary
280
     1
1001
ACAD
1000
TREAT_AS_HARD
1070
     1
  0
DICTIONARY
  5
CB
100
AcDbDictionary
280
     1
1001
ACAD
1000
TREAT_AS_HARD
1070
     1
  0
DICTIONARY
  5
DD
100
AcDbDictionary
280
     1
1001
ACAD
1000
TREAT_AS_HARD
1070
     1
  0
DICTIONARY
  5
DA
102
{ACAD_REACTORS
330
DC
102
}
100
AcDbDictionary
1001
ACAD
1000
TREAT_AS_HARD
1070
     0
  0
DICTIONARY
  5
DB
102
{ACAD_REACTORS
330
DC
102
}
100
AcDbDictionary
  3
STANDARD
350
DE
1001
ACAD
1000
TREAT_AS_HARD
1070
     0
  0
MLINESTYLE
  5
DE
102
{ACAD_REACTORS
330
DB
102
}
100
AcDbMlineStyle
  2
STANDARD
 70
     0
  3

 62
     0
 51
90.0
 52
90.0
 71
     2
 49
0.5
 62
   256
  6
BYLAYER
 49
-0.5
 62
   256
  6
BYLAYER
  0
ENDSEC
  0
EOF
