  0
SECTION
  2
HEADER
  9
$ACADVER
  1
AC1015
  9
$ACADMAINTVER
 70
    20
  9
$DWGCODEPAGE
  3
ANSI_1252
  9
$INSBASE
 10
0.0
 20
0.0
 30
0.0
  9
$EXTMIN
 10
0.0055484697395514
 20
0.0017639538943328
 30
0.0
  9
$EXTMAX
 10
10.19454917287926
 20
13.1113600123936
 30
0.0
  9
$LIMMIN
 10
0.0
 20
0.0
  9
$LIMMAX
 10
12.0
 20
9.0
  9
$ORTHOMODE
 70
     1
  9
$REGENMODE
 70
     1
  9
$FILLMODE
 70
     1
  9
$QTEXTMODE
 70
     0
  9
$MIRRTEXT
 70
     0
  9
$LTSCALE
 40
1.5
  9
$ATTMODE
 70
     1
  9
$TEXTSIZE
 40
0.75
  9
$TRACEWID
 40
0.05
  9
$TEXTSTYLE
  7
STANDARD
  9
$CLAYER
  8
USP
  9
$CELTYPE
  6
BYLAYER
  9
$CECOLOR
 62
   256
  9
$CELTSCALE
 40
1.0
  9
$DISPSILH
 70
     1
  9
$DIMSCALE
 40
5.0
  9
$DIMASZ
 40
0.125
  9
$DIMEXO
 40
0.0625
  9
$DIMDLI
 40
0.37890625
  9
$DIMRND
 40
0.0
  9
$DIMDLE
 40
0.0
  9
$DIMEXE
 40
0.09375
  9
$DIMTP
 40
0.0
  9
$DIMTM
 40
0.0
  9
$DIMTXT
 40
0.109375
  9
$DIMCEN
 40
0.0
  9
$DIMTSZ
 40
0.0
  9
$DIMTOL
 70
     0
  9
$DIMLIM
 70
     0
  9
$DIMTIH
 70
     1
  9
$DIMTOH
 70
     1
  9
$DIMSE1
 70
     0
  9
$DIMSE2
 70
     0
  9
$DIMTAD
 70
     0
  9
$DIMZIN
 70
     8
  9
$DIMBLK
  1

  9
$DIMASO
 70
     1
  9
$DIMSHO
 70
     1
  9
$DIMPOST
  1

  9
$DIMAPOST
  1

  9
$DIMALT
 70
     0
  9
$DIMALTD
 70
     2
  9
$DIMALTF
 40
25.4
  9
$DIMLFAC
 40
1.0
  9
$DIMTOFL
 70
     0
  9
$DIMTVP
 40
0.0
  9
$DIMTIX
 70
     0
  9
$DIMSOXD
 70
     0
  9
$DIMSAH
 70
     0
  9
$DIMBLK1
  1

  9
$DIMBLK2
  1

  9
$DIMSTYLE
  2
STANDARD
  9
$DIMCLRD
 70
     0
  9
$DIMCLRE
 70
     0
  9
$DIMCLRT
 70
   256
  9
$DIMTFAC
 40
1.0
  9
$DIMGAP
 40
0.08984375
  9
$DIMJUST
 70
     0
  9
$DIMSD1
 70
     0
  9
$DIMSD2
 70
     0
  9
$DIMTOLJ
 70
     1
  9
$DIMTZIN
 70
     0
  9
$DIMALTZ
 70
     0
  9
$DIMALTTZ
 70
     0
  9
$DIMUPT
 70
     1
  9
$DIMDEC
 70
     4
  9
$DIMTDEC
 70
     4
  9
$DIMALTU
 70
     2
  9
$DIMALTTD
 70
     2
  9
$DIMTXSTY
  7
STANDARD
  9
$DIMAUNIT
 70
     0
  9
$DIMADEC
 70
     0
  9
$DIMALTRND
 40
0.0
  9
$DIMAZIN
 70
     0
  9
$DIMDSEP
 70
    46
  9
$DIMATFIT
 70
     3
  9
$DIMFRAC
 70
     2
  9
$DIMLDRBLK
  1

  9
$DIMLUNIT
 70
     5
  9
$DIMLWD
 70
    -2
  9
$DIMLWE
 70
    -2
  9
$DIMTMOVE
 70
     0
  9
$LUNITS
 70
     5
  9
$LUPREC
 70
     6
  9
$SKETCHINC
 40
0.1
  9
$FILLETRAD
 40
0.0
  9
$AUNITS
 70
     0
  9
$AUPREC
 70
     1
  9
$MENU
  1
CUSTOM
  9
$ELEVATION
 40
0.0
  9
$PELEVATION
 40
0.0
  9
$THICKNESS
 40
0.0
  9
$LIMCHECK
 70
     0
  9
$CHAMFERA
 40
0.0
  9
$CHAMFERB
 40
0.0
  9
$CHAMFERC
 40
0.0
  9
$CHAMFERD
 40
0.0
  9
$SKPOLY
 70
     0
  9
$TDCREATE
 40
2451263.663231366
  9
$TDUCREATE
 40
2451263.871564699
  9
$TDUPDATE
 40
2455846.456349410
  9
$TDUUPDATE
 40
2455846.664682743
  9
$TDINDWG
 40
0.5551936458
  9
$TDUSRTIMER
 40
0.5551936458
  9
$USRTIMER
 70
     1
  9
$ANGBASE
 50
0.0
  9
$ANGDIR
 70
     0
  9
$PDMODE
 70
     0
  9
$PDSIZE
 40
0.0
  9
$PLINEWID
 40
0.0
  9
$SPLFRAME
 70
     0
  9
$SPLINETYPE
 70
     6
  9
$SPLINESEGS
 70
     8
  9
$HANDSEED
  5
DE
  9
$SURFTAB1
 70
     6
  9
$SURFTAB2
 70
     6
  9
$SURFTYPE
 70
     6
  9
$SURFU
 70
     6
  9
$SURFV
 70
     6
  9
$UCSBASE
  2

  9
$UCSNAME
  2

  9
$UCSORG
 10
0.0
 20
0.0
 30
0.0
  9
$UCSXDIR
 10
1.0
 20
0.0
 30
0.0
  9
$UCSYDIR
 10
0.0
 20
1.0
 30
0.0
  9
$UCSORTHOREF
  2

  9
$UCSORTHOVIEW
 70
     0
  9
$UCSORGTOP
 10
0.0
 20
0.0
 30
0.0
  9
$UCSORGBOTTOM
 10
0.0
 20
0.0
 30
0.0
  9
$UCSORGLEFT
 10
0.0
 20
0.0
 30
0.0
  9
$UCSORGRIGHT
 10
0.0
 20
0.0
 30
0.0
  9
$UCSORGFRONT
 10
0.0
 20
0.0
 30
0.0
  9
$UCSORGBACK
 10
0.0
 20
0.0
 30
0.0
  9
$PUCSBASE
  2

  9
$PUCSNAME
  2

  9
$PUCSORG
 10
0.0
 20
0.0
 30
0.0
  9
$PUCSXDIR
 10
1.0
 20
0.0
 30
0.0
  9
$PUCSYDIR
 10
0.0
 20
1.0
 30
0.0
  9
$PUCSORTHOREF
  2

  9
$PUCSORTHOVIEW
 70
     0
  9
$PUCSORGTOP
 10
0.0
 20
0.0
 30
0.0
  9
$PUCSORGBOTTOM
 10
0.0
 20
0.0
 30
0.0
  9
$PUCSORGLEFT
 10
0.0
 20
0.0
 30
0.0
  9
$PUCSORGRIGHT
 10
0.0
 20
0.0
 30
0.0
  9
$PUCSORGFRONT
 10
0.0
 20
0.0
 30
0.0
  9
$PUCSORGBACK
 10
0.0
 20
0.0
 30
0.0
  9
$USERI1
 70
     0
  9
$USERI2
 70
     0
  9
$USERI3
 70
     0
  9
$USERI4
 70
     0
  9
$USERI5
 70
     0
  9
$USERR1
 40
0.0
  9
$USERR2
 40
0.0
  9
$USERR3
 40
0.0
  9
$USERR4
 40
0.0
  9
$USERR5
 40
0.0
  9
$WORLDVIEW
 70
     1
  9
$SHADEDGE
 70
     3
  9
$SHADEDIF
 70
    70
  9
$TILEMODE
 70
     1
  9
$MAXACTVP
 70
    16
  9
$PINSBASE
 10
0.0
 20
0.0
 30
0.0
  9
$PLIMCHECK
 70
     0
  9
$PEXTMIN
 10
1.049999952316284
 20
0.7999999523162842
 30
0.0
  9
$PEXTMAX
 10
9.449999570846555
 20
7.199999570846556
 30
0.0
  9
$PLIMMIN
 10
0.0
 20
0.0
  9
$PLIMMAX
 10
12.0
 20
9.0
  9
$UNITMODE
 70
     0
  9
$VISRETAIN
 70
     0
  9
$PLINEGEN
 70
     0
  9
$PSLTSCALE
 70
     0
  9
$TREEDEPTH
 70
  3020
  9
$CMLSTYLE
  2
STANDARD
  9
$CMLJUST
 70
     0
  9
$CMLSCALE
 40
1.0
  9
$PROXYGRAPHICS
 70
     1
  9
$MEASUREMENT
 70
     0
  9
$CELWEIGHT
370
    -1
  9
$ENDCAPS
280
     0
  9
$JOINSTYLE
280
     0
  9
$LWDISPLAY
290
     0
  9
$INSUNITS
 70
     0
  9
$HYPERLINKBASE
  1

  9
$STYLESHEET
  1

  9
$XEDIT
290
     1
  9
$CEPSNTYPE
380
     0
  9
$PSTYLEMODE
290
     1
  9
$FINGERPRINTGUID
  2
{E77A4EE1-EA85-4814-A00F-8AB12E95AE18}
  9
$VERSIONGUID
  2
{4693155B-3089-45B3-A873-4FCF2CFD1EC5}
  9
$EXTNAMES
290
     1
  9
$PSVPSCALE
 40
0.0
  9
$OLESTARTUP
290
     0
  0
ENDSEC
  0
SECTION
  2
CLASSES
  0
CLASS
  1
ACDBDICTIONARYWDFLT
  2
AcDbDictionaryWithDefault
  3
ObjectDBX Classes
 90
        0
280
     0
281
     0
  0
CLASS
  1
ACDBPLACEHOLDER
  2
AcDbPlaceHolder
  3
ObjectDBX Classes
 90
        0
280
     0
281
     0
  0
CLASS
  1
LAYOUT
  2
AcDbLayout
  3
ObjectDBX Classes
 90
        0
280
     0
281
     0
  0
CLASS
  1
DICTIONARYVAR
  2
AcDbDictionaryVar
  3
ObjectDBX Classes
 90
        0
280
     0
281
     0
  0
ENDSEC
  0
SECTION
  2
TABLES
  0
TABLE
  2
VPORT
  5
BB
330
0
100
AcDbSymbolTable
 70
     2
  0
VPORT
  5
D6
330
BB
100
AcDbSymbolTableRecord
100
AcDbViewportTableRecord
  2
*Active
 70
     0
 10
0.0
 20
0.0
 11
1.0
 21
1.0
 12
-13.49194502678873
 22
17.32618769545356
 13
0.0
 23
0.0
 14
1.0
 24
1.0
 15
0.0
 25
0.0
 16
0.0
 26
0.0
 36
1.0
 17
23.09603071721725
 27
-10.27010416511326
 37
-10.44050274849355
 40
14.18712179931865
 41
2.092592592592592
 42
50.0
 43
10.55307667737539
 44
10.55307667737539
 50
0.0
 51
0.0
 71
     0
 72
   100
 73
     1
 74
     1
 75
     0
 76
     0
 77
     0
 78
     0
281
     0
 65
     1
110
0.0
120
0.0
130
0.0
111
1.0
121
0.0
131
0.0
112
0.0
122
1.0
132
0.0
 79
     0
146
0.0
  0
ENDTAB
  0
TABLE
  2
LTYPE
  5
B6
330
0
100
AcDbSymbolTable
 70
     1
  0
LTYPE
  5
B7
330
B6
100
AcDbSymbolTableRecord
100
AcDbLinetypeTableRecord
  2
BYBLOCK
 70
     0
  3

 72
    65
 73
     0
 40
0.0
  0
LTYPE
  5
B8
330
B6
100
AcDbSymbolTableRecord
100
AcDbLinetypeTableRecord
  2
BYLAYER
 70
     0
  3

 72
    65
 73
     0
 40
0.0
  0
LTYPE
  5
5
330
B6
100
AcDbSymbolTableRecord
100
AcDbLinetypeTableRecord
  2
CONTINUOUS
 70
     0
  3
Solid line
 72
    65
 73
     0
 40
0.0
  0
ENDTAB
  0
TABLE
  2
LAYER
  5
B4
330
0
100
AcDbSymbolTable
 70
     4
  0
LAYER
  5
3B
330
B4
100
AcDbSymbolTableRecord
100
AcDbLayerTableRecord
  2
0
 70
     0
 62
     7
  6
CONTINUOUS
370
    -3
390
CA
  0
LAYER
  5
D
330
B4
100
AcDbSymbolTableRecord
100
AcDbLayerTableRecord
  2
USP-Geo
 70
     0
 62
     7
  6
CONTINUOUS
370
    -3
390
CA
  0
LAYER
  5
8
330
B4
100
AcDbSymbolTableRecord
100
AcDbLayerTableRecord
  2
USP-Txt
 70
     0
 62
     7
  6
CONTINUOUS
370
    -3
390
CA
  0
LAYER
  5
4
330
B4
100
AcDbSymbolTableRecord
100
AcDbLayerTableRecord
  2
USP
 70
     0
 62
     7
  6
CONTINUOUS
370
    -3
390
CA
  0
ENDTAB
  0
TABLE
  2
STYLE
  5
B5
330
0
100
AcDbSymbolTable
 70
     1
  0
STYLE
  5
B
330
B5
100
AcDbSymbolTableRecord
100
AcDbTextStyleTableRecord
  2
STANDARD
 70
     0
 40
0.0
 41
1.0
 50
0.0
 71
     0
 42
0.75
  3
txt
  4

  0
ENDTAB
  0
TABLE
  2
VIEW
  5
B9
330
0
100
AcDbSymbolTable
 70
     0
  0
ENDTAB
  0
TABLE
  2
UCS
  5
BA
330
0
100
AcDbSymbolTable
 70
     0
  0
ENDTAB
  0
TABLE
  2
APPID
  5
BD
330
0
100
AcDbSymbolTable
 70
     1
  0
APPID
  5
BE
330
BD
100
AcDbSymbolTableRecord
100
AcDbRegAppTableRecord
  2
ACAD
 70
     0
  0
ENDTAB
  0
TABLE
  2
DIMSTYLE
  5
BF
330
0
100
AcDbSymbolTable
 70
     1
100
AcDbDimStyleTable
 71
     0
  0
DIMSTYLE
105
C7
330
BF
100
AcDbSymbolTableRecord
100
AcDbDimStyleTableRecord
  2
STANDARD
 70
     0
340
B
  0
ENDTAB
  0
TABLE
  2
BLOCK_RECORD
  5
1
330
0
100
AcDbSymbolTable
 70
     3
  0
BLOCK_RECORD
  5
2
102
{ACAD_XDICTIONARY
360
AB
102
}
330
1
100
AcDbSymbolTableRecord
100
AcDbBlockTableRecord
  2
*MODEL_SPACE
340
CF
  0
BLOCK_RECORD
  5
AF
102
{ACAD_XDICTIONARY
360
B0
102
}
330
1
100
AcDbSymbolTableRecord
100
AcDbBlockTableRecord
  2
*PAPER_SPACE
340
D0
  0
BLOCK_RECORD
  5
6
330
1
100
AcDbSymbolTableRecord
100
AcDbBlockTableRecord
  2
HUS26_T
340
0
102
{BLKREFS
331
3
102
}
  0
BLOCK_RECORD
  5
3E
330
1
100
AcDbSymbolTableRecord
100
AcDbBlockTableRecord
  2
HUS26_F
340
0
102
{BLKREFS
331
3D
102
}
  0
BLOCK_RECORD
  5
8B
330
1
100
AcDbSymbolTableRecord
100
AcDbBlockTableRecord
  2
HUS26_S
340
0
102
{BLKREFS
331
8A
102
}
  0
ENDTAB
  0
ENDSEC
  0
SECTION
  2
BLOCKS
  0
BLOCK
  5
AD
330
2
100
AcDbEntity
  8
0
100
AcDbBlockBegin
  2
*MODEL_SPACE
 70
     0
 10
0.0
 20
0.0
 30
0.0
  3
*MODEL_SPACE
  1

  0
ENDBLK
  5
AE
330
2
100
AcDbEntity
  8
0
100
AcDbBlockEnd
  0
BLOCK
  5
B2
330
AF
100
AcDbEntity
 67
     1
  8
0
100
AcDbBlockBegin
  2
*PAPER_SPACE
 70
     0
 10
0.0
 20
0.0
 30
0.0
  3
*PAPER_SPACE
  1

  0
ENDBLK
  5
B3
330
AF
100
AcDbEntity
 67
     1
  8
0
100
AcDbBlockEnd
  0
BLOCK
  5
3A
330
6
100
AcDbEntity
  8
0
100
AcDbBlockBegin
  2
HUS26_T
 70
     0
 10
0.0
 20
0.0
 30
0.0
  3
HUS26_T
  1

  0
TEXT
  5
7
330
6
100
AcDbEntity
  8
USP-Txt
100
AcDbText
 10
1.193251866375137
 20
-0.9352752898752729
 30
0.0
 40
0.203125
  1
HUS26 - TOP VIEW
 72
     1
 11
2.818251866375137
 21
-0.9352752898752729
 31
0.0
100
AcDbText
  0
LWPOLYLINE
  5
C
330
6
100
AcDbEntity
  8
USP-Geo
100
AcDbPolyline
 90
       21
 70
   128
 43
0.0
 10
1.948759899253486
 20
3.310016394942625
 10
1.948759899253486
 20
2.250026939345994
 10
2.001040513586243
 20
2.250026939345994
 10
2.001040513586243
 20
3.375367162858571
 10
0.0
 20
3.375367162858571
 10
0.0
 20
3.310016394942625
 10
0.0
 20
3.375367162858571
 10
2.001040513586243
 20
3.375367162858571
 10
2.001040513586243
 20
2.250026939345994
 10
2.001040513586243
 20
2.223886632179615
 10
2.001040513586243
 20
2.15853586426367
 10
2.001040513586243
 20
2.080114942764536
 10
2.001040513586243
 20
1.923273099766268
 10
2.001040513586243
 20
1.818711871100756
 10
2.001040513586243
 20
1.779501410351189
 10
2.001040513586243
 20
1.727220796018432
 10
2.001040513586243
 20
1.569725445341004
 10
2.001040513586243
 20
1.308322373677222
 10
2.001040513586243
 20
0.0261403071663775
 10
2.001040513586243
 20
0.0130701535831897
 10
2.001040513586243
 20
0.0
  0
LWPOLYLINE
  5
10
330
6
100
AcDbEntity
  8
USP-Geo
100
AcDbPolyline
 90
        2
 70
   129
 43
0.0
 10
1.948759899253486
 20
3.310016394942625
 10
0.0
 20
3.310016394942625
  0
LWPOLYLINE
  5
11
330
6
100
AcDbEntity
  8
USP-Geo
100
AcDbPolyline
 90
        2
 70
   129
 43
0.0
 10
3.622393065580844
 20
3.375367162858571
 10
5.623433579167086
 20
3.375367162858571
  0
LWPOLYLINE
  5
12
330
6
100
AcDbEntity
  8
USP-Geo
100
AcDbPolyline
 90
       26
 70
   128
 43
0.0
 10
3.622393065580844
 20
1.308322373677222
 10
3.622393065580844
 20
0.0261403071663775
 10
3.687743833496789
 20
0.0261403071663775
 10
3.687743833496789
 20
0.0130701535831897
 10
3.687743833496789
 20
0.0
 10
3.687743833496789
 20
0.0130701535831897
 10
3.687743833496789
 20
0.0261403071663775
 10
3.687743833496789
 20
1.308322373677222
 10
3.687743833496789
 20
1.569725445341004
 10
3.687743833496789
 20
1.727220796018432
 10
3.687743833496789
 20
1.779501410351189
 10
3.687743833496789
 20
1.818711871100756
 10
3.687743833496789
 20
1.923273099766268
 10
3.687743833496789
 20
2.080114942764536
 10
3.687743833496789
 20
2.15853586426367
 10
3.687743833496789
 20
2.223886632179615
 10
3.687743833496789
 20
2.250026939345994
 10
3.687743833496789
 20
3.310016394942625
 10
5.623433579167086
 20
3.310016394942625
 10
5.623433579167086
 20
3.375367162858571
 10
5.623433579167086
 20
3.310016394942625
 10
3.687743833496789
 20
3.310016394942625
 10
3.687743833496789
 20
2.250026939345994
 10
3.687743833496789
 20
2.223886632179615
 10
3.687743833496789
 20
2.15853586426367
 10
3.687743833496789
 20
2.080114942764536
  0
LWPOLYLINE
  5
13
330
6
100
AcDbEntity
  8
USP-Geo
100
AcDbPolyline
 90
       15
 70
   128
 43
0.0
 10
1.948759899253486
 20
3.310016394942625
 10
1.948759899253486
 20
2.250026939345994
 10
1.948759899253486
 20
2.223886632179615
 10
1.948759899253486
 20
2.15853586426367
 10
1.948759899253486
 20
2.080114942764536
 10
1.948759899253486
 20
1.923273099766268
 10
1.948759899253486
 20
1.818711871100756
 10
1.948759899253486
 20
1.779501410351189
 10
1.948759899253486
 20
1.727220796018432
 10
1.948759899253486
 20
1.569725445341004
 10
1.948759899253486
 20
1.308322373677222
 10
1.948759899253486
 20
0.0261403071663775
 10
1.948759899253486
 20
0.0130701535831897
 10
1.948759899253486
 20
0.0
 10
2.001040513586243
 20
0.0
  0
LWPOLYLINE
  5
14
330
6
100
AcDbEntity
  8
USP-Geo
100
AcDbPolyline
 90
        4
 70
   128
 43
0.0
 10
2.001040513586243
 20
0.0261403071663775
 10
2.001040513586243
 20
1.308322373677222
 10
1.948759899253486
 20
1.308322373677222
 10
1.948759899253486
 20
0.0261403071663775
  0
LWPOLYLINE
  5
15
330
6
100
AcDbEntity
  8
USP-Geo
100
AcDbPolyline
 90
       14
 70
   128
 43
0.0
 10
3.622393065580844
 20
3.375367162858571
 10
3.622393065580844
 20
2.250026939345994
 10
3.622393065580844
 20
2.223886632179615
 10
3.622393065580844
 20
2.15853586426367
 10
3.622393065580844
 20
2.080114942764536
 10
3.622393065580844
 20
1.923273099766268
 10
3.622393065580844
 20
1.818711871100756
 10
3.622393065580844
 20
1.779501410351189
 10
3.622393065580844
 20
1.727220796018432
 10
3.622393065580844
 20
1.569725445341004
 10
3.622393065580844
 20
1.308322373677222
 10
3.622393065580844
 20
0.0261403071663775
 10
3.622393065580844
 20
0.0130701535831897
 10
3.622393065580844
 20
0.0
  0
LWPOLYLINE
  5
16
330
6
100
AcDbEntity
  8
USP-Geo
100
AcDbPolyline
 90
       10
 70
   128
 43
0.0
 10
3.687743833496789
 20
0.0261403071663775
 10
3.687743833496789
 20
1.308322373677222
 10
3.622393065580844
 20
1.308322373677222
 10
3.622393065580844
 20
1.569725445341004
 10
3.622393065580844
 20
1.727220796018432
 10
3.622393065580844
 20
1.779501410351189
 10
3.687743833496789
 20
1.779501410351189
 10
3.687743833496789
 20
1.727220796018432
 10
3.687743833496789
 20
1.569725445341004
 10
3.687743833496789
 20
1.308322373677222
  0
LWPOLYLINE
  5
17
330
6
100
AcDbEntity
  8
USP-Geo
100
AcDbPolyline
 90
        2
 70
   129
 43
0.0
 10
3.347919840333874
 20
0.0784209214991343
 10
3.282569072417928
 20
0.0784209214991343
  0
LWPOLYLINE
  5
18
330
6
100
AcDbEntity
  8
USP-Geo
100
AcDbPolyline
 90
        4
 70
   128
 43
0.0
 10
2.445425735414669
 20
0.0
 10
2.432355581831481
 20
0.0392104607495671
 10
2.393145121081914
 20
0.0653507679159464
 10
2.353934660332347
 20
0.0784209214991343
  0
LWPOLYLINE
  5
19
330
6
100
AcDbEntity
  8
USP-Geo
100
AcDbPolyline
 90
        2
 70
   129
 43
0.0
 10
2.197092817334079
 20
0.0
 10
2.001040513586243
 20
0.0
  0
LWPOLYLINE
  5
1A
330
6
100
AcDbEntity
  8
USP-Geo
100
AcDbPolyline
 90
        2
 70
   128
 43
0.0
 10
1.948759899253486
 20
0.0
 10
1.949413406932645
 20
0.0
  0
LWPOLYLINE
  5
1B
330
6
100
AcDbEntity
  8
USP-Geo
100
AcDbPolyline
 90
        2
 70
   128
 43
0.0
 10
2.001040513586243
 20
0.0
 10
2.001694021265402
 20
0.0
  0
LWPOLYLINE
  5
1C
330
6
100
AcDbEntity
  8
USP-Geo
100
AcDbPolyline
 90
        6
 70
   129
 43
0.0
 10
2.001040513586243
 20
0.0
 10
2.001040513586243
 20
0.0130701535831897
 10
2.001040513586243
 20
0.0261403071663775
 10
1.948759899253486
 20
0.0261403071663775
 10
1.948759899253486
 20
0.0130701535831897
 10
1.948759899253486
 20
0.0
  0
LWPOLYLINE
  5
1D
330
6
100
AcDbEntity
  8
USP-Geo
100
AcDbPolyline
 90
        4
 70
   128
 43
0.0
 10
2.197092817334079
 20
0.0
 10
2.197092817334079
 20
0.0392104607495671
 10
2.236303278083646
 20
0.0653507679159464
 10
2.275513738833213
 20
0.0784209214991343
  0
LWPOLYLINE
  5
1E
330
6
100
AcDbEntity
  8
USP-Geo
100
AcDbPolyline
 90
        2
 70
   129
 43
0.0
 10
2.353934660332347
 20
0.0784209214991343
 10
2.275513738833213
 20
0.0784209214991343
  0
LWPOLYLINE
  5
1F
330
6
100
AcDbEntity
  8
USP-Geo
100
AcDbPolyline
 90
        2
 70
   129
 43
0.0
 10
3.191077997335606
 20
0.0
 10
2.445425735414669
 20
0.0
  0
LWPOLYLINE
  5
20
330
6
100
AcDbEntity
  8
USP-Geo
100
AcDbPolyline
 90
        4
 70
   128
 43
0.0
 10
3.282569072417928
 20
0.0784209214991343
 10
3.230288458085173
 20
0.0653507679159464
 10
3.204148150918793
 20
0.0392104607495671
 10
3.191077997335606
 20
0.0
  0
LWPOLYLINE
  5
21
330
6
100
AcDbEntity
  8
USP-Geo
100
AcDbPolyline
 90
        2
 70
   129
 43
0.0
 10
3.622393065580844
 20
0.0
 10
3.439410915416196
 20
0.0
  0
LWPOLYLINE
  5
22
330
6
100
AcDbEntity
  8
USP-Geo
100
AcDbPolyline
 90
        4
 70
   128
 43
0.0
 10
3.347919840333874
 20
0.0784209214991343
 10
3.400200454666629
 20
0.0653507679159464
 10
3.426340761833008
 20
0.0392104607495671
 10
3.439410915416196
 20
0.0
  0
LWPOLYLINE
  5
23
330
6
100
AcDbEntity
  8
USP-Geo
100
AcDbPolyline
 90
        2
 70
   129
 43
0.0
 10
3.687743833496789
 20
0.0
 10
3.622393065580844
 20
0.0
  0
LWPOLYLINE
  5
24
330
6
100
AcDbEntity
  8
USP-Geo
100
AcDbPolyline
 90
        3
 70
   128
 43
0.0
 10
3.622393065580844
 20
0.0261403071663775
 10
3.622393065580844
 20
0.0130701535831897
 10
3.622393065580844
 20
0.0
  0
LWPOLYLINE
  5
25
330
6
100
AcDbEntity
  8
USP-Geo
100
AcDbPolyline
 90
        2
 70
   129
 43
0.0
 10
3.623046573260003
 20
0.0
 10
3.622393065580844
 20
0.0
  0
LWPOLYLINE
  5
26
330
6
100
AcDbEntity
  8
USP-Geo
100
AcDbPolyline
 90
        2
 70
   129
 43
0.0
 10
3.282569072417928
 20
2.904188126184605
 10
3.347919840333874
 20
2.904188126184605
  0
LWPOLYLINE
  5
27
330
6
100
AcDbEntity
  8
USP-Geo
100
AcDbPolyline
 90
        4
 70
   128
 43
0.0
 10
2.275513738833213
 20
2.904188126184605
 10
2.236303278083646
 20
2.917258279767795
 10
2.197092817334079
 20
2.956468740517362
 10
2.197092817334079
 20
2.995679201266929
  0
LWPOLYLINE
  5
28
330
6
100
AcDbEntity
  8
USP-Geo
100
AcDbPolyline
 90
        4
 70
   128
 43
0.0
 10
2.445425735414669
 20
2.995679201266929
 10
2.432355581831481
 20
2.956468740517362
 10
2.393145121081914
 20
2.917258279767795
 10
2.353934660332347
 20
2.904188126184605
  0
LWPOLYLINE
  5
29
330
6
100
AcDbEntity
  8
USP-Geo
100
AcDbPolyline
 90
        4
 70
   128
 43
0.0
 10
3.282569072417928
 20
2.904188126184605
 10
3.230288458085173
 20
2.917258279767795
 10
3.204148150918793
 20
2.956468740517362
 10
3.191077997335606
 20
2.995679201266929
  0
LWPOLYLINE
  5
2A
330
6
100
AcDbEntity
  8
USP-Geo
100
AcDbPolyline
 90
        8
 70
   129
 43
0.0
 10
1.948759899253486
 20
2.080114942764536
 10
1.948759899253486
 20
1.923273099766268
 10
1.948759899253486
 20
1.818711871100756
 10
1.948759899253486
 20
1.779501410351189
 10
2.001040513586243
 20
1.779501410351189
 10
2.001040513586243
 20
1.818711871100756
 10
2.001040513586243
 20
1.923273099766268
 10
2.001040513586243
 20
2.080114942764536
  0
LWPOLYLINE
  5
2B
330
6
100
AcDbEntity
  8
USP-Geo
100
AcDbPolyline
 90
        8
 70
   128
 43
0.0
 10
2.001040513586243
 20
1.308322373677222
 10
2.001040513586243
 20
1.569725445341004
 10
2.001040513586243
 20
1.727220796018432
 10
2.001040513586243
 20
1.779501410351189
 10
1.948759899253486
 20
1.779501410351189
 10
1.948759899253486
 20
1.727220796018432
 10
1.948759899253486
 20
1.569725445341004
 10
1.948759899253486
 20
1.308322373677222
  0
LWPOLYLINE
  5
2C
330
6
100
AcDbEntity
  8
USP-Geo
100
AcDbPolyline
 90
        5
 70
   128
 43
0.0
 10
1.948759899253486
 20
2.459802904356179
 10
1.857268824171162
 20
2.368311829273855
 10
1.818058363421595
 20
2.210816478596427
 10
1.831128517004785
 20
2.145465710680481
 10
1.831782024683944
 20
2.145465710680481
  0
LWPOLYLINE
  5
2D
330
6
100
AcDbEntity
  8
USP-Geo
100
AcDbPolyline
 90
        9
 70
   128
 43
0.0
 10
1.948759899253486
 20
1.962483560515835
 10
1.896479284920729
 20
2.001694021265402
 10
1.896479284920729
 20
2.014764174848592
 10
1.883409131337542
 20
2.027834328431779
 10
1.883409131337542
 20
2.040904482014969
 10
1.857268824171162
 20
2.080114942764536
 10
1.844198670587974
 20
2.106255249930914
 10
1.831128517004785
 20
2.119325403514103
 10
1.831128517004785
 20
2.145465710680481
  0
LWPOLYLINE
  5
2E
330
6
100
AcDbEntity
  8
USP-Geo
100
AcDbPolyline
 90
        8
 70
   128
 43
0.0
 10
1.948759899253486
 20
2.080114942764536
 10
1.948759899253486
 20
2.15853586426367
 10
1.948759899253486
 20
2.223886632179615
 10
1.948759899253486
 20
2.250026939345994
 10
2.001040513586243
 20
2.250026939345994
 10
2.001040513586243
 20
2.223886632179615
 10
2.001040513586243
 20
2.15853586426367
 10
2.001040513586243
 20
2.080114942764536
  0
LWPOLYLINE
  5
2F
330
6
100
AcDbEntity
  8
USP-Geo
100
AcDbPolyline
 90
        2
 70
   129
 43
0.0
 10
2.275513738833213
 20
2.904188126184605
 10
2.353934660332347
 20
2.904188126184605
  0
LWPOLYLINE
  5
30
330
6
100
AcDbEntity
  8
USP-Geo
100
AcDbPolyline
 90
        2
 70
   129
 43
0.0
 10
2.001040513586243
 20
2.995679201266929
 10
2.197092817334079
 20
2.995679201266929
  0
LWPOLYLINE
  5
31
330
6
100
AcDbEntity
  8
USP-Geo
100
AcDbPolyline
 90
        2
 70
   129
 43
0.0
 10
2.445425735414669
 20
2.995679201266929
 10
3.191077997335606
 20
2.995679201266929
  0
LWPOLYLINE
  5
32
330
6
100
AcDbEntity
  8
USP-Geo
100
AcDbPolyline
 90
        2
 70
   128
 43
0.0
 10
3.439410915416196
 20
2.995679201266929
 10
3.426340761833008
 20
2.956468740517362
  0
LWPOLYLINE
  5
33
330
6
100
AcDbEntity
  8
USP-Geo
100
AcDbPolyline
 90
        7
 70
   128
 43
0.0
 10
3.622393065580844
 20
3.375367162858571
 10
3.622393065580844
 20
2.250026939345994
 10
3.687743833496789
 20
2.250026939345994
 10
3.622393065580844
 20
2.250026939345994
 10
3.622393065580844
 20
2.223886632179615
 10
3.622393065580844
 20
2.15853586426367
 10
3.622393065580844
 20
2.080114942764536
  0
LWPOLYLINE
  5
34
330
6
100
AcDbEntity
  8
USP-Geo
100
AcDbPolyline
 90
        8
 70
   129
 43
0.0
 10
3.622393065580844
 20
1.818711871100756
 10
3.622393065580844
 20
1.779501410351189
 10
3.687743833496789
 20
1.779501410351189
 10
3.687743833496789
 20
1.818711871100756
 10
3.687743833496789
 20
1.923273099766268
 10
3.687743833496789
 20
2.080114942764536
 10
3.622393065580844
 20
2.080114942764536
 10
3.622393065580844
 20
1.923273099766268
  0
LWPOLYLINE
  5
35
330
6
100
AcDbEntity
  8
USP-Geo
100
AcDbPolyline
 90
        4
 70
   128
 43
0.0
 10
3.806028723424649
 20
2.145465710680481
 10
3.819098877007839
 20
2.210816478596427
 10
3.766164754995923
 20
2.368311829273855
 10
3.687743833496789
 20
2.459802904356179
  0
LWPOLYLINE
  5
36
330
6
100
AcDbEntity
  8
USP-Geo
100
AcDbPolyline
 90
       10
 70
   128
 43
0.0
 10
3.687743833496789
 20
1.962483560515835
 10
3.726954294246356
 20
2.001694021265402
 10
3.726954294246356
 20
2.014764174848592
 10
3.740024447829545
 20
2.027834328431779
 10
3.753094601412733
 20
2.040904482014969
 10
3.766164754995923
 20
2.080114942764536
 10
3.779234908579113
 20
2.106255249930914
 10
3.792958569841461
 20
2.119325403514103
 10
3.806028723424649
 20
2.145465710680481
 10
3.80668223110381
 20
2.145465710680481
  0
LWPOLYLINE
  5
37
330
6
100
AcDbEntity
  8
USP-Geo
100
AcDbPolyline
 90
        2
 70
   129
 43
0.0
 10
3.400200454666629
 20
2.917258279767795
 10
3.426340761833008
 20
2.956468740517362
  0
LWPOLYLINE
  5
38
330
6
100
AcDbEntity
  8
USP-Geo
100
AcDbPolyline
 90
        2
 70
   128
 43
0.0
 10
3.400200454666629
 20
2.917258279767795
 10
3.347919840333874
 20
2.904188126184605
  0
LWPOLYLINE
  5
39
330
6
100
AcDbEntity
  8
USP-Geo
100
AcDbPolyline
 90
        2
 70
   129
 43
0.0
 10
3.439410915416196
 20
2.995679201266929
 10
3.622393065580844
 20
2.995679201266929
  0
ENDBLK
  5
3C
330
6
100
AcDbEntity
  8
0
100
AcDbBlockEnd
  0
BLOCK
  5
88
330
3E
100
AcDbEntity
  8
0
100
AcDbBlockBegin
  2
HUS26_F
 70
     0
 10
0.0
 20
0.0
 30
0.0
  3
HUS26_F
  1

  0
TEXT
  5
3F
330
3E
100
AcDbEntity
  8
USP-Txt
100
AcDbText
 10
0.9901268663751377
 20
-1.309207895917033
 30
0.0
 40
0.203125
  1
HUS26 - FRONT VIEW
 72
     1
 11
2.818251866375137
 21
-1.309207895917033
 31
0.0
100
AcDbText
  0
LWPOLYLINE
  5
40
330
3E
100
AcDbEntity
  8
USP-Geo
100
AcDbPolyline
 90
       30
 70
   128
 43
0.0
 10
2.197092817334079
 20
0.0
 10
1.948759899253486
 20
0.0
 10
1.948759899253486
 20
0.1568418429982685
 10
1.948759899253486
 20
0.1829821501646478
 10
1.948759899253486
 20
0.2091224573310253
 10
1.948759899253486
 20
0.2352627644974028
 10
1.948759899253486
 20
1.739637441922461
 10
1.948759899253486
 20
2.132395557097293
 10
1.948759899253486
 20
2.57743428660488
 10
1.948759899253486
 20
3.034889662016496
 10
1.948759899253486
 20
4.016458196113993
 10
1.948759899253486
 20
4.186370192695451
 10
1.948759899253486
 20
4.33014188211053
 10
1.948759899253486
 20
4.421632957192854
 10
1.948759899253486
 20
4.47391357152561
 10
1.948759899253486
 20
4.552988000703904
 10
1.948759899253486
 20
4.657549229369416
 10
1.948759899253486
 20
5.507762719955864
 10
0.0
 20
5.507762719955864
 10
0.0
 20
4.657549229369416
 10
0.0261403071663775
 20
4.552988000703904
 10
0.0914910750823239
 20
4.47391357152561
 10
0.1699119965814582
 20
4.421632957192854
 10
0.3267538395797267
 20
4.33014188211053
 10
0.4313150682452385
 20
4.186370192695451
 10
0.4705255289948056
 20
4.016458196113993
 10
0.4705255289948056
 20
3.034889662016496
 10
0.5228061433275624
 20
2.57743428660488
 10
0.6803014940049899
 20
2.132395557097293
 10
0.9417045656687701
 20
1.739637441922461
  0
LWPOLYLINE
  5
41
330
3E
100
AcDbEntity
  8
USP-Geo
100
AcDbPolyline
 90
       19
 70
   128
 43
0.0
 10
2.001040513586243
 20
0.1568418429982685
 10
2.001040513586243
 20
0.1829821501646478
 10
2.001040513586243
 20
0.2091224573310253
 10
2.001040513586243
 20
0.2352627644974028
 10
2.001040513586243
 20
1.739637441922461
 10
2.001040513586243
 20
2.132395557097293
 10
2.001040513586243
 20
2.57743428660488
 10
2.001040513586243
 20
3.034889662016496
 10
2.001040513586243
 20
4.016458196113993
 10
2.001040513586243
 20
4.186370192695451
 10
2.001040513586243
 20
4.33014188211053
 10
2.001040513586243
 20
4.421632957192854
 10
2.001040513586243
 20
4.47391357152561
 10
2.001040513586243
 20
4.552988000703904
 10
2.001040513586243
 20
4.657549229369416
 10
2.001040513586243
 20
5.507762719955864
 10
1.948759899253486
 20
5.507762719955864
 10
0.0
 20
5.507762719955864
 10
0.0
 20
4.657549229369416
  0
LWPOLYLINE
  5
42
330
3E
100
AcDbEntity
  8
USP-Geo
100
AcDbPolyline
 90
        2
 70
   129
 43
0.0
 10
1.948759899253486
 20
0.5757402653394781
 10
0.9417045656687701
 20
1.739637441922461
  0
LWPOLYLINE
  5
43
330
3E
100
AcDbEntity
  8
USP-Geo
100
AcDbPolyline
 90
       12
 70
   129
 43
0.0
 10
0.3136836859965371
 20
5.311710416208028
 10
0.3659643003292938
 20
5.298640262624839
 10
0.3921046074956713
 20
5.272499955458461
 10
0.405174761078861
 20
5.219565833446545
 10
0.3921046074956713
 20
5.180355372696978
 10
0.3659643003292938
 20
5.141144911947411
 10
0.3136836859965371
 20
5.128074758364221
 10
0.2744732252469699
 20
5.141144911947411
 10
0.2352627644974028
 20
5.180355372696978
 10
0.2221926109142132
 20
5.219565833446545
 10
0.2352627644974028
 20
5.272499955458461
 10
0.2744732252469699
 20
5.298640262624839
  0
LWPOLYLINE
  5
44
330
3E
100
AcDbEntity
  8
USP-Geo
100
AcDbPolyline
 90
        3
 70
   128
 43
0.0
 10
0.4313150682452385
 20
4.186370192695451
 10
0.4705255289948056
 20
4.016458196113993
 10
0.4705255289948056
 20
3.034889662016496
  0
LWPOLYLINE
  5
45
330
3E
100
AcDbEntity
  8
USP-Geo
100
AcDbPolyline
 90
       12
 70
   129
 43
0.0
 10
0.7456522619209345
 20
2.512083518688934
 10
0.7848627226705017
 20
2.551293979438501
 10
0.8240731834200687
 20
2.56436413302169
 10
0.8763537977528255
 20
2.551293979438501
 10
0.902494104919203
 20
2.512083518688934
 10
0.9155642585023926
 20
2.472873057939366
 10
0.902494104919203
 20
2.419938935927451
 10
0.8763537977528255
 20
2.393798628761073
 10
0.8240731834200687
 20
2.380728475177884
 10
0.7848627226705017
 20
2.393798628761073
 10
0.7456522619209345
 20
2.419938935927451
 10
0.7325821083377467
 20
2.472873057939366
  0
LWPOLYLINE
  5
46
330
3E
100
AcDbEntity
  8
USP-Geo
100
AcDbPolyline
 90
       12
 70
   129
 43
0.0
 10
0.7456522619209345
 20
4.513124032275177
 10
0.7848627226705017
 20
4.552988000703904
 10
0.8240731834200687
 20
4.566058154287093
 10
0.8763537977528255
 20
4.552988000703904
 10
0.902494104919203
 20
4.513124032275177
 10
0.9155642585023926
 20
4.47391357152561
 10
0.902494104919203
 20
4.434703110776043
 10
0.8763537977528255
 20
4.395492650026476
 10
0.8240731834200687
 20
4.382422496443287
 10
0.7848627226705017
 20
4.395492650026476
 10
0.7456522619209345
 20
4.434703110776043
 10
0.7325821083377467
 20
4.47391357152561
  0
LWPOLYLINE
  5
47
330
3E
100
AcDbEntity
  8
USP-Geo
100
AcDbPolyline
 90
        4
 70
   128
 43
0.0
 10
2.001040513586243
 20
4.657549229369416
 10
2.001040513586243
 20
5.507762719955864
 10
1.948759899253486
 20
5.507762719955864
 10
1.948759899253486
 20
4.657549229369416
  0
LWPOLYLINE
  5
48
330
3E
100
AcDbEntity
  8
USP-Geo
100
AcDbPolyline
 90
        6
 70
   129
 43
0.0
 10
3.622393065580844
 20
4.47391357152561
 10
3.622393065580844
 20
4.552988000703904
 10
3.622393065580844
 20
4.657549229369416
 10
3.622393065580844
 20
5.507762719955864
 10
3.622393065580844
 20
4.657549229369416
 10
3.622393065580844
 20
4.552988000703904
  0
LWPOLYLINE
  5
49
330
3E
100
AcDbEntity
  8
USP-Geo
100
AcDbPolyline
 90
        4
 70
   128
 43
0.0
 10
3.687743833496789
 20
4.657549229369416
 10
3.687743833496789
 20
5.507762719955864
 10
3.622393065580844
 20
5.507762719955864
 10
3.687743833496789
 20
5.507762719955864
  0
LWPOLYLINE
  5
4A
330
3E
100
AcDbEntity
  8
USP-Geo
100
AcDbPolyline
 90
       22
 70
   128
 43
0.0
 10
3.622393065580844
 20
0.2352627644974028
 10
3.622393065580844
 20
0.2091224573310253
 10
3.622393065580844
 20
0.1829821501646478
 10
3.622393065580844
 20
0.1568418429982685
 10
3.687743833496789
 20
0.1568418429982685
 10
3.687743833496789
 20
0.0
 10
3.687743833496789
 20
0.1568418429982685
 10
3.687743833496789
 20
0.1829821501646478
 10
3.687743833496789
 20
0.2091224573310253
 10
3.687743833496789
 20
0.2352627644974028
 10
3.687743833496789
 20
1.739637441922461
 10
3.687743833496789
 20
2.132395557097293
 10
3.687743833496789
 20
2.57743428660488
 10
3.687743833496789
 20
3.034889662016496
 10
3.687743833496789
 20
4.016458196113993
 10
3.687743833496789
 20
4.186370192695451
 10
3.687743833496789
 20
4.33014188211053
 10
3.687743833496789
 20
4.421632957192854
 10
3.687743833496789
 20
4.47391357152561
 10
3.687743833496789
 20
4.552988000703904
 10
3.687743833496789
 20
4.657549229369416
 10
3.687743833496789
 20
5.507762719955864
  0
LWPOLYLINE
  5
4B
330
3E
100
AcDbEntity
  8
USP-Geo
100
AcDbPolyline
 90
       14
 70
   128
 43
0.0
 10
4.681729013498316
 20
1.739637441922461
 10
4.943785592841257
 20
2.132395557097293
 10
5.113697589422713
 20
2.57743428660488
 10
5.16597820375547
 20
3.034889662016496
 10
5.16597820375547
 20
4.016458196113993
 10
5.205188664505037
 20
4.186370192695451
 10
5.309749893170549
 20
4.33014188211053
 10
5.453521582585629
 20
4.421632957192854
 10
5.545012657667951
 20
4.47391357152561
 10
5.610363425583898
 20
4.552988000703904
 10
5.623433579167086
 20
4.657549229369416
 10
5.623433579167086
 20
5.507762719955864
 10
5.623433579167086
 20
4.657549229369416
 10
5.610363425583898
 20
4.552988000703904
  0
LWPOLYLINE
  5
4C
330
3E
100
AcDbEntity
  8
USP-Geo
100
AcDbPolyline
 90
       12
 70
   129
 43
0.0
 10
5.231328971671414
 20
5.272499955458461
 10
5.270539432420981
 20
5.298640262624839
 10
5.309749893170549
 20
5.311710416208028
 10
5.362030507503305
 20
5.298640262624839
 10
5.388170814669683
 20
5.272499955458461
 10
5.401240968252873
 20
5.219565833446545
 10
5.388170814669683
 20
5.180355372696978
 10
5.362030507503305
 20
5.141144911947411
 10
5.309749893170549
 20
5.128074758364221
 10
5.270539432420981
 20
5.141144911947411
 10
5.231328971671414
 20
5.180355372696978
 10
5.218258818088227
 20
5.219565833446545
  0
LWPOLYLINE
  5
4D
330
3E
100
AcDbEntity
  8
USP-Geo
100
AcDbPolyline
 90
        4
 70
   128
 43
0.0
 10
2.001040513586243
 20
0.2352627644974028
 10
2.001040513586243
 20
1.739637441922461
 10
1.948759899253486
 20
1.739637441922461
 10
1.948759899253486
 20
0.2352627644974028
  0
LWPOLYLINE
  5
4E
330
3E
100
AcDbEntity
  8
USP-Geo
100
AcDbPolyline
 90
       13
 70
   128
 43
0.0
 10
3.622393065580844
 20
0.1568418429982685
 10
3.622393065580844
 20
0.1829821501646478
 10
3.622393065580844
 20
0.2091224573310253
 10
3.622393065580844
 20
0.2352627644974028
 10
3.622393065580844
 20
1.739637441922461
 10
3.622393065580844
 20
2.132395557097293
 10
3.622393065580844
 20
2.57743428660488
 10
3.622393065580844
 20
3.034889662016496
 10
3.622393065580844
 20
4.016458196113993
 10
3.622393065580844
 20
4.186370192695451
 10
3.622393065580844
 20
4.33014188211053
 10
3.622393065580844
 20
4.421632957192854
 10
3.622393065580844
 20
4.47391357152561
  0
LWPOLYLINE
  5
4F
330
3E
100
AcDbEntity
  8
USP-Geo
100
AcDbPolyline
 90
        8
 70
   128
 43
0.0
 10
3.687743833496789
 20
0.2352627644974028
 10
3.687743833496789
 20
1.739637441922461
 10
3.622393065580844
 20
1.739637441922461
 10
3.622393065580844
 20
0.2352627644974028
 10
3.687743833496789
 20
0.2352627644974028
 10
3.687743833496789
 20
0.2091224573310253
 10
3.687743833496789
 20
0.1829821501646478
 10
3.687743833496789
 20
0.1568418429982685
  0
LWPOLYLINE
  5
50
330
3E
100
AcDbEntity
  8
USP-Geo
100
AcDbPolyline
 90
        2
 70
   129
 43
0.0
 10
4.681729013498316
 20
1.739637441922461
 10
3.779234908579113
 20
0.6672313404218003
  0
LWPOLYLINE
  5
51
330
3E
100
AcDbEntity
  8
USP-Geo
100
AcDbPolyline
 90
        5
 70
   128
 43
0.0
 10
1.948759899253486
 20
1.256041759344467
 10
1.857268824171162
 20
1.164550684262144
 10
1.818058363421595
 20
1.007055333584716
 10
1.857268824171162
 20
0.850213490586448
 10
1.948759899253486
 20
0.7456522619209363
  0
LWPOLYLINE
  5
52
330
3E
100
AcDbEntity
  8
USP-Geo
100
AcDbPolyline
 90
        4
 70
   128
 43
0.0
 10
3.282569072417928
 20
0.0
 10
3.347919840333874
 20
0.0
 10
3.347919840333874
 20
0.0653507679159464
 10
3.282569072417928
 20
0.0653507679159464
  0
LWPOLYLINE
  5
53
330
3E
100
AcDbEntity
  8
USP-Geo
100
AcDbPolyline
 90
       16
 70
   128
 43
0.0
 10
3.439410915416196
 20
0.0653507679159464
 10
3.426340761833008
 20
0.0653507679159464
 10
3.400200454666629
 20
0.0653507679159464
 10
3.347919840333874
 20
0.0653507679159464
 10
3.282569072417928
 20
0.0653507679159464
 10
3.230288458085173
 20
0.0653507679159464
 10
3.204148150918793
 20
0.0653507679159464
 10
3.191077997335606
 20
0.0653507679159464
 10
2.445425735414669
 20
0.0653507679159464
 10
2.432355581831481
 20
0.0653507679159464
 10
2.393145121081914
 20
0.0653507679159464
 10
2.353934660332347
 20
0.0653507679159464
 10
2.275513738833213
 20
0.0653507679159464
 10
2.236303278083646
 20
0.0653507679159464
 10
2.197092817334079
 20
0.0653507679159464
 10
2.001040513586243
 20
0.0653507679159464
  0
LWPOLYLINE
  5
54
330
3E
100
AcDbEntity
  8
USP-Geo
100
AcDbPolyline
 90
       17
 70
   128
 43
0.0
 10
3.439410915416196
 20
0.0
 10
3.687743833496789
 20
0.0
 10
3.439410915416196
 20
0.0
 10
3.426340761833008
 20
0.0
 10
3.400200454666629
 20
0.0
 10
3.347919840333874
 20
0.0
 10
3.282569072417928
 20
0.0
 10
3.230288458085173
 20
0.0
 10
3.204148150918793
 20
0.0
 10
3.191077997335606
 20
0.0
 10
2.445425735414669
 20
0.0
 10
2.432355581831481
 20
0.0
 10
2.393145121081914
 20
0.0
 10
2.353934660332347
 20
0.0
 10
2.275513738833213
 20
0.0
 10
2.236303278083646
 20
0.0
 10
2.197092817334079
 20
0.0
  0
LWPOLYLINE
  5
55
330
3E
100
AcDbEntity
  8
USP-Geo
100
AcDbPolyline
 90
        8
 70
   128
 43
0.0
 10
2.353934660332347
 20
0.0
 10
2.393145121081914
 20
0.0
 10
2.432355581831481
 20
0.0
 10
2.445425735414669
 20
0.0
 10
2.445425735414669
 20
0.0653507679159464
 10
2.432355581831481
 20
0.0653507679159464
 10
2.393145121081914
 20
0.0653507679159464
 10
2.353934660332347
 20
0.0653507679159464
  0
LWPOLYLINE
  5
56
330
3E
100
AcDbEntity
  8
USP-Geo
100
AcDbPolyline
 90
        5
 70
   128
 43
0.0
 10
1.948759899253486
 20
0.1568418429982685
 10
1.948759899253486
 20
0.0
 10
2.197092817334079
 20
0.0
 10
2.197092817334079
 20
0.0653507679159464
 10
2.001040513586243
 20
0.0653507679159464
  0
LWPOLYLINE
  5
57
330
3E
100
AcDbEntity
  8
USP-Geo
100
AcDbPolyline
 90
        2
 70
   129
 43
0.0
 10
2.001040513586243
 20
0.1568418429982685
 10
2.001040513586243
 20
0.0653507679159464
  0
LWPOLYLINE
  5
58
330
3E
100
AcDbEntity
  8
USP-Geo
100
AcDbPolyline
 90
        7
 70
   128
 43
0.0
 10
2.197092817334079
 20
0.0
 10
2.236303278083646
 20
0.0
 10
2.275513738833213
 20
0.0
 10
2.275513738833213
 20
0.0653507679159464
 10
2.236303278083646
 20
0.0653507679159464
 10
2.197092817334079
 20
0.0653507679159464
 10
2.197746325013238
 20
0.0653507679159464
  0
LWPOLYLINE
  5
59
330
3E
100
AcDbEntity
  8
USP-Geo
100
AcDbPolyline
 90
        2
 70
   129
 43
0.0
 10
2.197746325013238
 20
0.0
 10
2.197092817334079
 20
0.0
  0
LWPOLYLINE
  5
5A
330
3E
100
AcDbEntity
  8
USP-Geo
100
AcDbPolyline
 90
        4
 70
   128
 43
0.0
 10
2.275513738833213
 20
0.0
 10
2.353934660332347
 20
0.0
 10
2.353934660332347
 20
0.0653507679159464
 10
2.275513738833213
 20
0.0653507679159464
  0
LWPOLYLINE
  5
5B
330
3E
100
AcDbEntity
  8
USP-Geo
100
AcDbPolyline
 90
       16
 70
   129
 43
0.0
 10
1.883409131337542
 20
0.9417045656687719
 10
1.883409131337542
 20
0.9286344120855822
 10
1.857268824171162
 20
0.9286344120855822
 10
1.844198670587974
 20
0.9286344120855822
 10
1.831128517004785
 20
0.9417045656687719
 10
1.831128517004785
 20
0.9678448728351494
 10
1.831128517004785
 20
1.007055333584716
 10
1.831128517004785
 20
1.033195640751094
 10
1.831128517004785
 20
1.059335947917473
 10
1.844198670587974
 20
1.072406101500661
 10
1.857268824171162
 20
1.086129762763009
 10
1.883409131337542
 20
1.072406101500661
 10
1.883409131337542
 20
1.059335947917473
 10
1.896479284920729
 20
1.033195640751094
 10
1.896479284920729
 20
1.007055333584716
 10
1.896479284920729
 20
0.9678448728351494
  0
LWPOLYLINE
  5
5C
330
3E
100
AcDbEntity
  8
USP-Geo
100
AcDbPolyline
 90
        7
 70
   128
 43
0.0
 10
1.884062639016701
 20
1.059335947917473
 10
1.883409131337542
 20
1.059335947917473
 10
1.883409131337542
 20
1.033195640751094
 10
1.883409131337542
 20
1.007055333584716
 10
1.883409131337542
 20
0.9678448728351494
 10
1.883409131337542
 20
0.9417045656687719
 10
1.884062639016701
 20
0.9417045656687719
  0
LWPOLYLINE
  5
5D
330
3E
100
AcDbEntity
  8
USP-Geo
100
AcDbPolyline
 90
        8
 70
   129
 43
0.0
 10
1.948759899253486
 20
0.2352627644974028
 10
1.948759899253486
 20
0.2091224573310253
 10
1.948759899253486
 20
0.1829821501646478
 10
1.948759899253486
 20
0.1568418429982685
 10
2.001040513586243
 20
0.1568418429982685
 10
2.001040513586243
 20
0.1829821501646478
 10
2.001040513586243
 20
0.2091224573310253
 10
2.001040513586243
 20
0.2352627644974028
  0
LWPOLYLINE
  5
5E
330
3E
100
AcDbEntity
  8
USP-Geo
100
AcDbPolyline
 90
        4
 70
   128
 43
0.0
 10
2.445425735414669
 20
0.0
 10
3.191077997335606
 20
0.0
 10
3.191077997335606
 20
0.0653507679159464
 10
2.445425735414669
 20
0.0653507679159464
  0
LWPOLYLINE
  5
5F
330
3E
100
AcDbEntity
  8
USP-Geo
100
AcDbPolyline
 90
        8
 70
   128
 43
0.0
 10
3.191077997335606
 20
0.0
 10
3.204148150918793
 20
0.0
 10
3.230288458085173
 20
0.0
 10
3.282569072417928
 20
0.0
 10
3.282569072417928
 20
0.0653507679159464
 10
3.230288458085173
 20
0.0653507679159464
 10
3.204148150918793
 20
0.0653507679159464
 10
3.191077997335606
 20
0.0653507679159464
  0
LWPOLYLINE
  5
60
330
3E
100
AcDbEntity
  8
USP-Geo
100
AcDbPolyline
 90
        2
 70
   129
 43
0.0
 10
3.622393065580844
 20
0.0653507679159464
 10
3.622393065580844
 20
0.1568418429982685
  0
LWPOLYLINE
  5
61
330
3E
100
AcDbEntity
  8
USP-Geo
100
AcDbPolyline
 90
        3
 70
   128
 43
0.0
 10
3.622393065580844
 20
0.0653507679159464
 10
3.439410915416196
 20
0.0653507679159464
 10
3.622393065580844
 20
0.0653507679159464
  0
LWPOLYLINE
  5
62
330
3E
100
AcDbEntity
  8
USP-Geo
100
AcDbPolyline
 90
        8
 70
   128
 43
0.0
 10
3.347919840333874
 20
0.0
 10
3.400200454666629
 20
0.0
 10
3.426340761833008
 20
0.0
 10
3.439410915416196
 20
0.0
 10
3.439410915416196
 20
0.0653507679159464
 10
3.426340761833008
 20
0.0653507679159464
 10
3.400200454666629
 20
0.0653507679159464
 10
3.347919840333874
 20
0.0653507679159464
  0
LWPOLYLINE
  5
63
330
3E
100
AcDbEntity
  8
USP-Geo
100
AcDbPolyline
 90
        5
 70
   128
 43
0.0
 10
3.687743833496789
 20
0.5626701117562885
 10
3.766164754995923
 20
0.6541611868386124
 10
3.819098877007839
 20
0.8110030298368808
 10
3.766164754995923
 20
0.9678448728351494
 10
3.687743833496789
 20
1.059335947917473
  0
LWPOLYLINE
  5
64
330
3E
100
AcDbEntity
  8
USP-Geo
100
AcDbPolyline
 90
       16
 70
   128
 43
0.0
 10
3.766164754995923
 20
0.9678448728351494
 10
3.806028723424649
 20
0.850213490586448
 10
3.792958569841461
 20
0.8632836441696376
 10
3.779234908579113
 20
0.8894239513360151
 10
3.766164754995923
 20
0.8894239513360151
 10
3.753094601412733
 20
0.8894239513360151
 10
3.740024447829545
 20
0.8632836441696376
 10
3.726954294246356
 20
0.850213490586448
 10
3.726954294246356
 20
0.8110030298368808
 10
3.726954294246356
 20
0.7848627226705034
 10
3.740024447829545
 20
0.7587224155041242
 10
3.753094601412733
 20
0.7848627226705034
 10
3.753094601412733
 20
0.8110030298368808
 10
3.753094601412733
 20
0.850213490586448
 10
3.740024447829545
 20
0.8632836441696376
 10
3.740024447829545
 20
0.8763537977528255
  0
LWPOLYLINE
  5
65
330
3E
100
AcDbEntity
  8
USP-Geo
100
AcDbPolyline
 90
        8
 70
   128
 43
0.0
 10
3.806028723424649
 20
0.850213490586448
 10
3.806028723424649
 20
0.8110030298368808
 10
3.806028723424649
 20
0.7848627226705034
 10
3.792958569841461
 20
0.7587224155041242
 10
3.779234908579113
 20
0.7456522619209363
 10
3.766164754995923
 20
0.7325821083377467
 10
3.753094601412733
 20
0.7456522619209363
 10
3.740024447829545
 20
0.7587224155041242
  0
LWPOLYLINE
  5
66
330
3E
100
AcDbEntity
  8
USP-Geo
100
AcDbPolyline
 90
        4
 70
   128
 43
0.0
 10
2.001040513586243
 20
3.034889662016496
 10
2.001040513586243
 20
4.016458196113993
 10
1.948759899253486
 20
4.016458196113993
 10
1.948759899253486
 20
3.034889662016496
  0
LWPOLYLINE
  5
67
330
3E
100
AcDbEntity
  8
USP-Geo
100
AcDbPolyline
 90
        8
 70
   128
 43
0.0
 10
2.001040513586243
 20
1.739637441922461
 10
2.001040513586243
 20
2.132395557097293
 10
2.001040513586243
 20
2.57743428660488
 10
2.001040513586243
 20
3.034889662016496
 10
1.948759899253486
 20
3.034889662016496
 10
1.948759899253486
 20
2.57743428660488
 10
1.948759899253486
 20
2.132395557097293
 10
1.948759899253486
 20
1.739637441922461
  0
LWPOLYLINE
  5
68
330
3E
100
AcDbEntity
  8
USP-Geo
100
AcDbPolyline
 90
       12
 70
   129
 43
0.0
 10
1.464510708996332
 20
1.517444831008248
 10
1.49065101616271
 20
1.543585138174625
 10
1.542931630495466
 20
1.556655291757815
 10
1.582142091245033
 20
1.543585138174625
 10
1.608282398411411
 20
1.517444831008248
 10
1.622006059673759
 20
1.465164216675491
 10
1.608282398411411
 20
1.425953755925924
 10
1.582142091245033
 20
1.386743295176357
 10
1.542931630495466
 20
1.386743295176357
 10
1.49065101616271
 20
1.386743295176357
 10
1.464510708996332
 20
1.425953755925924
 10
1.451440555413142
 20
1.465164216675491
  0
LWPOLYLINE
  5
69
330
3E
100
AcDbEntity
  8
USP-Geo
100
AcDbPolyline
 90
        5
 70
   128
 43
0.0
 10
1.948759899253486
 20
2.747346283186336
 10
1.857268824171162
 20
2.655855208104014
 10
1.818058363421595
 20
2.499013365105746
 10
1.857268824171162
 20
2.341518014428316
 10
1.948759899253486
 20
2.250026939345994
  0
LWPOLYLINE
  5
6A
330
3E
100
AcDbEntity
  8
USP-Geo
100
AcDbPolyline
 90
       16
 70
   129
 43
0.0
 10
1.831128517004785
 20
2.472873057939366
 10
1.831128517004785
 20
2.499013365105746
 10
1.831128517004785
 20
2.538223825855313
 10
1.831128517004785
 20
2.56436413302169
 10
1.844198670587974
 20
2.57743428660488
 10
1.857268824171162
 20
2.57743428660488
 10
1.883409131337542
 20
2.57743428660488
 10
1.883409131337542
 20
2.56436413302169
 10
1.896479284920729
 20
2.538223825855313
 10
1.896479284920729
 20
2.499013365105746
 10
1.896479284920729
 20
2.472873057939366
 10
1.883409131337542
 20
2.44607924309383
 10
1.883409131337542
 20
2.43300908951064
 10
1.857268824171162
 20
2.419938935927451
 10
1.844198670587974
 20
2.43300908951064
 10
1.831128517004785
 20
2.44607924309383
  0
LWPOLYLINE
  5
6B
330
3E
100
AcDbEntity
  8
USP-Geo
100
AcDbPolyline
 90
        7
 70
   128
 43
0.0
 10
1.884062639016701
 20
2.56436413302169
 10
1.883409131337542
 20
2.56436413302169
 10
1.883409131337542
 20
2.538223825855313
 10
1.883409131337542
 20
2.499013365105746
 10
1.883409131337542
 20
2.472873057939366
 10
1.883409131337542
 20
2.44607924309383
 10
1.884062639016701
 20
2.44607924309383
  0
LWPOLYLINE
  5
6C
330
3E
100
AcDbEntity
  8
USP-Geo
100
AcDbPolyline
 90
       12
 70
   129
 43
0.0
 10
1.451440555413142
 20
2.969538894100551
 10
1.464510708996332
 20
3.021819508433306
 10
1.49065101616271
 20
3.047959815599686
 10
1.542931630495466
 20
3.061029969182873
 10
1.582142091245033
 20
3.047959815599686
 10
1.608282398411411
 20
3.021819508433306
 10
1.622006059673759
 20
2.969538894100551
 10
1.608282398411411
 20
2.930328433350984
 10
1.582142091245033
 20
2.891117972601417
 10
1.542931630495466
 20
2.878047819018227
 10
1.49065101616271
 20
2.891117972601417
 10
1.464510708996332
 20
2.930328433350984
  0
LWPOLYLINE
  5
6D
330
3E
100
AcDbEntity
  8
USP-Geo
100
AcDbPolyline
 90
        8
 70
   128
 43
0.0
 10
2.001040513586243
 20
4.016458196113993
 10
2.001040513586243
 20
4.186370192695451
 10
2.001040513586243
 20
4.33014188211053
 10
2.001040513586243
 20
4.421632957192854
 10
1.948759899253486
 20
4.421632957192854
 10
1.948759899253486
 20
4.33014188211053
 10
1.948759899253486
 20
4.186370192695451
 10
1.948759899253486
 20
4.016458196113993
  0
LWPOLYLINE
  5
6E
330
3E
100
AcDbEntity
  8
USP-Geo
100
AcDbPolyline
 90
        5
 70
   128
 43
0.0
 10
1.948759899253486
 20
4.251720960611396
 10
1.857268824171162
 20
4.160229885529073
 10
1.818058363421595
 20
4.003388042530804
 10
1.857268824171162
 20
3.845892691853376
 10
1.948759899253486
 20
3.754401616771053
  0
LWPOLYLINE
  5
6F
330
3E
100
AcDbEntity
  8
USP-Geo
100
AcDbPolyline
 90
       16
 70
   129
 43
0.0
 10
1.883409131337542
 20
3.951107428198048
 10
1.883409131337542
 20
3.92496712103167
 10
1.857268824171162
 20
3.92496712103167
 10
1.844198670587974
 20
3.92496712103167
 10
1.831128517004785
 20
3.951107428198048
 10
1.831128517004785
 20
3.977247735364426
 10
1.831128517004785
 20
4.003388042530804
 10
1.831128517004785
 20
4.029528349697183
 10
1.831128517004785
 20
4.05566865686356
 10
1.844198670587974
 20
4.081808964029939
 10
1.857268824171162
 20
4.081808964029939
 10
1.883409131337542
 20
4.081808964029939
 10
1.883409131337542
 20
4.05566865686356
 10
1.896479284920729
 20
4.029528349697183
 10
1.896479284920729
 20
4.003388042530804
 10
1.896479284920729
 20
3.977247735364426
  0
LWPOLYLINE
  5
70
330
3E
100
AcDbEntity
  8
USP-Geo
100
AcDbPolyline
 90
       12
 70
   129
 43
0.0
 10
1.451440555413142
 20
3.977247735364426
 10
1.464510708996332
 20
4.016458196113993
 10
1.49065101616271
 20
4.05566865686356
 10
1.542931630495466
 20
4.06873881044675
 10
1.582142091245033
 20
4.05566865686356
 10
1.608282398411411
 20
4.016458196113993
 10
1.622006059673759
 20
3.977247735364426
 10
1.608282398411411
 20
3.92496712103167
 10
1.582142091245033
 20
3.898826813865292
 10
1.542931630495466
 20
3.885756660282103
 10
1.49065101616271
 20
3.898826813865292
 10
1.464510708996332
 20
3.92496712103167
  0
LWPOLYLINE
  5
71
330
3E
100
AcDbEntity
  8
USP-Geo
100
AcDbPolyline
 90
        7
 70
   128
 43
0.0
 10
1.884062639016701
 20
4.05566865686356
 10
1.883409131337542
 20
4.05566865686356
 10
1.883409131337542
 20
4.029528349697183
 10
1.883409131337542
 20
4.003388042530804
 10
1.883409131337542
 20
3.977247735364426
 10
1.883409131337542
 20
3.951107428198048
 10
1.884062639016701
 20
3.951107428198048
  0
LWPOLYLINE
  5
72
330
3E
100
AcDbEntity
  8
USP-Geo
100
AcDbPolyline
 90
       12
 70
   129
 43
0.0
 10
1.464510708996332
 20
5.02351352969871
 10
1.49065101616271
 20
5.049653836865087
 10
1.542931630495466
 20
5.062723990448277
 10
1.582142091245033
 20
5.049653836865087
 10
1.608282398411411
 20
5.02351352969871
 10
1.622006059673759
 20
4.971232915365953
 10
1.608282398411411
 20
4.932022454616386
 10
1.582142091245033
 20
4.892811993866819
 10
1.542931630495466
 20
4.87974184028363
 10
1.49065101616271
 20
4.892811993866819
 10
1.464510708996332
 20
4.932022454616386
 10
1.451440555413142
 20
4.971232915365953
  0
LWPOLYLINE
  5
73
330
3E
100
AcDbEntity
  8
USP-Geo
100
AcDbPolyline
 90
        8
 70
   128
 43
0.0
 10
2.001040513586243
 20
4.421632957192854
 10
2.001040513586243
 20
4.47391357152561
 10
2.001040513586243
 20
4.552988000703904
 10
2.001040513586243
 20
4.657549229369416
 10
1.948759899253486
 20
4.657549229369416
 10
1.948759899253486
 20
4.552988000703904
 10
1.948759899253486
 20
4.47391357152561
 10
1.948759899253486
 20
4.421632957192854
  0
LWPOLYLINE
  5
74
330
3E
100
AcDbEntity
  8
USP-Geo
100
AcDbPolyline
 90
        2
 70
   128
 43
0.0
 10
3.622393065580844
 20
4.016458196113993
 10
3.622393065580844
 20
3.034889662016496
  0
LWPOLYLINE
  5
75
330
3E
100
AcDbEntity
  8
USP-Geo
100
AcDbPolyline
 90
        7
 70
   128
 43
0.0
 10
3.687743833496789
 20
3.034889662016496
 10
3.687743833496789
 20
4.016458196113993
 10
3.622393065580844
 20
4.016458196113993
 10
3.622393065580844
 20
4.186370192695451
 10
3.622393065580844
 20
4.33014188211053
 10
3.622393065580844
 20
4.421632957192854
 10
3.622393065580844
 20
4.47391357152561
  0
LWPOLYLINE
  5
76
330
3E
100
AcDbEntity
  8
USP-Geo
100
AcDbPolyline
 90
        2
 70
   128
 43
0.0
 10
5.16597820375547
 20
3.034889662016496
 10
5.16597820375547
 20
4.016458196113993
  0
LWPOLYLINE
  5
77
330
3E
100
AcDbEntity
  8
USP-Geo
100
AcDbPolyline
 90
        8
 70
   128
 43
0.0
 10
3.687743833496789
 20
1.739637441922461
 10
3.687743833496789
 20
2.132395557097293
 10
3.687743833496789
 20
2.57743428660488
 10
3.687743833496789
 20
3.034889662016496
 10
3.622393065580844
 20
3.034889662016496
 10
3.622393065580844
 20
2.57743428660488
 10
3.622393065580844
 20
2.132395557097293
 10
3.622393065580844
 20
1.739637441922461
  0
LWPOLYLINE
  5
78
330
3E
100
AcDbEntity
  8
USP-Geo
100
AcDbPolyline
 90
       21
 70
   128
 43
0.0
 10
3.687743833496789
 20
2.067044789181347
 10
3.766164754995923
 20
2.15853586426367
 10
3.819098877007839
 20
2.315377707261939
 10
3.766164754995923
 20
2.472873057939366
 10
3.806028723424649
 20
2.341518014428316
 10
3.792958569841461
 20
2.367658321594696
 10
3.779234908579113
 20
2.380728475177884
 10
3.766164754995923
 20
2.393798628761073
 10
3.753094601412733
 20
2.380728475177884
 10
3.740024447829545
 20
2.367658321594696
 10
3.726954294246356
 20
2.341518014428316
 10
3.726954294246356
 20
2.315377707261939
 10
3.726954294246356
 20
2.289237400095561
 10
3.740024447829545
 20
2.263097092929182
 10
3.753094601412733
 20
2.236956785762805
 10
3.766164754995923
 20
2.236956785762805
 10
3.779234908579113
 20
2.236956785762805
 10
3.792958569841461
 20
2.263097092929182
 10
3.806028723424649
 20
2.289237400095561
 10
3.806028723424649
 20
2.315377707261939
 10
3.806028723424649
 20
2.341518014428316
  0
LWPOLYLINE
  5
79
330
3E
100
AcDbEntity
  8
USP-Geo
100
AcDbPolyline
 90
       12
 70
   129
 43
0.0
 10
4.093572102254809
 20
1.386743295176357
 10
4.145852716587565
 20
1.386743295176357
 10
4.171993023753943
 20
1.425953755925924
 10
4.185063177337132
 20
1.465164216675491
 10
4.171993023753943
 20
1.517444831008248
 10
4.145852716587565
 20
1.543585138174625
 10
4.093572102254809
 20
1.556655291757815
 10
4.054361641505241
 20
1.543585138174625
 10
4.015151180755674
 20
1.517444831008248
 10
4.002081027172485
 20
1.465164216675491
 10
4.015151180755674
 20
1.425953755925924
 10
4.054361641505241
 20
1.386743295176357
  0
LWPOLYLINE
  5
7A
330
3E
100
AcDbEntity
  8
USP-Geo
100
AcDbPolyline
 90
        7
 70
   128
 43
0.0
 10
3.740024447829545
 20
2.250026939345994
 10
3.740024447829545
 20
2.263097092929182
 10
3.753094601412733
 20
2.289237400095561
 10
3.753094601412733
 20
2.315377707261939
 10
3.753094601412733
 20
2.341518014428316
 10
3.740024447829545
 20
2.367658321594696
 10
3.740677955508704
 20
2.367658321594696
  0
LWPOLYLINE
  5
7B
330
3E
100
AcDbEntity
  8
USP-Geo
100
AcDbPolyline
 90
        2
 70
   128
 43
0.0
 10
3.766164754995923
 20
2.472873057939366
 10
3.687743833496789
 20
2.56436413302169
  0
LWPOLYLINE
  5
7C
330
3E
100
AcDbEntity
  8
USP-Geo
100
AcDbPolyline
 90
       12
 70
   129
 43
0.0
 10
4.002081027172485
 20
2.969538894100551
 10
4.015151180755674
 20
3.021819508433306
 10
4.054361641505241
 20
3.047959815599686
 10
4.093572102254809
 20
3.061029969182873
 10
4.145852716587565
 20
3.047959815599686
 10
4.171993023753943
 20
3.021819508433306
 10
4.185063177337132
 20
2.969538894100551
 10
4.171993023753943
 20
2.930328433350984
 10
4.145852716587565
 20
2.891117972601417
 10
4.093572102254809
 20
2.878047819018227
 10
4.054361641505241
 20
2.891117972601417
 10
4.015151180755674
 20
2.930328433350984
  0
LWPOLYLINE
  5
7D
330
3E
100
AcDbEntity
  8
USP-Geo
100
AcDbPolyline
 90
       12
 70
   129
 43
0.0
 10
4.707869320664693
 20
2.472873057939366
 10
4.720939474247883
 20
2.512083518688934
 10
4.76014993499745
 20
2.551293979438501
 10
4.799360395747017
 20
2.56436413302169
 10
4.851641010079774
 20
2.551293979438501
 10
4.87843482492531
 20
2.512083518688934
 10
4.8915049785085
 20
2.472873057939366
 10
4.87843482492531
 20
2.419938935927451
 10
4.851641010079774
 20
2.393798628761073
 10
4.799360395747017
 20
2.380728475177884
 10
4.76014993499745
 20
2.393798628761073
 10
4.720939474247883
 20
2.419938935927451
  0
LWPOLYLINE
  5
7E
330
3E
100
AcDbEntity
  8
USP-Geo
100
AcDbPolyline
 90
        5
 70
   128
 43
0.0
 10
3.622393065580844
 20
4.421632957192854
 10
3.687743833496789
 20
4.421632957192854
 10
3.687743833496789
 20
4.33014188211053
 10
3.687743833496789
 20
4.186370192695451
 10
3.687743833496789
 20
4.016458196113993
  0
LWPOLYLINE
  5
7F
330
3E
100
AcDbEntity
  8
USP-Geo
100
AcDbPolyline
 90
        5
 70
   128
 43
0.0
 10
3.687743833496789
 20
3.571419466606407
 10
3.766164754995923
 20
3.662910541688729
 10
3.819098877007839
 20
3.819752384686998
 10
3.766164754995923
 20
3.977247735364426
 10
3.806028723424649
 20
3.845892691853376
  0
LWPOLYLINE
  5
80
330
3E
100
AcDbEntity
  8
USP-Geo
100
AcDbPolyline
 90
       16
 70
   129
 43
0.0
 10
3.726954294246356
 20
3.845892691853376
 10
3.740024447829545
 20
3.872686506698914
 10
3.753094601412733
 20
3.885756660282103
 10
3.766164754995923
 20
3.898826813865292
 10
3.779234908579113
 20
3.885756660282103
 10
3.792958569841461
 20
3.872686506698914
 10
3.806028723424649
 20
3.845892691853376
 10
3.806028723424649
 20
3.819752384686998
 10
3.806028723424649
 20
3.78054192393743
 10
3.792958569841461
 20
3.754401616771053
 10
3.779234908579113
 20
3.741331463187863
 10
3.766164754995923
 20
3.741331463187863
 10
3.753094601412733
 20
3.741331463187863
 10
3.740024447829545
 20
3.754401616771053
 10
3.726954294246356
 20
3.78054192393743
 10
3.726954294246356
 20
3.819752384686998
  0
LWPOLYLINE
  5
81
330
3E
100
AcDbEntity
  8
USP-Geo
100
AcDbPolyline
 90
        7
 70
   128
 43
0.0
 10
3.740677955508704
 20
3.754401616771053
 10
3.740024447829545
 20
3.754401616771053
 10
3.753094601412733
 20
3.78054192393743
 10
3.753094601412733
 20
3.819752384686998
 10
3.753094601412733
 20
3.845892691853376
 10
3.740024447829545
 20
3.872686506698914
 10
3.740677955508704
 20
3.872686506698914
  0
LWPOLYLINE
  5
82
330
3E
100
AcDbEntity
  8
USP-Geo
100
AcDbPolyline
 90
        2
 70
   128
 43
0.0
 10
3.766164754995923
 20
3.977247735364426
 10
3.687743833496789
 20
4.06873881044675
  0
LWPOLYLINE
  5
83
330
3E
100
AcDbEntity
  8
USP-Geo
100
AcDbPolyline
 90
       12
 70
   129
 43
0.0
 10
4.002081027172485
 20
3.977247735364426
 10
4.015151180755674
 20
4.016458196113993
 10
4.054361641505241
 20
4.05566865686356
 10
4.093572102254809
 20
4.06873881044675
 10
4.145852716587565
 20
4.05566865686356
 10
4.171993023753943
 20
4.016458196113993
 10
4.185063177337132
 20
3.977247735364426
 10
4.171993023753943
 20
3.92496712103167
 10
4.145852716587565
 20
3.898826813865292
 10
4.093572102254809
 20
3.885756660282103
 10
4.054361641505241
 20
3.898826813865292
 10
4.015151180755674
 20
3.92496712103167
  0
LWPOLYLINE
  5
84
330
3E
100
AcDbEntity
  8
USP-Geo
100
AcDbPolyline
 90
        5
 70
   128
 43
0.0
 10
3.622393065580844
 20
4.657549229369416
 10
3.687743833496789
 20
4.657549229369416
 10
3.687743833496789
 20
4.552988000703904
 10
3.687743833496789
 20
4.47391357152561
 10
3.687743833496789
 20
4.421632957192854
  0
LWPOLYLINE
  5
85
330
3E
100
AcDbEntity
  8
USP-Geo
100
AcDbPolyline
 90
       12
 70
   129
 43
0.0
 10
4.002081027172485
 20
4.971232915365953
 10
4.015151180755674
 20
5.02351352969871
 10
4.054361641505241
 20
5.049653836865087
 10
4.093572102254809
 20
5.062723990448277
 10
4.145852716587565
 20
5.049653836865087
 10
4.171993023753943
 20
5.02351352969871
 10
4.185063177337132
 20
4.971232915365953
 10
4.171993023753943
 20
4.932022454616386
 10
4.145852716587565
 20
4.892811993866819
 10
4.093572102254809
 20
4.87974184028363
 10
4.054361641505241
 20
4.892811993866819
 10
4.015151180755674
 20
4.932022454616386
  0
LWPOLYLINE
  5
86
330
3E
100
AcDbEntity
  8
USP-Geo
100
AcDbPolyline
 90
       12
 70
   129
 43
0.0
 10
4.76014993499745
 20
4.395492650026476
 10
4.720939474247883
 20
4.434703110776043
 10
4.707869320664693
 20
4.47391357152561
 10
4.720939474247883
 20
4.513124032275177
 10
4.76014993499745
 20
4.552988000703904
 10
4.799360395747017
 20
4.566058154287093
 10
4.851641010079774
 20
4.552988000703904
 10
4.87843482492531
 20
4.513124032275177
 10
4.8915049785085
 20
4.47391357152561
 10
4.87843482492531
 20
4.434703110776043
 10
4.851641010079774
 20
4.395492650026476
 10
4.799360395747017
 20
4.382422496443287
  0
LWPOLYLINE
  5
87
330
3E
100
AcDbEntity
  8
USP-Geo
100
AcDbPolyline
 90
        2
 70
   129
 43
0.0
 10
3.687743833496789
 20
5.507762719955864
 10
5.623433579167086
 20
5.507762719955864
  0
ENDBLK
  5
89
330
3E
100
AcDbEntity
  8
0
100
AcDbBlockEnd
  0
BLOCK
  5
A9
330
8B
100
AcDbEntity
  8
0
100
AcDbBlockBegin
  2
HUS26_S
 70
     0
 10
0.0
 20
0.0
 30
0.0
  3
HUS26_S
  1

  0
LWPOLYLINE
  5
8C
330
8B
100
AcDbEntity
  8
USP-Geo
100
AcDbPolyline
 90
       12
 70
   129
 43
0.0
 10
0.3136836859965371
 20
5.28557010904165
 10
0.3921046074956713
 20
5.272499955458461
 10
0.4443852218284281
 20
5.206495679863356
 10
0.4705255289948056
 20
5.128074758364221
 10
0.4443852218284281
 20
5.049653836865087
 10
0.3921046074956713
 20
4.997373222532331
 10
0.3136836859965371
 20
4.971232915365953
 10
0.2352627644974028
 20
4.997373222532331
 10
0.1829821501646469
 20
5.049653836865087
 10
0.1568418429982685
 20
5.128074758364221
 10
0.1829821501646469
 20
5.206495679863356
 10
0.2352627644974028
 20
5.272499955458461
  0
LWPOLYLINE
  5
8D
330
8B
100
AcDbEntity
  8
USP-Geo
100
AcDbPolyline
 90
       20
 70
   128
 43
0.0
 10
3.374060147500252
 20
0.1568418429982685
 10
3.374060147500252
 20
0.0
 10
3.374060147500252
 20
0.1568418429982685
 10
3.374060147500252
 20
0.1829821501646478
 10
3.360989993917064
 20
0.2091224573310253
 10
3.347919840333874
 20
0.2352627644974028
 10
2.066391281502188
 20
1.739637441922461
 10
1.804988209838407
 20
2.132395557097293
 10
1.647492859160979
 20
2.57743428660488
 10
1.582142091245033
 20
3.034889662016496
 10
1.582142091245033
 20
4.016458196113993
 10
1.556001784078656
 20
4.186370192695451
 10
1.451440555413143
 20
4.33014188211053
 10
1.294598712414875
 20
4.421632957192854
 10
1.203107637332552
 20
4.47391357152561
 10
1.150827022999795
 20
4.552988000703904
 10
1.124686715833417
 20
4.657549229369416
 10
1.124686715833417
 20
5.507762719955864
 10
0.0653507679159455
 20
5.507762719955864
 10
0.0653507679159455
 20
4.657549229369416
  0
LWPOLYLINE
  5
8E
330
8B
100
AcDbEntity
  8
USP-Geo
100
AcDbPolyline
 90
       10
 70
   129
 43
0.0
 10
0.0
 20
4.33014188211053
 10
0.0
 20
4.421632957192854
 10
0.0
 20
4.47391357152561
 10
0.0
 20
4.552988000703904
 10
0.0
 20
4.657549229369416
 10
0.0
 20
5.507762719955864
 10
0.0
 20
4.657549229369416
 10
0.0
 20
4.552988000703904
 10
0.0
 20
4.47391357152561
 10
0.0
 20
4.421632957192854
  0
LWPOLYLINE
  5
8F
330
8B
100
AcDbEntity
  8
USP-Geo
100
AcDbPolyline
 90
       16
 70
   128
 43
0.0
 10
0.3528941467461042
 20
0.2352627644974028
 10
0.0653507679159455
 20
0.5757402653394781
 10
0.0653507679159455
 20
1.739637441922461
 10
0.0653507679159455
 20
2.132395557097293
 10
0.0653507679159455
 20
2.57743428660488
 10
0.0653507679159455
 20
3.034889662016496
 10
0.0653507679159455
 20
4.016458196113993
 10
0.0653507679159455
 20
4.186370192695451
 10
0.0653507679159455
 20
4.33014188211053
 10
0.0653507679159455
 20
4.421632957192854
 10
0.0653507679159455
 20
4.47391357152561
 10
0.0653507679159455
 20
4.552988000703904
 10
0.0653507679159455
 20
4.657549229369416
 10
0.0653507679159455
 20
5.507762719955864
 10
1.124686715833417
 20
5.507762719955864
 10
1.124686715833417
 20
4.657549229369416
  0
LWPOLYLINE
  5
90
330
8B
100
AcDbEntity
  8
USP-Geo
100
AcDbPolyline
 90
        2
 70
   129
 43
0.0
 10
3.374060147500252
 20
0.0
 10
0.3790344539124826
 20
0.0
  0
LWPOLYLINE
  5
91
330
8B
100
AcDbEntity
  8
USP-Geo
100
AcDbPolyline
 90
        3
 70
   128
 43
0.0
 10
3.360989993917064
 20
0.2091224573310253
 10
3.347919840333874
 20
0.2352627644974028
 10
2.066391281502188
 20
1.739637441922461
  0
LWPOLYLINE
  5
92
330
8B
100
AcDbEntity
  8
USP-Geo
100
AcDbPolyline
 90
        2
 70
   128
 43
0.0
 10
3.374060147500252
 20
0.0653507679159464
 10
0.3790344539124826
 20
0.0653507679159464
  0
TEXT
  5
93
330
8B
100
AcDbEntity
  8
USP-Txt
100
AcDbText
 10
-0.0798904142221435
 20
-1.309207895917033
 30
0.0
 40
0.203125
  1
HUS26 - LEFT SIDE VIEW
 72
     1
 11
2.12063041911119
 21
-1.309207895917033
 31
0.0
100
AcDbText
  0
LWPOLYLINE
  5
94
330
8B
100
AcDbEntity
  8
USP-Geo
100
AcDbPolyline
 90
       14
 70
   128
 43
0.0
 10
0.3790344539124826
 20
0.0
 10
0.3790344539124826
 20
0.1568418429982685
 10
0.3790344539124826
 20
0.1829821501646478
 10
0.3659643003292938
 20
0.2091224573310253
 10
0.3528941467461042
 20
0.2352627644974028
 10
0.0653507679159455
 20
0.5757402653394781
 10
0.0
 20
0.5757402653394781
 10
0.0
 20
1.739637441922461
 10
0.0
 20
2.132395557097293
 10
0.0
 20
2.57743428660488
 10
0.0
 20
3.034889662016496
 10
0.0
 20
4.016458196113993
 10
0.0
 20
4.186370192695451
 10
0.0
 20
4.33014188211053
  0
LWPOLYLINE
  5
95
330
8B
100
AcDbEntity
  8
USP-Geo
100
AcDbPolyline
 90
       12
 70
   129
 43
0.0
 10
0.9024941049192038
 20
1.007055333584716
 10
0.941704565668771
 20
1.125340223512576
 10
1.033195640751094
 20
1.2168312985949
 10
1.163897176582985
 20
1.256041759344467
 10
1.281528558831686
 20
1.2168312985949
 10
1.373019633914009
 20
1.125340223512576
 10
1.412230094663576
 20
1.007055333584716
 10
1.373019633914009
 20
0.8763537977528255
 10
1.281528558831686
 20
0.7848627226705034
 10
1.163897176582985
 20
0.7456522619209363
 10
1.033195640751094
 20
0.7848627226705034
 10
0.941704565668771
 20
0.8763537977528255
  0
LWPOLYLINE
  5
96
330
8B
100
AcDbEntity
  8
USP-Geo
100
AcDbPolyline
 90
        4
 70
   129
 43
0.0
 10
0.0653507679159455
 20
0.5757402653394781
 10
0.0653507679159455
 20
1.739637441922461
 10
0.0
 20
1.739637441922461
 10
0.0
 20
0.5757402653394781
  0
LWPOLYLINE
  5
97
330
8B
100
AcDbEntity
  8
USP-Geo
100
AcDbPolyline
 90
        3
 70
   128
 43
0.0
 10
0.3790344539124826
 20
0.1829821501646478
 10
0.3790344539124826
 20
0.1568418429982685
 10
0.3790344539124826
 20
0.0
  0
LWPOLYLINE
  5
98
330
8B
100
AcDbEntity
  8
USP-Geo
100
AcDbPolyline
 90
       25
 70
   128
 43
0.0
 10
1.268458405248496
 20
1.072406101500661
 10
1.294598712414875
 20
1.086129762763009
 10
1.320739019581253
 20
1.072406101500661
 10
1.346879326747631
 20
1.059335947917473
 10
1.35994948033082
 20
1.033195640751094
 10
1.373019633914009
 20
1.007055333584716
 10
1.35994948033082
 20
0.9678448728351494
 10
1.346879326747631
 20
0.9417045656687719
 10
1.320739019581253
 20
0.9286344120855822
 10
1.294598712414875
 20
0.9286344120855822
 10
1.268458405248496
 20
0.9286344120855822
 10
1.242318098082119
 20
0.9417045656687719
 10
1.229247944498929
 20
0.9678448728351494
 10
1.229247944498929
 20
1.007055333584716
 10
1.229247944498929
 20
1.033195640751094
 10
1.242318098082119
 20
1.059335947917473
 10
1.268458405248496
 20
1.072406101500661
 10
1.281528558831686
 20
1.072406101500661
 10
1.307668865998063
 20
1.059335947917473
 10
1.320739019581253
 20
1.033195640751094
 10
1.333809173164442
 20
1.007055333584716
 10
1.320739019581253
 20
0.9678448728351494
 10
1.307668865998063
 20
0.9417045656687719
 10
1.281528558831686
 20
0.9286344120855822
 10
1.268458405248496
 20
0.9286344120855822
  0
LWPOLYLINE
  5
99
330
8B
100
AcDbEntity
  8
USP-Geo
100
AcDbPolyline
 90
        3
 70
   128
 43
0.0
 10
1.307668865998063
 20
0.9547747192519597
 10
1.268458405248496
 20
1.007055333584716
 10
1.229247944498929
 20
1.007055333584716
  0
LWPOLYLINE
  5
9A
330
8B
100
AcDbEntity
  8
USP-Geo
100
AcDbPolyline
 90
        7
 70
   128
 43
0.0
 10
0.0653507679159455
 20
3.034889662016496
 10
0.0653507679159455
 20
4.016458196113993
 10
0.0
 20
4.016458196113993
 10
0.0
 20
3.034889662016496
 10
0.0
 20
2.57743428660488
 10
0.0
 20
2.132395557097293
 10
0.0
 20
1.739637441922461
  0
LWPOLYLINE
  5
9B
330
8B
100
AcDbEntity
  8
USP-Geo
100
AcDbPolyline
 90
        5
 70
   128
 43
0.0
 10
0.0653507679159455
 20
1.739637441922461
 10
0.0653507679159455
 20
2.132395557097293
 10
0.0653507679159455
 20
2.57743428660488
 10
0.0653507679159455
 20
3.034889662016496
 10
0.0
 20
3.034889662016496
  0
LWPOLYLINE
  5
9C
330
8B
100
AcDbEntity
  8
USP-Geo
100
AcDbPolyline
 90
        3
 70
   128
 43
0.0
 10
0.0
 20
4.33014188211053
 10
0.0
 20
4.186370192695451
 10
0.0
 20
4.016458196113993
  0
LWPOLYLINE
  5
9D
330
8B
100
AcDbEntity
  8
USP-Geo
100
AcDbPolyline
 90
        5
 70
   128
 43
0.0
 10
0.0
 20
4.421632957192854
 10
0.0653507679159455
 20
4.421632957192854
 10
0.0653507679159455
 20
4.33014188211053
 10
0.0653507679159455
 20
4.186370192695451
 10
0.0653507679159455
 20
4.016458196113993
  0
LWPOLYLINE
  5
9E
330
8B
100
AcDbEntity
  8
USP-Geo
100
AcDbPolyline
 90
        5
 70
   128
 43
0.0
 10
0.0
 20
4.657549229369416
 10
0.0653507679159455
 20
4.657549229369416
 10
0.0653507679159455
 20
4.552988000703904
 10
0.0653507679159455
 20
4.47391357152561
 10
0.0653507679159455
 20
4.421632957192854
  0
LWPOLYLINE
  5
9F
330
8B
100
AcDbEntity
  8
USP-Geo
100
AcDbPolyline
 90
        3
 70
   128
 43
0.0
 10
1.647492859160979
 20
2.57743428660488
 10
1.582142091245033
 20
3.034889662016496
 10
1.582142091245033
 20
4.016458196113993
  0
LWPOLYLINE
  5
A0
330
8B
100
AcDbEntity
  8
USP-Geo
100
AcDbPolyline
 90
       12
 70
   129
 43
0.0
 10
0.9024941049192038
 20
2.499013365105746
 10
0.941704565668771
 20
2.380728475177884
 10
1.033195640751094
 20
2.289237400095561
 10
1.163897176582985
 20
2.250026939345994
 10
1.281528558831686
 20
2.289237400095561
 10
1.373019633914009
 20
2.380728475177884
 10
1.412230094663576
 20
2.499013365105746
 10
1.373019633914009
 20
2.629714900937635
 10
1.281528558831686
 20
2.721205976019959
 10
1.163897176582985
 20
2.747346283186336
 10
1.033195640751094
 20
2.721205976019959
 10
0.941704565668771
 20
2.629714900937635
  0
LWPOLYLINE
  5
A1
330
8B
100
AcDbEntity
  8
USP-Geo
100
AcDbPolyline
 90
       24
 70
   128
 43
0.0
 10
1.268458405248496
 20
2.57743428660488
 10
1.294598712414875
 20
2.57743428660488
 10
1.320739019581253
 20
2.57743428660488
 10
1.346879326747631
 20
2.56436413302169
 10
1.35994948033082
 20
2.538223825855313
 10
1.373019633914009
 20
2.499013365105746
 10
1.35994948033082
 20
2.472873057939366
 10
1.346879326747631
 20
2.44607924309383
 10
1.320739019581253
 20
2.43300908951064
 10
1.294598712414875
 20
2.419938935927451
 10
1.268458405248496
 20
2.43300908951064
 10
1.242318098082119
 20
2.44607924309383
 10
1.229247944498929
 20
2.472873057939366
 10
1.229247944498929
 20
2.499013365105746
 10
1.229247944498929
 20
2.538223825855313
 10
1.242318098082119
 20
2.56436413302169
 10
1.268458405248496
 20
2.57743428660488
 10
1.281528558831686
 20
2.57743428660488
 10
1.307668865998063
 20
2.56436413302169
 10
1.320739019581253
 20
2.538223825855313
 10
1.333809173164442
 20
2.499013365105746
 10
1.320739019581253
 20
2.472873057939366
 10
1.307668865998063
 20
2.44607924309383
 10
1.281528558831686
 20
2.43300908951064
  0
LWPOLYLINE
  5
A2
330
8B
100
AcDbEntity
  8
USP-Geo
100
AcDbPolyline
 90
        3
 70
   128
 43
0.0
 10
1.307668865998063
 20
2.459149396677018
 10
1.268458405248496
 20
2.499013365105746
 10
1.229247944498929
 20
2.512083518688934
  0
LWPOLYLINE
  5
A3
330
8B
100
AcDbEntity
  8
USP-Geo
100
AcDbPolyline
 90
       12
 70
   129
 43
0.0
 10
0.9024941049192038
 20
4.003388042530804
 10
0.941704565668771
 20
3.872686506698914
 10
1.033195640751094
 20
3.78054192393743
 10
1.163897176582985
 20
3.754401616771053
 10
1.281528558831686
 20
3.78054192393743
 10
1.373019633914009
 20
3.872686506698914
 10
1.412230094663576
 20
4.003388042530804
 10
1.373019633914009
 20
4.134089578362694
 10
1.281528558831686
 20
4.225580653445018
 10
1.163897176582985
 20
4.251720960611396
 10
1.033195640751094
 20
4.225580653445018
 10
0.941704565668771
 20
4.134089578362694
  0
LWPOLYLINE
  5
A4
330
8B
100
AcDbEntity
  8
USP-Geo
100
AcDbPolyline
 90
        9
 70
   128
 43
0.0
 10
1.282182066510845
 20
4.081808964029939
 10
1.281528558831686
 20
4.081808964029939
 10
1.307668865998063
 20
4.05566865686356
 10
1.320739019581253
 20
4.029528349697183
 10
1.333809173164442
 20
4.003388042530804
 10
1.320739019581253
 20
3.977247735364426
 10
1.307668865998063
 20
3.951107428198048
 10
1.281528558831686
 20
3.92496712103167
 10
1.268458405248496
 20
3.92496712103167
  0
LWPOLYLINE
  5
A5
330
8B
100
AcDbEntity
  8
USP-Geo
100
AcDbPolyline
 90
       16
 70
   129
 43
0.0
 10
1.229247944498929
 20
3.977247735364426
 10
1.229247944498929
 20
4.003388042530804
 10
1.229247944498929
 20
4.029528349697183
 10
1.242318098082119
 20
4.05566865686356
 10
1.268458405248496
 20
4.081808964029939
 10
1.294598712414875
 20
4.081808964029939
 10
1.320739019581253
 20
4.081808964029939
 10
1.346879326747631
 20
4.05566865686356
 10
1.35994948033082
 20
4.029528349697183
 10
1.373019633914009
 20
4.003388042530804
 10
1.35994948033082
 20
3.977247735364426
 10
1.346879326747631
 20
3.951107428198048
 10
1.320739019581253
 20
3.92496712103167
 10
1.294598712414875
 20
3.92496712103167
 10
1.268458405248496
 20
3.92496712103167
 10
1.242318098082119
 20
3.951107428198048
  0
LWPOLYLINE
  5
A6
330
8B
100
AcDbEntity
  8
USP-Geo
100
AcDbPolyline
 90
        3
 70
   128
 43
0.0
 10
1.307668865998063
 20
3.964177581781237
 10
1.268458405248496
 20
4.003388042530804
 10
1.229247944498929
 20
4.016458196113993
  0
LWPOLYLINE
  5
A7
330
8B
100
AcDbEntity
  8
USP-Geo
100
AcDbPolyline
 90
        2
 70
   128
 43
0.0
 10
1.451440555413143
 20
4.33014188211053
 10
1.294598712414875
 20
4.421632957192854
  0
LWPOLYLINE
  5
A8
330
8B
100
AcDbEntity
  8
USP-Geo
100
AcDbPolyline
 90
        2
 70
   129
 43
0.0
 10
0.0
 20
5.507762719955864
 10
0.0653507679159455
 20
5.507762719955864
  0
ENDBLK
  5
AA
330
8B
100
AcDbEntity
  8
0
100
AcDbBlockEnd
  0
ENDSEC
  0
SECTION
  2
ENTITIES
  0
INSERT
  5
3
330
2
100
AcDbEntity
  8
USP
100
AcDbBlockReference
  2
HUS26_T
 10
4.571115593712175
 20
9.735992849535024
 30
0.0
  0
INSERT
  5
3D
330
2
100
AcDbEntity
  8
USP
100
AcDbBlockReference
  2
HUS26_F
 10
4.571115593712175
 20
1.310971849811366
 30
0.0
  0
INSERT
  5
8A
330
2
100
AcDbEntity
  8
USP
100
AcDbBlockReference
  2
HUS26_S
 10
0.0854388839616949
 20
1.310971849811366
 30
0.0
  0
ENDSEC
  0
SECTION
  2
OBJECTS
  0
DICTIONARY
  5
C3
330
0
100
AcDbDictionary
281
     1
  3
ACAD_COLOR
350
CC
  3
ACAD_GROUP
350
C1
  3
ACAD_LAYOUT
350
CD
  3
ACAD_MATERIAL
350
CB
  3
ACAD_MLINESTYLE
350
C2
  3
ACAD_PLOTSETTINGS
350
CE
  3
ACAD_PLOTSTYLENAME
350
C9
  3
ACDBHEADERROUNDTRIPXREC
350
D7
  3
AcDbVariableDictionary
350
D3
  0
DICTIONARY
  5
AB
330
2
100
AcDbDictionary
280
     1
281
     1
  3
ACAD_LAYOUTSELFREF
360
AC
  0
DICTIONARY
  5
B0
330
AF
100
AcDbDictionary
280
     1
281
     1
  3
ACAD_LAYOUTSELFREF
360
B1
  0
DICTIONARY
  5
CC
102
{ACAD_REACTORS
330
C3
102
}
330
C3
100
AcDbDictionary
281
     1
  0
DICTIONARY
  5
C1
102
{ACAD_REACTORS
330
C3
102
}
330
C3
100
AcDbDictionary
281
     1
  0
DICTIONARY
  5
CD
102
{ACAD_REACTORS
330
C3
102
}
330
C3
100
AcDbDictionary
281
     1
  3
Layout1
350
D0
  3
Model
350
CF
  0
DICTIONARY
  5
CB
102
{ACAD_REACTORS
330
C3
102
}
330
C3
100
AcDbDictionary
281
     1
  0
DICTIONARY
  5
C2
102
{ACAD_REACTORS
330
C3
102
}
330
C3
100
AcDbDictionary
281
     1
  3
STANDARD
350
C6
  0
DICTIONARY
  5
CE
102
{ACAD_REACTORS
330
C3
102
}
330
C3
100
AcDbDictionary
281
     1
  0
ACDBDICTIONARYWDFLT
  5
C9
102
{ACAD_REACTORS
330
C3
102
}
330
C3
100
AcDbDictionary
281
     1
  3
Normal
350
CA
100
AcDbDictionaryWithDefault
340
CA
  0
DICTIONARY
  5
D7
102
{ACAD_REACTORS
330
C3
102
}
330
C3
100
AcDbDictionary
281
     1
  3
COLORDICT
350
D9
  3
MATERIALDICT
350
D8
  0
DICTIONARY
  5
D3
102
{ACAD_REACTORS
330
C3
102
}
330
C3
100
AcDbDictionary
281
     1
  3
DIMASSOC
350
D4
  3
PROJECTNAME
350
D5
  0
XRECORD
  5
AC
102
{ACAD_REACTORS
330
AB
102
}
330
AB
100
AcDbXrecord
280
     1
340
18
  0
XRECORD
  5
B1
102
{ACAD_REACTORS
330
B0
102
}
330
B0
100
AcDbXrecord
280
     1
340
15
  0
LAYOUT
  5
D0
102
{ACAD_XDICTIONARY
360
DC
102
}
102
{ACAD_REACTORS
330
CD
102
}
330
CD
100
AcDbPlotSettings
  1

  2
\\mitk-us-mtg-n28\Office Canon IR C2550
  4

  6

 40
0.0
 41
0.0
 42
0.0
 43
0.0
 44
0.0
 45
0.0
 46
0.0
 47
0.0
 48
0.0
 49
0.0
140
0.0
141
0.0
142
1.0
143
1.0
 70
   688
 72
     0
 73
     0
 74
     5
  7

 75
    16
147
1.0
148
0.0
149
0.0
100
AcDbLayout
  1
Layout1
 70
     0
 71
     1
 10
0.0
 20
0.0
 11
12.0
 21
9.0
 12
0.0
 22
0.0
 32
0.0
 14
1.049999952316284
 24
0.7999999523162842
 34
0.0
 15
9.449999570846555
 25
7.199999570846556
 35
0.0
146
0.0
 13
0.0
 23
0.0
 33
0.0
 16
1.0
 26
0.0
 36
0.0
 17
0.0
 27
1.0
 37
0.0
 76
     0
330
AF
  0
LAYOUT
  5
CF
102
{ACAD_XDICTIONARY
360
DA
102
}
102
{ACAD_REACTORS
330
CD
102
}
330
CD
100
AcDbPlotSettings
  1

  2
\\mitk-us-mtg-n28\Office Canon IR C2550
  4

  6

 40
0.0
 41
0.0
 42
0.0
 43
0.0
 44
0.0
 45
0.0
 46
0.0
 47
0.0
 48
0.0
 49
0.0
140
0.0
141
0.0
142
1.0
143
1.0
 70
  1712
 72
     0
 73
     0
 74
     0
  7

 75
     0
147
1.0
148
0.0
149
0.0
100
AcDbLayout
  1
Model
 70
     1
 71
     0
 10
0.0
 20
0.0
 11
12.0
 21
9.0
 12
0.0
 22
0.0
 32
0.0
 14
0.0
 24
0.0
 34
0.0
 15
0.0
 25
0.0
 35
0.0
146
0.0
 13
0.0
 23
0.0
 33
0.0
 16
1.0
 26
0.0
 36
0.0
 17
0.0
 27
1.0
 37
0.0
 76
     0
330
2
  0
MLINESTYLE
  5
C6
102
{ACAD_REACTORS
330
C2
102
}
330
C2
100
AcDbMlineStyle
  2
STANDARD
 70
     0
  3

 62
     0
 51
90.0
 52
90.0
 71
     2
 49
0.5
 62
   256
  6
BYLAYER
 49
-0.5
 62
   256
  6
BYLAYER
  0
ACDBPLACEHOLDER
  5
CA
102
{ACAD_REACTORS
330
C9
102
}
330
C9
  0
XRECORD
  5
D9
102
{ACAD_REACTORS
330
D7
102
}
330
D7
100
AcDbXrecord
280
     1
340
CC
  0
XRECORD
  5
D8
102
{ACAD_REACTORS
330
D7
102
}
330
D7
100
AcDbXrecord
280
     1
340
CB
  0
DICTIONARYVAR
  5
D4
102
{ACAD_REACTORS
330
D3
102
}
330
D3
100
DictionaryVariables
280
     0
  1
1
  0
DICTIONARYVAR
  5
D5
102
{ACAD_REACTORS
330
D3
102
}
330
D3
100
DictionaryVariables
280
     0
  1

  0
DICTIONARY
  5
DC
330
D0
100
AcDbDictionary
280
     1
281
     1
  3
ACAD_XREC_ROUNDTRIP
360
DD
  0
DICTIONARY
  5
DA
330
CF
100
AcDbDictionary
280
     1
281
     1
  3
ACAD_XREC_ROUNDTRIP
360
DB
  0
XRECORD
  5
DD
102
{ACAD_REACTORS
330
DC
102
}
330
DC
100
AcDbXrecord
280
     1
102
SHADEPLOT
 70
     0
102
SHADEPLOTRESLEVEL
 70
     2
102
SHADEPLOTCUSTOMDPI
 70
   300
  0
XRECORD
  5
DB
102
{ACAD_REACTORS
330
DA
102
}
330
DA
100
AcDbXrecord
280
     1
102
SHADEPLOT
 70
     0
102
SHADEPLOTRESLEVEL
 70
     2
102
SHADEPLOTCUSTOMDPI
 70
   300
  0
ENDSEC
  0
EOF
