  0
SECTION
  2
HEADER
  9
$ACADVER
  1
AC1014
  9
$ACADMAINTVER
 70
     9
  9
$DWGCODEPAGE
  3
ANSI_1252
  9
$INSBASE
 10
0.0
 20
0.0
 30
0.0
  9
$EXTMIN
 10
0.013589892538505
 20
0.0012068729139187
 30
0.0
  9
$EXTMAX
 10
10.81891870340105
 20
16.25028663843327
 30
0.0
  9
$LIMMIN
 10
0.0
 20
0.0
  9
$LIMMAX
 10
12.0
 20
9.0
  9
$ORTHOMODE
 70
     1
  9
$REGENMODE
 70
     1
  9
$FILLMODE
 70
     1
  9
$QTEXTMODE
 70
     0
  9
$MIRRTEXT
 70
     0
  9
$DRAGMODE
 70
     2
  9
$LTSCALE
 40
1.5
  9
$OSMODE
 70
     0
  9
$ATTMODE
 70
     1
  9
$TEXTSIZE
 40
0.75
  9
$TRACEWID
 40
0.05
  9
$TEXTSTYLE
  7
STANDARD
  9
$CLAYER
  8
USP
  9
$CELTYPE
  6
BYLAYER
  9
$CECOLOR
 62
   256
  9
$CELTSCALE
 40
1.0
  9
$DELOBJ
 70
     1
  9
$DISPSILH
 70
     1
  9
$DIMSCALE
 40
5.0
  9
$DIMASZ
 40
0.125
  9
$DIMEXO
 40
0.0625
  9
$DIMDLI
 40
0.37890625
  9
$DIMRND
 40
0.0
  9
$DIMDLE
 40
0.0
  9
$DIMEXE
 40
0.09375
  9
$DIMTP
 40
0.0
  9
$DIMTM
 40
0.0
  9
$DIMTXT
 40
0.109375
  9
$DIMCEN
 40
0.0
  9
$DIMTSZ
 40
0.0
  9
$DIMTOL
 70
     0
  9
$DIMLIM
 70
     0
  9
$DIMTIH
 70
     1
  9
$DIMTOH
 70
     1
  9
$DIMSE1
 70
     0
  9
$DIMSE2
 70
     0
  9
$DIMTAD
 70
     0
  9
$DIMZIN
 70
     8
  9
$DIMBLK
  1

  9
$DIMASO
 70
     1
  9
$DIMSHO
 70
     1
  9
$DIMPOST
  1

  9
$DIMAPOST
  1

  9
$DIMALT
 70
     0
  9
$DIMALTD
 70
     2
  9
$DIMALTF
 40
25.4
  9
$DIMLFAC
 40
1.0
  9
$DIMTOFL
 70
     0
  9
$DIMTVP
 40
0.0
  9
$DIMTIX
 70
     0
  9
$DIMSOXD
 70
     0
  9
$DIMSAH
 70
     0
  9
$DIMBLK1
  1

  9
$DIMBLK2
  1

  9
$DIMSTYLE
  2
STANDARD
  9
$DIMCLRD
 70
     0
  9
$DIMCLRE
 70
     0
  9
$DIMCLRT
 70
   256
  9
$DIMTFAC
 40
1.0
  9
$DIMGAP
 40
0.08984375
  9
$DIMJUST
 70
     0
  9
$DIMSD1
 70
     0
  9
$DIMSD2
 70
     0
  9
$DIMTOLJ
 70
     1
  9
$DIMTZIN
 70
     0
  9
$DIMALTZ
 70
     0
  9
$DIMALTTZ
 70
     0
  9
$DIMFIT
 70
     3
  9
$DIMUPT
 70
     1
  9
$DIMUNIT
 70
     7
  9
$DIMDEC
 70
     4
  9
$DIMTDEC
 70
     4
  9
$DIMALTU
 70
     2
  9
$DIMALTTD
 70
     2
  9
$DIMTXSTY
  7
STANDARD
  9
$DIMAUNIT
 70
     0
  9
$LUNITS
 70
     5
  9
$LUPREC
 70
     6
  9
$SKETCHINC
 40
0.1
  9
$FILLETRAD
 40
0.0
  9
$AUNITS
 70
     0
  9
$AUPREC
 70
     1
  9
$MENU
  1
CUSTOM
  9
$ELEVATION
 40
0.0
  9
$PELEVATION
 40
0.0
  9
$THICKNESS
 40
0.0
  9
$LIMCHECK
 70
     0
  9
$BLIPMODE
 70
     0
  9
$CHAMFERA
 40
0.0
  9
$CHAMFERB
 40
0.0
  9
$CHAMFERC
 40
0.0
  9
$CHAMFERD
 40
0.0
  9
$SKPOLY
 70
     0
  9
$TDCREATE
 40
2451263.663231366
  9
$TDUPDATE
 40
2452768.661888738
  9
$TDINDWG
 40
0.5786794097
  9
$TDUSRTIMER
 40
0.5786794097
  9
$USRTIMER
 70
     1
  9
$ANGBASE
 50
0.0
  9
$ANGDIR
 70
     0
  9
$PDMODE
 70
     0
  9
$PDSIZE
 40
0.0
  9
$PLINEWID
 40
0.0
  9
$COORDS
 70
     2
  9
$SPLFRAME
 70
     0
  9
$SPLINETYPE
 70
     6
  9
$SPLINESEGS
 70
     8
  9
$ATTDIA
 70
     0
  9
$ATTREQ
 70
     0
  9
$HANDLING
 70
     1
  9
$HANDSEED
  5
129
  9
$SURFTAB1
 70
     6
  9
$SURFTAB2
 70
     6
  9
$SURFTYPE
 70
     6
  9
$SURFU
 70
     6
  9
$SURFV
 70
     6
  9
$UCSNAME
  2

  9
$UCSORG
 10
0.0
 20
0.0
 30
0.0
  9
$UCSXDIR
 10
1.0
 20
0.0
 30
0.0
  9
$UCSYDIR
 10
0.0
 20
1.0
 30
0.0
  9
$PUCSNAME
  2

  9
$PUCSORG
 10
0.0
 20
0.0
 30
0.0
  9
$PUCSXDIR
 10
1.0
 20
0.0
 30
0.0
  9
$PUCSYDIR
 10
0.0
 20
1.0
 30
0.0
  9
$USERI1
 70
     0
  9
$USERI2
 70
     0
  9
$USERI3
 70
     0
  9
$USERI4
 70
     0
  9
$USERI5
 70
     0
  9
$USERR1
 40
0.0
  9
$USERR2
 40
0.0
  9
$USERR3
 40
0.0
  9
$USERR4
 40
0.0
  9
$USERR5
 40
0.0
  9
$WORLDVIEW
 70
     1
  9
$SHADEDGE
 70
     3
  9
$SHADEDIF
 70
    70
  9
$TILEMODE
 70
     1
  9
$MAXACTVP
 70
    16
  9
$PINSBASE
 10
0.0
 20
0.0
 30
0.0
  9
$PLIMCHECK
 70
     0
  9
$PEXTMIN
 10
1.049999952316284
 20
0.7999999523162842
 30
0.0
  9
$PEXTMAX
 10
9.449999570846555
 20
7.199999570846556
 30
0.0
  9
$PLIMMIN
 10
0.0
 20
0.0
  9
$PLIMMAX
 10
12.0
 20
9.0
  9
$UNITMODE
 70
     0
  9
$VISRETAIN
 70
     0
  9
$PLINEGEN
 70
     0
  9
$PSLTSCALE
 70
     0
  9
$TREEDEPTH
 70
  3020
  9
$PICKSTYLE
 70
     0
  9
$CMLSTYLE
  2
STANDARD
  9
$CMLJUST
 70
     0
  9
$CMLSCALE
 40
1.0
  9
$PROXYGRAPHICS
 70
     1
  9
$MEASUREMENT
 70
     0
  0
ENDSEC
  0
SECTION
  2
CLASSES
  0
CLASS
  1
ACDBDICTIONARYWDFLT
  2
AcDbDictionaryWithDefault
  3
AutoCAD 2000
 90
        0
280
     0
281
     0
  0
CLASS
  1
ACDBPLACEHOLDER
  2
AcDbPlaceHolder
  3
AutoCAD 2000
 90
        0
280
     0
281
     0
  0
CLASS
  1
LAYOUT
  2
AcDbLayout
  3
AutoCAD 2000
 90
        0
280
     0
281
     0
  0
CLASS
  1
DICTIONARYVAR
  2
AcDbDictionaryVar
  3
"AutoCAD"
 90
        0
280
     0
281
     0
  0
CLASS
  1
LONG_TRANSACTION
  2
AcDbLongTransaction
  3
AutoCAD 2000
 90
        0
280
     0
281
     0
  0
CLASS
  1
LWPOLYLINE
  2
AcDbPolyline
  3
"AutoCAD"
 90
        0
280
     0
281
     1
  0
CLASS
  1
HATCH
  2
AcDbHatch
  3
"ACAD_SEDONA"
 90
        0
280
     0
281
     1
  0
CLASS
  1
XRECORD
  2
AcDbXrecord
  3
"<Built In>"
 90
        0
280
     0
281
     0
  0
CLASS
  1
LONG_TRANSACTION
  2
AcDbLongTransaction
  3
AutoCAD 2000
 90
        0
280
     0
281
     0
  0
CLASS
  1
LWPOLYLINE
  2
AcDbPolyline
  3
"AutoCAD"
 90
        0
280
     0
281
     1
  0
CLASS
  1
HATCH
  2
AcDbHatch
  3
"ACAD_SEDONA"
 90
        0
280
     0
281
     1
  0
CLASS
  1
XRECORD
  2
AcDbXrecord
  3
"<Built In>"
 90
        0
280
     0
281
     0
  0
ENDSEC
  0
SECTION
  2
TABLES
  0
TABLE
  2
VPORT
  5
119
100
AcDbSymbolTable
 70
     1
  0
VPORT
  5
11A
100
AcDbSymbolTableRecord
100
AcDbViewportTableRecord
  2
*ACTIVE
 70
     0
 10
0.0
 20
0.0
 11
1.0
 21
1.0
 12
-17.67967937159765
 22
19.01486391862529
 13
0.0
 23
0.0
 14
1.0
 24
1.0
 15
0.0
 25
0.0
 16
0.0
 26
0.0
 36
1.0
 17
23.09603071721725
 27
-10.27010416511325
 37
-10.44050274849355
 40
17.58402389602889
 41
1.457627118644067
 42
50.0
 43
10.55307667737539
 44
10.55307667737539
 50
0.0
 51
0.0
 71
     0
 72
   100
 73
     1
 74
     1
 75
     0
 76
     0
 77
     0
 78
     0
  0
ENDTAB
  0
TABLE
  2
LTYPE
  5
114
100
AcDbSymbolTable
 70
     1
  0
LTYPE
  5
115
100
AcDbSymbolTableRecord
100
AcDbLinetypeTableRecord
  2
BYBLOCK
 70
     0
  3

 72
    65
 73
     0
 40
0.0
  0
LTYPE
  5
116
100
AcDbSymbolTableRecord
100
AcDbLinetypeTableRecord
  2
BYLAYER
 70
     0
  3

 72
    65
 73
     0
 40
0.0
  0
LTYPE
  5
5
100
AcDbSymbolTableRecord
100
AcDbLinetypeTableRecord
  2
CONTINUOUS
 70
     0
  3
Solid line
 72
    65
 73
     0
 40
0.0
  0
ENDTAB
  0
TABLE
  2
LAYER
  5
112
100
AcDbSymbolTable
 70
     4
  0
LAYER
  5
35
100
AcDbSymbolTableRecord
100
AcDbLayerTableRecord
  2
0
 70
     0
 62
     7
  6
CONTINUOUS
  0
LAYER
  5
8
102
{ACAD_XDICTIONARY
360
9
102
}
100
AcDbSymbolTableRecord
100
AcDbLayerTableRecord
  2
USP-GEO
 70
     0
 62
     7
  6
CONTINUOUS
  0
LAYER
  5
11
102
{ACAD_XDICTIONARY
360
12
102
}
100
AcDbSymbolTableRecord
100
AcDbLayerTableRecord
  2
USP-TXT
 70
     0
 62
     7
  6
CONTINUOUS
  0
LAYER
  5
4
100
AcDbSymbolTableRecord
100
AcDbLayerTableRecord
  2
USP
 70
     0
 62
     7
  6
CONTINUOUS
  0
ENDTAB
  0
TABLE
  2
STYLE
  5
113
100
AcDbSymbolTable
 70
     1
  0
STYLE
  5
14
100
AcDbSymbolTableRecord
100
AcDbTextStyleTableRecord
  2
STANDARD
 70
     0
 40
0.0
 41
1.0
 50
0.0
 71
     0
 42
0.75
  3
txt
  4

  0
ENDTAB
  0
TABLE
  2
VIEW
  5
117
100
AcDbSymbolTable
 70
     0
  0
ENDTAB
  0
TABLE
  2
UCS
  5
118
100
AcDbSymbolTable
 70
     0
  0
ENDTAB
  0
TABLE
  2
APPID
  5
11B
100
AcDbSymbolTable
 70
     1
  0
APPID
  5
11C
100
AcDbSymbolTableRecord
100
AcDbRegAppTableRecord
  2
ACAD
 70
     0
  0
ENDTAB
  0
TABLE
  2
DIMSTYLE
  5
11D
100
AcDbSymbolTable
 70
     1
  0
DIMSTYLE
105
125
100
AcDbSymbolTableRecord
100
AcDbDimStyleTableRecord
  2
STANDARD
 70
     0
  3

  4

  5

  6

  7

 40
1.0
 41
0.18
 42
0.0625
 43
0.38
 44
0.18
 45
0.0
 46
0.0
 47
0.0
 48
0.0
140
0.18
141
0.09
142
0.0
143
25.4
144
1.0
145
0.0
146
1.0
147
0.09
 71
     0
 72
     0
 73
     1
 74
     1
 75
     0
 76
     0
 77
     0
 78
     0
170
     0
171
     2
172
     0
173
     0
174
     0
175
     0
176
     0
177
     0
178
     0
270
     2
271
     4
272
     4
273
     2
274
     2
340
14
275
     0
280
     0
281
     0
282
     0
283
     1
284
     0
285
     0
286
     0
287
     3
288
     0
  0
ENDTAB
  0
TABLE
  2
BLOCK_RECORD
  5
1
100
AcDbSymbolTable
 70
     3
  0
BLOCK_RECORD
  5
2
102
{ACAD_XDICTIONARY
360
109
102
}
100
AcDbSymbolTableRecord
100
AcDbBlockTableRecord
  2
*MODEL_SPACE
  0
BLOCK_RECORD
  5
10D
102
{ACAD_XDICTIONARY
360
10E
102
}
100
AcDbSymbolTableRecord
100
AcDbBlockTableRecord
  2
*PAPER_SPACE
  0
BLOCK_RECORD
  5
6
100
AcDbSymbolTableRecord
100
AcDbBlockTableRecord
  2
HUS179_T
  0
BLOCK_RECORD
  5
38
100
AcDbSymbolTableRecord
100
AcDbBlockTableRecord
  2
HUS179_F
  0
BLOCK_RECORD
  5
CF
100
AcDbSymbolTableRecord
100
AcDbBlockTableRecord
  2
HUS179_S
  0
ENDTAB
  0
ENDSEC
  0
SECTION
  2
BLOCKS
  0
BLOCK
  5
10B
100
AcDbEntity
  8
0
100
AcDbBlockBegin
  2
*MODEL_SPACE
 70
     0
 10
0.0
 20
0.0
 30
0.0
  3
*MODEL_SPACE
  1

  0
ENDBLK
  5
10C
100
AcDbEntity
  8
0
100
AcDbBlockEnd
  0
BLOCK
  5
110
100
AcDbEntity
 67
     1
  8
0
100
AcDbBlockBegin
  2
*PAPER_SPACE
 70
     0
 10
0.0
 20
0.0
 30
0.0
  3
*PAPER_SPACE
  1

  0
ENDBLK
  5
111
100
AcDbEntity
 67
     1
  8
0
100
AcDbBlockEnd
  0
BLOCK
  5
34
100
AcDbEntity
  8
0
100
AcDbBlockBegin
  2
HUS179_T
 70
     0
 10
0.0
 20
0.0
 30
0.0
  3
HUS179_T
  1

  0
LWPOLYLINE
  5
7
100
AcDbEntity
  8
USP-GEO
100
AcDbPolyline
 90
        2
 70
   129
 43
0.0
 10
0.0
 20
3.389080085505185
 10
2.010443779212204
 20
3.389080085505185
  0
LWPOLYLINE
  5
B
100
AcDbEntity
  8
USP-GEO
100
AcDbPolyline
 90
       34
 70
   129
 43
0.0
 10
1.945643012758951
 20
2.254256662992574
 10
1.945643012758951
 20
3.324279319051928
 10
0.0
 20
3.324279319051928
 10
0.0
 20
3.389080085505185
 10
0.0
 20
3.324279319051928
 10
1.945643012758951
 20
3.324279319051928
 10
1.945643012758951
 20
2.254256662992574
 10
2.010443779212204
 20
2.254256662992574
 10
2.010443779212204
 20
3.389080085505185
 10
2.010443779212204
 20
2.254256662992574
 10
2.010443779212204
 20
2.238056471379259
 10
2.010443779212204
 20
2.173255704926006
 10
2.010443779212204
 20
2.091444737278772
 10
2.010443779212204
 20
1.913242629532323
 10
2.010443779212204
 20
1.816041479852442
 10
2.010443779212204
 20
1.799841288239129
 10
2.010443779212204
 20
1.735040521785876
 10
2.010443779212204
 20
1.57303860565274
 10
2.010443779212204
 20
1.313835539839724
 10
2.010443779212204
 20
0.0324003832266264
 10
2.010443779212204
 20
0.0162001916133132
 10
2.010443779212204
 20
0.0
 10
1.945643012758951
 20
0.0
 10
1.945643012758951
 20
0.0162001916133132
 10
1.945643012758951
 20
0.0324003832266264
 10
1.945643012758951
 20
1.313835539839724
 10
1.945643012758951
 20
1.57303860565274
 10
1.945643012758951
 20
1.735040521785876
 10
1.945643012758951
 20
1.799841288239129
 10
1.945643012758951
 20
1.816041479852442
 10
1.945643012758951
 20
1.913242629532323
 10
1.945643012758951
 20
2.091444737278772
 10
1.945643012758951
 20
2.173255704926006
 10
1.945643012758951
 20
2.238056471379259
  0
LWPOLYLINE
  5
C
100
AcDbEntity
  8
USP-GEO
100
AcDbPolyline
 90
       42
 70
   128
 43
0.0
 10
3.517871608831026
 20
0.0
 10
3.777074674644042
 20
0.0
 10
3.841875441097295
 20
0.0
 10
3.841875441097295
 20
0.0162001916133132
 10
3.841875441097295
 20
0.0324003832266264
 10
3.841875441097295
 20
1.313835539839724
 10
3.841875441097295
 20
1.57303860565274
 10
3.841875441097295
 20
1.735040521785876
 10
3.841875441097295
 20
1.799841288239129
 10
3.841875441097295
 20
1.816041479852442
 10
3.841875441097295
 20
1.913242629532323
 10
3.841875441097295
 20
2.091444737278772
 10
3.841875441097295
 20
2.173255704926006
 10
3.841875441097295
 20
2.238056471379259
 10
3.841875441097295
 20
2.254256662992574
 10
3.841875441097295
 20
3.324279319051928
 10
5.787518453856248
 20
3.324279319051928
 10
5.787518453856248
 20
3.389080085505185
 10
3.777074674644042
 20
3.389080085505185
 10
3.777074674644042
 20
2.254256662992574
 10
3.841875441097295
 20
2.254256662992574
 10
3.841875441097295
 20
3.324279319051928
 10
5.787518453856248
 20
3.324279319051928
 10
5.787518453856248
 20
3.389080085505185
 10
3.777074674644042
 20
3.389080085505185
 10
3.777074674644042
 20
2.254256662992574
 10
3.777074674644042
 20
2.238056471379259
 10
3.777074674644042
 20
2.173255704926006
 10
3.777074674644042
 20
2.091444737278772
 10
3.777074674644042
 20
1.913242629532323
 10
3.777074674644042
 20
1.816041479852442
 10
3.777074674644042
 20
1.799841288239129
 10
3.777074674644042
 20
1.735040521785876
 10
3.777074674644042
 20
1.57303860565274
 10
3.777074674644042
 20
1.313835539839724
 10
3.777074674644042
 20
0.0324003832266264
 10
3.777074674644042
 20
0.0162001916133132
 10
3.777074674644042
 20
0.0
 10
3.517871608831026
 20
0.0
 10
3.501671417217712
 20
0.0486005748399396
 10
3.469271033991086
 20
0.0810009580665678
 10
3.420670459151144
 20
0.097201149679881
  0
LWPOLYLINE
  5
D
100
AcDbEntity
  8
USP-GEO
100
AcDbPolyline
 90
        9
 70
   128
 43
0.0
 10
2.010443779212204
 20
0.0324003832266264
 10
2.010443779212204
 20
1.313835539839724
 10
2.010443779212204
 20
1.57303860565274
 10
2.010443779212204
 20
1.735040521785876
 10
2.010443779212204
 20
1.799841288239129
 10
1.945643012758951
 20
1.799841288239129
 10
1.945643012758951
 20
1.735040521785876
 10
1.945643012758951
 20
1.57303860565274
 10
1.945643012758951
 20
1.313835539839724
  0
LWPOLYLINE
  5
E
100
AcDbEntity
  8
USP-GEO
100
AcDbPolyline
 90
        6
 70
   128
 43
0.0
 10
2.010443779212204
 20
1.313835539839724
 10
1.945643012758951
 20
1.313835539839724
 10
1.945643012758951
 20
0.0324003832266264
 10
2.010443779212204
 20
0.0324003832266264
 10
2.010443779212204
 20
0.0162001916133132
 10
2.01125378879287
 20
0.0162001916133132
  0
LWPOLYLINE
  5
F
100
AcDbEntity
  8
USP-GEO
100
AcDbPolyline
 90
       10
 70
   129
 43
0.0
 10
3.841875441097295
 20
1.799841288239129
 10
3.777074674644042
 20
1.799841288239129
 10
3.777074674644042
 20
1.735040521785876
 10
3.777074674644042
 20
1.57303860565274
 10
3.777074674644042
 20
1.313835539839724
 10
3.777074674644042
 20
0.0324003832266264
 10
3.841875441097295
 20
0.0324003832266264
 10
3.841875441097295
 20
1.313835539839724
 10
3.841875441097295
 20
1.57303860565274
 10
3.841875441097295
 20
1.735040521785876
  0
TEXT
  5
10
100
AcDbEntity
  8
USP-TXT
100
AcDbText
 10
1.20105089359479
 20
-1.172334959011944
 30
0.0
 40
0.203125
  1
HUS179 - TOP VIEW
 72
     1
 11
2.893759226928123
 21
-1.172334959011944
 31
0.0
100
AcDbText
  0
LWPOLYLINE
  5
15
100
AcDbEntity
  8
USP-GEO
100
AcDbPolyline
 90
        2
 70
   129
 43
0.0
 10
3.274868734631324
 20
0.0
 10
2.512649719224922
 20
0.0
  0
LWPOLYLINE
  5
16
100
AcDbEntity
  8
USP-GEO
100
AcDbPolyline
 90
        2
 70
   129
 43
0.0
 10
2.431648761158356
 20
0.097201149679881
 10
2.350647803091789
 20
0.097201149679881
  0
LWPOLYLINE
  5
17
100
AcDbEntity
  8
USP-GEO
100
AcDbPolyline
 90
        2
 70
   129
 43
0.0
 10
2.269646845025221
 20
0.0
 10
2.010443779212204
 20
0.0
  0
LWPOLYLINE
  5
18
100
AcDbEntity
  8
USP-GEO
100
AcDbPolyline
 90
        3
 70
   128
 43
0.0
 10
1.945643012758951
 20
0.0324003832266264
 10
1.945643012758951
 20
0.0162001916133132
 10
1.946453022339616
 20
0.0162001916133132
  0
LWPOLYLINE
  5
19
100
AcDbEntity
  8
USP-GEO
100
AcDbPolyline
 90
        3
 70
   128
 43
0.0
 10
1.945643012758951
 20
0.0162001916133132
 10
1.945643012758951
 20
0.0
 10
2.010443779212204
 20
0.0
  0
LWPOLYLINE
  5
1A
100
AcDbEntity
  8
USP-GEO
100
AcDbPolyline
 90
        2
 70
   128
 43
0.0
 10
2.010443779212204
 20
0.0
 10
2.010443779212204
 20
0.0162001916133132
  0
LWPOLYLINE
  5
1B
100
AcDbEntity
  8
USP-GEO
100
AcDbPolyline
 90
        4
 70
   128
 43
0.0
 10
2.269646845025221
 20
0.0
 10
2.285847036638534
 20
0.0486005748399396
 10
2.31824741986516
 20
0.0810009580665678
 10
2.350647803091789
 20
0.097201149679881
  0
LWPOLYLINE
  5
1C
100
AcDbEntity
  8
USP-GEO
100
AcDbPolyline
 90
        4
 70
   128
 43
0.0
 10
2.512649719224922
 20
0.0
 10
2.512649719224922
 20
0.0486005748399396
 10
2.480249335998296
 20
0.0810009580665678
 10
2.431648761158356
 20
0.097201149679881
  0
LWPOLYLINE
  5
1D
100
AcDbEntity
  8
USP-GEO
100
AcDbPolyline
 90
        6
 70
   128
 43
0.0
 10
3.841875441097295
 20
0.0324003832266264
 10
3.841875441097295
 20
0.0162001916133132
 10
3.841875441097295
 20
0.0
 10
3.777074674644042
 20
0.0
 10
3.777074674644042
 20
0.0162001916133132
 10
3.777074674644042
 20
0.0324003832266264
  0
LWPOLYLINE
  5
1E
100
AcDbEntity
  8
USP-GEO
100
AcDbPolyline
 90
        4
 70
   128
 43
0.0
 10
3.355869692697892
 20
0.097201149679881
 10
3.30726911785795
 20
0.0810009580665678
 10
3.274868734631324
 20
0.0486005748399396
 10
3.274868734631324
 20
0.0
  0
LWPOLYLINE
  5
1F
100
AcDbEntity
  8
USP-GEO
100
AcDbPolyline
 90
        2
 70
   129
 43
0.0
 10
3.420670459151144
 20
0.097201149679881
 10
3.355869692697892
 20
0.097201149679881
  0
LWPOLYLINE
  5
20
100
AcDbEntity
  8
USP-GEO
100
AcDbPolyline
 90
        2
 70
   128
 43
0.0
 10
3.841875441097295
 20
0.0162001916133132
 10
3.842685450677963
 20
0.0162001916133132
  0
LWPOLYLINE
  5
21
100
AcDbEntity
  8
USP-GEO
100
AcDbPolyline
 90
        2
 70
   129
 43
0.0
 10
2.512649719224922
 20
3.016475678398974
 10
3.274868734631324
 20
3.016475678398974
  0
LWPOLYLINE
  5
22
100
AcDbEntity
  8
USP-GEO
100
AcDbPolyline
 90
        5
 70
   128
 43
0.0
 10
1.945643012758951
 20
2.481059345578962
 10
1.864642054692383
 20
2.383858195899081
 10
1.816041479852442
 20
2.221856279765946
 10
1.832241671465755
 20
2.157055513312691
 10
1.833051681046422
 20
2.157055513312691
  0
LWPOLYLINE
  5
23
100
AcDbEntity
  8
USP-GEO
100
AcDbPolyline
 90
        9
 70
   128
 43
0.0
 10
1.945643012758951
 20
1.978043395985578
 10
1.89704243791901
 20
2.010443779212204
 10
1.89704243791901
 20
2.026643970825519
 10
1.89704243791901
 20
2.042844162438832
 10
1.880842246305697
 20
2.059044354052145
 10
1.864642054692383
 20
2.091444737278772
 10
1.84844186307907
 20
2.107644928892085
 10
1.832241671465755
 20
2.140855321699378
 10
1.832241671465755
 20
2.157055513312691
  0
LWPOLYLINE
  5
24
100
AcDbEntity
  8
USP-GEO
100
AcDbPolyline
 90
       14
 70
   128
 43
0.0
 10
2.010443779212204
 20
2.091444737278772
 10
2.010443779212204
 20
2.173255704926006
 10
2.010443779212204
 20
2.238056471379259
 10
2.010443779212204
 20
2.254256662992574
 10
1.945643012758951
 20
2.254256662992574
 10
1.945643012758951
 20
2.238056471379259
 10
1.945643012758951
 20
2.173255704926006
 10
1.945643012758951
 20
2.091444737278772
 10
2.010443779212204
 20
2.091444737278772
 10
2.010443779212204
 20
1.913242629532323
 10
2.010443779212204
 20
1.816041479852442
 10
1.945643012758951
 20
1.816041479852442
 10
1.945643012758951
 20
1.913242629532323
 10
1.945643012758951
 20
2.091444737278772
  0
LWPOLYLINE
  5
25
100
AcDbEntity
  8
USP-GEO
100
AcDbPolyline
 90
        4
 70
   128
 43
0.0
 10
1.945643012758951
 20
1.816041479852442
 10
1.945643012758951
 20
1.799841288239129
 10
2.010443779212204
 20
1.799841288239129
 10
2.010443779212204
 20
1.816041479852442
  0
LWPOLYLINE
  5
26
100
AcDbEntity
  8
USP-GEO
100
AcDbPolyline
 90
        2
 70
   129
 43
0.0
 10
2.350647803091789
 20
2.918464519138426
 10
2.431648761158356
 20
2.918464519138426
  0
LWPOLYLINE
  5
27
100
AcDbEntity
  8
USP-GEO
100
AcDbPolyline
 90
        2
 70
   129
 43
0.0
 10
2.010443779212204
 20
3.016475678398974
 10
2.269646845025221
 20
3.016475678398974
  0
LWPOLYLINE
  5
28
100
AcDbEntity
  8
USP-GEO
100
AcDbPolyline
 90
        4
 70
   128
 43
0.0
 10
2.350647803091789
 20
2.918464519138426
 10
2.31824741986516
 20
2.934664710751739
 10
2.285847036638534
 20
2.967065093978368
 10
2.269646845025221
 20
3.016475678398974
  0
LWPOLYLINE
  5
29
100
AcDbEntity
  8
USP-GEO
100
AcDbPolyline
 90
        4
 70
   128
 43
0.0
 10
2.512649719224922
 20
3.016475678398974
 10
2.512649719224922
 20
2.967065093978368
 10
2.480249335998296
 20
2.934664710751739
 10
2.431648761158356
 20
2.918464519138426
  0
LWPOLYLINE
  5
2A
100
AcDbEntity
  8
USP-GEO
100
AcDbPolyline
 90
        6
 70
   128
 43
0.0
 10
3.777074674644042
 20
2.091444737278772
 10
3.777074674644042
 20
1.913242629532323
 10
3.777074674644042
 20
1.816041479852442
 10
3.841875441097295
 20
1.816041479852442
 10
3.841875441097295
 20
1.913242629532323
 10
3.841875441097295
 20
2.091444737278772
  0
LWPOLYLINE
  5
2B
100
AcDbEntity
  8
USP-GEO
100
AcDbPolyline
 90
        8
 70
   129
 43
0.0
 10
3.841875441097295
 20
2.254256662992574
 10
3.777074674644042
 20
2.254256662992574
 10
3.777074674644042
 20
2.238056471379259
 10
3.777074674644042
 20
2.173255704926006
 10
3.777074674644042
 20
2.091444737278772
 10
3.841875441097295
 20
2.091444737278772
 10
3.841875441097295
 20
2.173255704926006
 10
3.841875441097295
 20
2.238056471379259
  0
LWPOLYLINE
  5
2C
100
AcDbEntity
  8
USP-GEO
100
AcDbPolyline
 90
        2
 70
   128
 43
0.0
 10
3.841875441097295
 20
1.313835539839724
 10
3.777074674644042
 20
1.313835539839724
  0
LWPOLYLINE
  5
2D
100
AcDbEntity
  8
USP-GEO
100
AcDbPolyline
 90
        4
 70
   128
 43
0.0
 10
3.777074674644042
 20
1.816041479852442
 10
3.777074674644042
 20
1.799841288239129
 10
3.841875441097295
 20
1.799841288239129
 10
3.841875441097295
 20
1.816041479852442
  0
LWPOLYLINE
  5
2E
100
AcDbEntity
  8
USP-GEO
100
AcDbPolyline
 90
        4
 70
   128
 43
0.0
 10
3.955276782390489
 20
2.157055513312691
 10
3.971476974003804
 20
2.221856279765946
 10
3.922876399163863
 20
2.383858195899081
 10
3.841875441097295
 20
2.481059345578962
  0
LWPOLYLINE
  5
2F
100
AcDbEntity
  8
USP-GEO
100
AcDbPolyline
 90
       10
 70
   128
 43
0.0
 10
3.841875441097295
 20
1.978043395985578
 10
3.890476015937236
 20
2.010443779212204
 10
3.890476015937236
 20
2.026643970825519
 10
3.890476015937236
 20
2.042844162438832
 10
3.906676207550551
 20
2.059044354052145
 10
3.922876399163863
 20
2.091444737278772
 10
3.939076590777178
 20
2.107644928892085
 10
3.955276782390489
 20
2.140855321699378
 10
3.955276782390489
 20
2.157055513312691
 10
3.956086791971157
 20
2.157055513312691
  0
LWPOLYLINE
  5
30
100
AcDbEntity
  8
USP-GEO
100
AcDbPolyline
 90
        4
 70
   128
 43
0.0
 10
3.355869692697892
 20
2.918464519138426
 10
3.30726911785795
 20
2.934664710751739
 10
3.274868734631324
 20
2.967065093978368
 10
3.274868734631324
 20
3.016475678398974
  0
LWPOLYLINE
  5
31
100
AcDbEntity
  8
USP-GEO
100
AcDbPolyline
 90
        2
 70
   129
 43
0.0
 10
3.517871608831026
 20
3.016475678398974
 10
3.777074674644042
 20
3.016475678398974
  0
LWPOLYLINE
  5
32
100
AcDbEntity
  8
USP-GEO
100
AcDbPolyline
 90
        4
 70
   128
 43
0.0
 10
3.517871608831026
 20
3.016475678398974
 10
3.501671417217712
 20
2.967065093978368
 10
3.469271033991086
 20
2.934664710751739
 10
3.420670459151144
 20
2.918464519138426
  0
LWPOLYLINE
  5
33
100
AcDbEntity
  8
USP-GEO
100
AcDbPolyline
 90
        2
 70
   129
 43
0.0
 10
3.355869692697892
 20
2.918464519138426
 10
3.420670459151144
 20
2.918464519138426
  0
ENDBLK
  5
36
100
AcDbEntity
  8
0
100
AcDbBlockEnd
  0
BLOCK
  5
CC
100
AcDbEntity
  8
0
100
AcDbBlockBegin
  2
HUS179_F
 70
     0
 10
0.0
 20
0.0
 30
0.0
  3
HUS179_F
  1

  0
LWPOLYLINE
  5
39
100
AcDbEntity
  8
USP-GEO
100
AcDbPolyline
 90
        2
 70
   129
 43
0.0
 10
0.0
 20
9.178218558522766
 10
1.945643012758951
 20
9.178218558522766
  0
LWPOLYLINE
  5
3A
100
AcDbEntity
  8
USP-GEO
100
AcDbPolyline
 90
        2
 70
   129
 43
0.0
 10
1.945643012758951
 20
0.5030159495933848
 10
0.9404211231528485
 20
1.670239755332623
  0
LWPOLYLINE
  5
3B
100
AcDbEntity
  8
USP-GEO
100
AcDbPolyline
 90
       37
 70
   128
 43
0.0
 10
0.0
 20
8.70760299215601
 10
0.0
 20
9.178218558522766
 10
0.0
 20
8.70760299215601
 10
0.0324003832266264
 20
8.594201650862816
 10
0.0810009580665661
 20
8.513200692796248
 10
0.1782021077464471
 20
8.464600117956306
 10
0.3564042154928959
 20
8.351198776663112
 10
0.4544153747534434
 20
8.15679647730335
 10
0.4544153747534434
 20
7.946193986330273
 10
0.3564042154928959
 20
7.767181869003159
 10
0.1782021077464471
 20
7.653780527709965
 10
0.0810009580665661
 20
7.605179952870026
 10
0.0324003832266264
 20
7.507978803190143
 10
0.0
 20
7.410777653510264
 10
0.0
 20
6.972562470370133
 10
0.0324003832266264
 20
6.875361320690252
 10
0.0810009580665661
 20
6.794360362623685
 10
0.1782021077464471
 20
6.745759787783743
 10
0.3564042154928959
 20
6.616158254877236
 10
0.4544153747534434
 20
6.437956147130787
 10
0.4544153747534434
 20
6.227353656157712
 10
0.3564042154928959
 20
6.032141347217283
 10
0.1782021077464471
 20
5.918740005924089
 10
0.0810009580665661
 20
5.870139431084149
 10
0.0324003832266264
 20
5.789138473017581
 10
0.0
 20
5.6919373233377
 10
0.0
 20
4.589514284051716
 10
0.0324003832266264
 20
4.475302933177855
 10
0.0810009580665661
 20
4.394301975111288
 10
0.1782021077464471
 20
4.345701400271348
 10
0.3240038322662695
 20
4.248500250591467
 10
0.4220149915268152
 20
4.11889871768496
 10
0.4706155663667566
 20
3.940696609938511
 10
0.4706155663667566
 20
2.967875103559034
 10
0.5192161412066963
 20
2.497259537192277
 10
0.6812180573398319
 20
2.059854363632812
 10
0.9404211231528485
 20
1.670239755332623
  0
LWPOLYLINE
  5
3C
100
AcDbEntity
  8
USP-GEO
100
AcDbPolyline
 90
        2
 70
   128
 43
0.0
 10
0.0
 20
7.410777653510264
 10
0.0
 20
6.972562470370133
  0
LWPOLYLINE
  5
3D
100
AcDbEntity
  8
USP-GEO
100
AcDbPolyline
 90
        2
 70
   128
 43
0.0
 10
0.6812180573398319
 20
2.059854363632812
 10
0.9404211231528485
 20
1.670239755332623
  0
LWPOLYLINE
  5
3E
100
AcDbEntity
  8
USP-GEO
100
AcDbPolyline
 90
        3
 70
   128
 43
0.0
 10
0.4220149915268152
 20
4.11889871768496
 10
0.4706155663667566
 20
3.940696609938511
 10
0.4706155663667566
 20
2.967875103559034
  0
LWPOLYLINE
  5
3F
100
AcDbEntity
  8
USP-GEO
100
AcDbPolyline
 90
       12
 70
   129
 43
0.0
 10
0.7460188237930865
 20
2.448658962352336
 10
0.7784192070197129
 20
2.481059345578964
 10
0.8270197818596543
 20
2.481059345578964
 10
0.8756203566995939
 20
2.481059345578964
 10
0.9080207399262203
 20
2.448658962352336
 10
0.9242209315395353
 20
2.400058387512396
 10
0.9080207399262203
 20
2.351457812672455
 10
0.8756203566995939
 20
2.319057429445829
 10
0.8270197818596543
 20
2.302857237832515
 10
0.7784192070197129
 20
2.319057429445829
 10
0.7460188237930865
 20
2.351457812672455
 10
0.7298186321797733
 20
2.400058387512396
  0
LWPOLYLINE
  5
40
100
AcDbEntity
  8
USP-GEO
100
AcDbPolyline
 90
        2
 70
   128
 43
0.0
 10
0.0810009580665661
 20
4.394301975111288
 10
0.1782021077464471
 20
4.345701400271348
  0
LWPOLYLINE
  5
41
100
AcDbEntity
  8
USP-GEO
100
AcDbPolyline
 90
       12
 70
   129
 43
0.0
 10
0.7460188237930865
 20
4.345701400271348
 10
0.7298186321797733
 20
4.394301975111288
 10
0.7460188237930865
 20
4.442902549951229
 10
0.7784192070197129
 20
4.475302933177855
 10
0.8270197818596543
 20
4.491503124791169
 10
0.8756203566995939
 20
4.475302933177855
 10
0.9080207399262203
 20
4.442902549951229
 10
0.9242209315395353
 20
4.394301975111288
 10
0.9080207399262203
 20
4.345701400271348
 10
0.8756203566995939
 20
4.313301017044722
 10
0.8270197818596543
 20
4.313301017044722
 10
0.7784192070197129
 20
4.313301017044722
  0
LWPOLYLINE
  5
42
100
AcDbEntity
  8
USP-GEO
100
AcDbPolyline
 90
        2
 70
   128
 43
0.0
 10
0.0
 20
5.6919373233377
 10
0.0
 20
4.589514284051716
  0
LWPOLYLINE
  5
43
100
AcDbEntity
  8
USP-GEO
100
AcDbPolyline
 90
       12
 70
   129
 43
0.0
 10
0.2430028741997017
 20
5.107920415677748
 10
0.2268026825863885
 20
5.156520990517689
 10
0.2430028741997017
 20
5.188921373744316
 10
0.2754032574263281
 20
5.221321756970942
 10
0.3240038322662695
 20
5.237521948584257
 10
0.3564042154928959
 20
5.221321756970942
 10
0.3896146083001888
 20
5.188921373744316
 10
0.405814799913502
 20
5.156520990517689
 10
0.3896146083001888
 20
5.107920415677748
 10
0.3564042154928959
 20
5.075520032451121
 10
0.3240038322662695
 20
5.059319840837808
 10
0.2754032574263281
 20
5.075520032451121
  0
LWPOLYLINE
  5
44
100
AcDbEntity
  8
USP-GEO
100
AcDbPolyline
 90
        2
 70
   128
 43
0.0
 10
0.3564042154928959
 20
6.032141347217283
 10
0.1782021077464471
 20
5.918740005924089
  0
LWPOLYLINE
  5
45
100
AcDbEntity
  8
USP-GEO
100
AcDbPolyline
 90
       12
 70
   129
 43
0.0
 10
0.2430028741997017
 20
6.940162087143505
 10
0.2754032574263281
 20
6.972562470370133
 10
0.3240038322662695
 20
6.988762661983447
 10
0.3564042154928959
 20
6.972562470370133
 10
0.3896146083001888
 20
6.940162087143505
 10
0.405814799913502
 20
6.907761703916879
 10
0.3896146083001888
 20
6.859161129076937
 10
0.3564042154928959
 20
6.826760745850311
 10
0.3240038322662695
 20
6.810560554236998
 10
0.2754032574263281
 20
6.826760745850311
 10
0.2430028741997017
 20
6.859161129076937
 10
0.2268026825863885
 20
6.907761703916879
  0
LWPOLYLINE
  5
46
100
AcDbEntity
  8
USP-GEO
100
AcDbPolyline
 90
        2
 70
   128
 43
0.0
 10
0.0810009580665661
 20
6.794360362623685
 10
0.1782021077464471
 20
6.745759787783743
  0
LWPOLYLINE
  5
47
100
AcDbEntity
  8
USP-GEO
100
AcDbPolyline
 90
        2
 70
   128
 43
0.0
 10
0.2754032574263281
 20
6.972562470370133
 10
0.3240038322662695
 20
6.988762661983447
  0
LWPOLYLINE
  5
48
100
AcDbEntity
  8
USP-GEO
100
AcDbPolyline
 90
       12
 70
   129
 43
0.0
 10
0.7298186321797733
 20
6.113142305283851
 10
0.7460188237930865
 20
6.161742880123792
 10
0.7784192070197129
 20
6.194143263350419
 10
0.8270197818596543
 20
6.210343454963732
 10
0.8756203566995939
 20
6.194143263350419
 10
0.9080207399262203
 20
6.161742880123792
 10
0.9242209315395353
 20
6.113142305283851
 10
0.9080207399262203
 20
6.080741922057224
 10
0.8756203566995939
 20
6.048341538830596
 10
0.8270197818596543
 20
6.032141347217283
 10
0.7784192070197129
 20
6.048341538830596
 10
0.7460188237930865
 20
6.080741922057224
  0
LWPOLYLINE
  5
49
100
AcDbEntity
  8
USP-GEO
100
AcDbPolyline
 90
        2
 70
   128
 43
0.0
 10
0.3564042154928959
 20
7.767181869003159
 10
0.1782021077464471
 20
7.653780527709965
  0
LWPOLYLINE
  5
4A
100
AcDbEntity
  8
USP-GEO
100
AcDbPolyline
 90
       12
 70
   129
 43
0.0
 10
0.7460188237930865
 20
8.172996668916663
 10
0.7784192070197129
 20
8.205397052143291
 10
0.8270197818596543
 20
8.205397052143291
 10
0.8756203566995939
 20
8.205397052143291
 10
0.9080207399262203
 20
8.172996668916663
 10
0.9242209315395353
 20
8.124396094076724
 10
0.9080207399262203
 20
8.075795519236782
 10
0.8756203566995939
 20
8.043395136010156
 10
0.8270197818596543
 20
8.027194944396841
 10
0.7784192070197129
 20
8.043395136010156
 10
0.7460188237930865
 20
8.075795519236782
 10
0.7298186321797733
 20
8.124396094076724
  0
LWPOLYLINE
  5
4B
100
AcDbEntity
  8
USP-GEO
100
AcDbPolyline
 90
       12
 70
   129
 43
0.0
 10
0.3240038322662695
 20
9.000016450776318
 10
0.3564042154928959
 20
8.983816259163004
 10
0.3896146083001888
 20
8.951415875936378
 10
0.405814799913502
 20
8.902815301096437
 10
0.3896146083001888
 20
8.854214726256495
 10
0.3564042154928959
 20
8.821814343029869
 10
0.3240038322662695
 20
8.805614151416556
 10
0.2754032574263281
 20
8.821814343029869
 10
0.2430028741997017
 20
8.854214726256495
 10
0.2268026825863885
 20
8.902815301096437
 10
0.2430028741997017
 20
8.951415875936378
 10
0.2754032574263281
 20
8.983816259163004
  0
LWPOLYLINE
  5
4C
100
AcDbEntity
  8
USP-GEO
100
AcDbPolyline
 90
        2
 70
   128
 43
0.0
 10
0.0810009580665661
 20
8.513200692796248
 10
0.1782021077464471
 20
8.464600117956306
  0
LWPOLYLINE
  5
4D
100
AcDbEntity
  8
USP-GEO
100
AcDbPolyline
 90
        2
 70
   129
 43
0.0
 10
5.787518453856248
 20
7.232575545763815
 10
5.787518453856248
 20
6.794360362623685
  0
LWPOLYLINE
  5
4E
100
AcDbEntity
  8
USP-GEO
100
AcDbPolyline
 90
       94
 70
   128
 43
0.0
 10
5.608506336529133
 20
7.459378228350203
 10
5.430304228782686
 20
7.572779569643397
 10
5.333103079102803
 20
7.767181869003159
 10
5.333103079102803
 20
7.978594369556901
 10
5.430304228782686
 20
8.15679647730335
 10
5.608506336529133
 20
8.286398010209858
 10
5.705707486209016
 20
8.334998585049797
 10
5.754308061048954
 20
8.415999543116365
 10
5.787518453856248
 20
8.513200692796248
 10
5.787518453856248
 20
9.178218558522766
 10
3.841875441097295
 20
9.178218558522766
 10
3.841875441097295
 20
8.513200692796248
 10
3.841875441097295
 20
8.415999543116365
 10
3.841875441097295
 20
8.334998585049797
 10
3.841875441097295
 20
8.286398010209858
 10
3.841875441097295
 20
8.15679647730335
 10
3.841875441097295
 20
7.978594369556901
 10
3.841875441097295
 20
7.767181869003159
 10
3.841875441097295
 20
7.572779569643397
 10
3.841875441097295
 20
7.459378228350203
 10
3.841875441097295
 20
7.410777653510264
 10
3.841875441097295
 20
7.329776695443696
 10
3.841875441097295
 20
7.232575545763815
 10
3.841875441097295
 20
6.794360362623685
 10
3.841875441097295
 20
6.68095902133049
 10
3.841875441097295
 20
6.599958063263922
 10
3.841875441097295
 20
6.551357488423981
 10
3.841875441097295
 20
6.437956147130787
 10
3.841875441097295
 20
6.243553847771025
 10
3.841875441097295
 20
6.032141347217283
 10
3.841875441097295
 20
5.853939239470834
 10
3.841875441097295
 20
5.74053789817764
 10
3.841875441097295
 20
5.675737131724387
 10
3.841875441097295
 20
5.594736173657819
 10
3.841875441097295
 20
5.497535023977938
 10
3.841875441097295
 20
4.589514284051716
 10
3.841875441097295
 20
4.475302933177855
 10
3.841875441097295
 20
4.394301975111288
 10
3.841875441097295
 20
4.345701400271348
 10
3.841875441097295
 20
4.248500250591467
 10
3.841875441097295
 20
4.11889871768496
 10
3.841875441097295
 20
3.940696609938511
 10
3.841875441097295
 20
2.967875103559034
 10
3.841875441097295
 20
2.497259537192277
 10
3.841875441097295
 20
2.059854363632812
 10
3.841875441097295
 20
1.670239755332623
 10
3.841875441097295
 20
0.1620019161331356
 10
3.841875441097295
 20
0.1458017245198224
 10
3.841875441097295
 20
0.113401341293196
 10
3.841875441097295
 20
0.0810009580665678
 10
3.841875441097295
 20
0.0
 10
3.517871608831026
 20
0.0
 10
3.501671417217712
 20
0.0
 10
3.469271033991086
 20
0.0
 10
3.420670459151144
 20
0.0
 10
3.355869692697892
 20
0.0
 10
3.30726911785795
 20
0.0
 10
3.274868734631324
 20
0.0
 10
2.512649719224922
 20
0.0
 10
2.480249335998296
 20
0.0
 10
2.431648761158356
 20
0.0
 10
2.350647803091789
 20
0.0
 10
2.31824741986516
 20
0.0
 10
2.285847036638534
 20
0.0
 10
2.269646845025221
 20
0.0
 10
1.945643012758951
 20
0.0
 10
1.945643012758951
 20
0.0810009580665678
 10
1.945643012758951
 20
0.113401341293196
 10
1.945643012758951
 20
0.1458017245198224
 10
1.945643012758951
 20
0.1620019161331356
 10
1.945643012758951
 20
1.670239755332623
 10
1.945643012758951
 20
2.059854363632812
 10
1.945643012758951
 20
2.497259537192277
 10
1.945643012758951
 20
2.967875103559034
 10
1.945643012758951
 20
3.940696609938511
 10
1.945643012758951
 20
4.11889871768496
 10
1.945643012758951
 20
4.248500250591467
 10
1.945643012758951
 20
4.345701400271348
 10
1.945643012758951
 20
4.394301975111288
 10
1.945643012758951
 20
4.475302933177855
 10
1.945643012758951
 20
4.589514284051716
 10
1.945643012758951
 20
5.6919373233377
 10
1.945643012758951
 20
5.789138473017581
 10
1.945643012758951
 20
5.870139431084149
 10
1.945643012758951
 20
5.918740005924089
 10
1.945643012758951
 20
6.032141347217283
 10
1.945643012758951
 20
6.227353656157712
 10
1.945643012758951
 20
6.437956147130787
 10
1.945643012758951
 20
6.616158254877236
 10
1.945643012758951
 20
6.745759787783743
 10
1.945643012758951
 20
6.794360362623685
 10
1.945643012758951
 20
6.875361320690252
 10
1.945643012758951
 20
6.972562470370133
 10
1.945643012758951
 20
7.410777653510264
  0
LWPOLYLINE
  5
4F
100
AcDbEntity
  8
USP-GEO
100
AcDbPolyline
 90
        2
 70
   128
 43
0.0
 10
3.777074674644042
 20
7.232575545763815
 10
3.777074674644042
 20
6.794360362623685
  0
LWPOLYLINE
  5
50
100
AcDbEntity
  8
USP-GEO
100
AcDbPolyline
 90
        6
 70
   128
 43
0.0
 10
2.010443779212204
 20
6.972562470370133
 10
2.010443779212204
 20
7.410777653510264
 10
1.945643012758951
 20
7.410777653510264
 10
1.945643012758951
 20
7.507978803190143
 10
1.945643012758951
 20
7.605179952870026
 10
1.945643012758951
 20
7.653780527709965
  0
LWPOLYLINE
  5
51
100
AcDbEntity
  8
USP-GEO
100
AcDbPolyline
 90
       14
 70
   128
 43
0.0
 10
1.945643012758951
 20
9.178218558522766
 10
1.945643012758951
 20
8.70760299215601
 10
1.945643012758951
 20
8.594201650862816
 10
1.945643012758951
 20
8.513200692796248
 10
1.945643012758951
 20
8.464600117956306
 10
1.945643012758951
 20
8.351198776663112
 10
1.945643012758951
 20
8.15679647730335
 10
1.945643012758951
 20
7.946193986330273
 10
1.945643012758951
 20
7.767181869003159
 10
1.945643012758951
 20
7.653780527709965
 10
1.945643012758951
 20
7.605179952870026
 10
1.945643012758951
 20
7.507978803190143
 10
1.945643012758951
 20
7.410777653510264
 10
1.945643012758951
 20
6.972562470370133
  0
LWPOLYLINE
  5
52
100
AcDbEntity
  8
USP-GEO
100
AcDbPolyline
 90
       61
 70
   128
 43
0.0
 10
2.269646845025221
 20
0.0648007664532546
 10
2.010443779212204
 20
0.0648007664532546
 10
2.269646845025221
 20
0.0648007664532546
 10
2.285847036638534
 20
0.0648007664532546
 10
2.31824741986516
 20
0.0648007664532546
 10
2.350647803091789
 20
0.0648007664532546
 10
2.431648761158356
 20
0.0648007664532546
 10
2.480249335998296
 20
0.0648007664532546
 10
2.512649719224922
 20
0.0648007664532546
 10
3.274868734631324
 20
0.0648007664532546
 10
3.30726911785795
 20
0.0648007664532546
 10
3.355869692697892
 20
0.0648007664532546
 10
3.420670459151144
 20
0.0648007664532546
 10
3.469271033991086
 20
0.0648007664532546
 10
3.501671417217712
 20
0.0648007664532546
 10
3.517871608831026
 20
0.0648007664532546
 10
3.777074674644042
 20
0.0648007664532546
 10
3.777074674644042
 20
0.0810009580665678
 10
3.777074674644042
 20
0.113401341293196
 10
3.777074674644042
 20
0.1458017245198224
 10
3.777074674644042
 20
0.1620019161331356
 10
3.777074674644042
 20
1.670239755332623
 10
3.777074674644042
 20
2.059854363632812
 10
3.777074674644042
 20
2.497259537192277
 10
3.777074674644042
 20
2.967875103559034
 10
3.777074674644042
 20
3.940696609938511
 10
3.777074674644042
 20
4.11889871768496
 10
3.777074674644042
 20
4.248500250591467
 10
3.777074674644042
 20
4.345701400271348
 10
3.777074674644042
 20
4.394301975111288
 10
3.777074674644042
 20
4.475302933177855
 10
3.777074674644042
 20
4.589514284051716
 10
3.777074674644042
 20
5.497535023977938
 10
3.777074674644042
 20
5.594736173657819
 10
3.777074674644042
 20
5.675737131724387
 10
3.777074674644042
 20
5.74053789817764
 10
3.777074674644042
 20
5.853939239470834
 10
3.777074674644042
 20
6.032141347217283
 10
3.777074674644042
 20
6.243553847771025
 10
3.777074674644042
 20
6.437956147130787
 10
3.777074674644042
 20
6.551357488423981
 10
3.777074674644042
 20
6.599958063263922
 10
3.777074674644042
 20
6.68095902133049
 10
3.777074674644042
 20
6.794360362623685
 10
3.777074674644042
 20
7.232575545763815
 10
3.777074674644042
 20
7.329776695443696
 10
3.777074674644042
 20
7.410777653510264
 10
3.777074674644042
 20
7.459378228350203
 10
3.777074674644042
 20
7.572779569643397
 10
3.777074674644042
 20
7.767181869003159
 10
3.777074674644042
 20
7.978594369556901
 10
3.777074674644042
 20
8.15679647730335
 10
3.777074674644042
 20
8.286398010209858
 10
3.777074674644042
 20
8.334998585049797
 10
3.777074674644042
 20
8.415999543116365
 10
3.777074674644042
 20
8.513200692796248
 10
3.777074674644042
 20
9.178218558522766
 10
3.841875441097295
 20
9.178218558522766
 10
5.787518453856248
 20
9.178218558522766
 10
5.787518453856248
 20
8.513200692796248
 10
5.754308061048954
 20
8.415999543116365
  0
LWPOLYLINE
  5
53
100
AcDbEntity
  8
USP-GEO
100
AcDbPolyline
 90
       49
 70
   128
 43
0.0
 10
2.010443779212204
 20
0.0810009580665678
 10
2.010443779212204
 20
0.113401341293196
 10
2.010443779212204
 20
0.1458017245198224
 10
2.010443779212204
 20
0.1620019161331356
 10
1.945643012758951
 20
0.1620019161331356
 10
1.945643012758951
 20
0.1458017245198224
 10
1.945643012758951
 20
0.113401341293196
 10
1.945643012758951
 20
0.0810009580665678
 10
2.010443779212204
 20
0.0810009580665678
 10
2.010443779212204
 20
0.0648007664532546
 10
2.010443779212204
 20
0.0810009580665678
 10
2.010443779212204
 20
0.113401341293196
 10
2.010443779212204
 20
0.1458017245198224
 10
2.010443779212204
 20
0.1620019161331356
 10
2.010443779212204
 20
1.670239755332623
 10
2.010443779212204
 20
2.059854363632812
 10
2.010443779212204
 20
2.497259537192277
 10
2.010443779212204
 20
2.967875103559034
 10
2.010443779212204
 20
3.940696609938511
 10
2.010443779212204
 20
4.11889871768496
 10
2.010443779212204
 20
4.248500250591467
 10
2.010443779212204
 20
4.345701400271348
 10
2.010443779212204
 20
4.394301975111288
 10
2.010443779212204
 20
4.475302933177855
 10
2.010443779212204
 20
4.589514284051716
 10
2.010443779212204
 20
5.6919373233377
 10
2.010443779212204
 20
5.789138473017581
 10
2.010443779212204
 20
5.870139431084149
 10
2.010443779212204
 20
5.918740005924089
 10
2.010443779212204
 20
6.032141347217283
 10
2.010443779212204
 20
6.227353656157712
 10
2.010443779212204
 20
6.437956147130787
 10
2.010443779212204
 20
6.616158254877236
 10
2.010443779212204
 20
6.745759787783743
 10
2.010443779212204
 20
6.794360362623685
 10
2.010443779212204
 20
6.875361320690252
 10
2.010443779212204
 20
6.972562470370133
 10
2.010443779212204
 20
7.410777653510264
 10
2.010443779212204
 20
7.507978803190143
 10
2.010443779212204
 20
7.605179952870026
 10
2.010443779212204
 20
7.653780527709965
 10
2.010443779212204
 20
7.767181869003159
 10
2.010443779212204
 20
7.946193986330273
 10
2.010443779212204
 20
8.15679647730335
 10
2.010443779212204
 20
8.351198776663112
 10
2.010443779212204
 20
8.464600117956306
 10
2.010443779212204
 20
8.513200692796248
 10
2.010443779212204
 20
8.594201650862816
 10
2.010443779212204
 20
8.70760299215601
  0
LWPOLYLINE
  5
54
100
AcDbEntity
  8
USP-GEO
100
AcDbPolyline
 90
       10
 70
   128
 43
0.0
 10
3.841875441097295
 20
7.232575545763815
 10
3.841875441097295
 20
6.794360362623685
 10
3.777074674644042
 20
6.794360362623685
 10
3.777074674644042
 20
6.68095902133049
 10
3.777074674644042
 20
6.599958063263922
 10
3.777074674644042
 20
6.551357488423981
 10
3.841875441097295
 20
6.551357488423981
 10
3.841875441097295
 20
6.599958063263922
 10
3.841875441097295
 20
6.68095902133049
 10
3.841875441097295
 20
6.794360362623685
  0
TEXT
  5
55
100
AcDbEntity
  8
USP-TXT
100
AcDbText
 10
0.99792589359479
 20
-1.038719859779307
 30
0.0
 40
0.203125
  1
HUS179 - FRONT VIEW
 72
     1
 11
2.893759226928123
 21
-1.038719859779307
 31
0.0
100
AcDbText
  0
LWPOLYLINE
  5
56
100
AcDbEntity
  8
USP-GEO
100
AcDbPolyline
 90
        2
 70
   129
 43
0.0
 10
4.8470973307034
 20
1.670239755332623
 10
3.922876399163863
 20
0.6002170992732659
  0
LWPOLYLINE
  5
57
100
AcDbEntity
  8
USP-GEO
100
AcDbPolyline
 90
        9
 70
   128
 43
0.0
 10
2.010443779212204
 20
0.1620019161331356
 10
2.010443779212204
 20
1.670239755332623
 10
2.010443779212204
 20
2.059854363632812
 10
2.010443779212204
 20
2.497259537192277
 10
2.010443779212204
 20
2.967875103559034
 10
1.945643012758951
 20
2.967875103559034
 10
1.945643012758951
 20
2.497259537192277
 10
1.945643012758951
 20
2.059854363632812
 10
1.945643012758951
 20
1.670239755332623
  0
LWPOLYLINE
  5
58
100
AcDbEntity
  8
USP-GEO
100
AcDbPolyline
 90
       10
 70
   128
 43
0.0
 10
3.841875441097295
 20
2.967875103559034
 10
3.777074674644042
 20
2.967875103559034
 10
3.777074674644042
 20
2.497259537192277
 10
3.777074674644042
 20
2.059854363632812
 10
3.777074674644042
 20
1.670239755332623
 10
3.777074674644042
 20
0.1620019161331356
 10
3.841875441097295
 20
0.1620019161331356
 10
3.841875441097295
 20
1.670239755332623
 10
3.841875441097295
 20
2.059854363632812
 10
3.841875441097295
 20
2.497259537192277
  0
LWPOLYLINE
  5
59
100
AcDbEntity
  8
USP-GEO
100
AcDbPolyline
 90
        5
 70
   128
 43
0.0
 10
3.841875441097295
 20
1.995053597179559
 10
3.922876399163863
 20
2.076054555246125
 10
3.971476974003804
 20
2.238056471379261
 10
3.922876399163863
 20
2.400058387512396
 10
3.955276782390489
 20
2.302857237832515
  0
LWPOLYLINE
  5
5A
100
AcDbEntity
  8
USP-GEO
100
AcDbPolyline
 90
        8
 70
   128
 43
0.0
 10
2.431648761158356
 20
0.0648007664532546
 10
2.480249335998296
 20
0.0648007664532546
 10
2.512649719224922
 20
0.0648007664532546
 10
2.512649719224922
 20
0.0
 10
3.274868734631324
 20
0.0
 10
3.274868734631324
 20
0.0648007664532546
 10
2.512649719224922
 20
0.0648007664532546
 10
2.513459728805589
 20
0.0648007664532546
  0
LWPOLYLINE
  5
5B
100
AcDbEntity
  8
USP-GEO
100
AcDbPolyline
 90
        5
 70
   128
 43
0.0
 10
1.945643012758951
 20
1.184234006933218
 10
1.864642054692383
 20
1.087032857253337
 10
1.816041479852442
 20
0.9242209315395371
 10
1.864642054692383
 20
0.7784192070197147
 10
1.945643012758951
 20
0.6812180573398337
  0
LWPOLYLINE
  5
5C
100
AcDbEntity
  8
USP-GEO
100
AcDbPolyline
 90
       12
 70
   129
 43
0.0
 10
1.45882725477888
 20
1.346235923066352
 10
1.442627063165566
 20
1.394836497906293
 10
1.45882725477888
 20
1.443437072746233
 10
1.491227638005506
 20
1.475837455972861
 10
1.539828212845447
 20
1.492037647586174
 10
1.588428787685387
 20
1.475837455972861
 10
1.620829170912015
 20
1.443437072746233
 10
1.620829170912015
 20
1.394836497906293
 10
1.620829170912015
 20
1.346235923066352
 10
1.588428787685387
 20
1.313835539839725
 10
1.539828212845447
 20
1.313835539839725
 10
1.491227638005506
 20
1.313835539839725
  0
LWPOLYLINE
  5
5D
100
AcDbEntity
  8
USP-GEO
100
AcDbPolyline
 90
        7
 70
   128
 43
0.0
 10
1.881652255886361
 20
0.9890216979927899
 10
1.880842246305697
 20
0.9890216979927899
 10
1.880842246305697
 20
0.9566213147661635
 10
1.880842246305697
 20
0.9242209315395371
 10
1.880842246305697
 20
0.8918205483129089
 10
1.880842246305697
 20
0.8756203566995957
 10
1.881652255886361
 20
0.8756203566995957
  0
LWPOLYLINE
  5
5E
100
AcDbEntity
  8
USP-GEO
100
AcDbPolyline
 90
       16
 70
   129
 43
0.0
 10
1.832241671465755
 20
0.8918205483129089
 10
1.832241671465755
 20
0.9242209315395371
 10
1.832241671465755
 20
0.9566213147661635
 10
1.832241671465755
 20
0.9890216979927899
 10
1.84844186307907
 20
1.005221889606103
 10
1.864642054692383
 20
1.005221889606103
 10
1.880842246305697
 20
1.005221889606103
 10
1.89704243791901
 20
0.9890216979927899
 10
1.89704243791901
 20
0.9566213147661635
 10
1.89704243791901
 20
0.9242209315395371
 10
1.89704243791901
 20
0.8918205483129089
 10
1.89704243791901
 20
0.8756203566995957
 10
1.880842246305697
 20
0.8594201650862824
 10
1.864642054692383
 20
0.8432199734729692
 10
1.84844186307907
 20
0.8594201650862824
 10
1.832241671465755
 20
0.8756203566995957
  0
LWPOLYLINE
  5
5F
100
AcDbEntity
  8
USP-GEO
100
AcDbPolyline
 90
        3
 70
   128
 43
0.0
 10
2.010443779212204
 20
1.670239755332623
 10
1.945643012758951
 20
1.670239755332623
 10
1.945643012758951
 20
0.1620019161331356
  0
LWPOLYLINE
  5
60
100
AcDbEntity
  8
USP-GEO
100
AcDbPolyline
 90
        4
 70
   128
 43
0.0
 10
2.350647803091789
 20
0.0
 10
2.431648761158356
 20
0.0
 10
2.431648761158356
 20
0.0648007664532546
 10
2.350647803091789
 20
0.0648007664532546
  0
LWPOLYLINE
  5
61
100
AcDbEntity
  8
USP-GEO
100
AcDbPolyline
 90
       11
 70
   128
 43
0.0
 10
1.945643012758951
 20
0.0810009580665678
 10
1.945643012758951
 20
0.0
 10
2.269646845025221
 20
0.0
 10
2.285847036638534
 20
0.0
 10
2.31824741986516
 20
0.0
 10
2.350647803091789
 20
0.0
 10
2.350647803091789
 20
0.0648007664532546
 10
2.31824741986516
 20
0.0648007664532546
 10
2.285847036638534
 20
0.0648007664532546
 10
2.269646845025221
 20
0.0648007664532546
 10
2.269646845025221
 20
0.0
  0
LWPOLYLINE
  5
62
100
AcDbEntity
  8
USP-GEO
100
AcDbPolyline
 90
        4
 70
   128
 43
0.0
 10
2.431648761158356
 20
0.0
 10
2.480249335998296
 20
0.0
 10
2.512649719224922
 20
0.0
 10
2.513459728805589
 20
0.0
  0
LWPOLYLINE
  5
63
100
AcDbEntity
  8
USP-GEO
100
AcDbPolyline
 90
        3
 70
   128
 43
0.0
 10
3.517871608831026
 20
0.0
 10
3.841875441097295
 20
0.0
 10
3.841875441097295
 20
0.0810009580665678
  0
LWPOLYLINE
  5
64
100
AcDbEntity
  8
USP-GEO
100
AcDbPolyline
 90
        8
 70
   128
 43
0.0
 10
3.777074674644042
 20
0.1620019161331356
 10
3.777074674644042
 20
0.1458017245198224
 10
3.777074674644042
 20
0.113401341293196
 10
3.777074674644042
 20
0.0810009580665678
 10
3.841875441097295
 20
0.0810009580665678
 10
3.841875441097295
 20
0.113401341293196
 10
3.841875441097295
 20
0.1458017245198224
 10
3.841875441097295
 20
0.1620019161331356
  0
LWPOLYLINE
  5
65
100
AcDbEntity
  8
USP-GEO
100
AcDbPolyline
 90
        2
 70
   128
 43
0.0
 10
3.841875441097295
 20
1.670239755332623
 10
3.777074674644042
 20
1.670239755332623
  0
LWPOLYLINE
  5
66
100
AcDbEntity
  8
USP-GEO
100
AcDbPolyline
 90
        8
 70
   128
 43
0.0
 10
3.275678744211989
 20
0.0648007664532546
 10
3.274868734631324
 20
0.0648007664532546
 10
3.30726911785795
 20
0.0648007664532546
 10
3.355869692697892
 20
0.0648007664532546
 10
3.355869692697892
 20
0.0
 10
3.30726911785795
 20
0.0
 10
3.274868734631324
 20
0.0
 10
3.275678744211989
 20
0.0
  0
LWPOLYLINE
  5
67
100
AcDbEntity
  8
USP-GEO
100
AcDbPolyline
 90
        3
 70
   128
 43
0.0
 10
3.777074674644042
 20
0.0810009580665678
 10
3.777074674644042
 20
0.0648007664532546
 10
3.517871608831026
 20
0.0648007664532546
  0
LWPOLYLINE
  5
68
100
AcDbEntity
  8
USP-GEO
100
AcDbPolyline
 90
        8
 70
   128
 43
0.0
 10
3.420670459151144
 20
0.0
 10
3.469271033991086
 20
0.0
 10
3.501671417217712
 20
0.0
 10
3.517871608831026
 20
0.0
 10
3.517871608831026
 20
0.0648007664532546
 10
3.501671417217712
 20
0.0648007664532546
 10
3.469271033991086
 20
0.0648007664532546
 10
3.420670459151144
 20
0.0648007664532546
  0
LWPOLYLINE
  5
69
100
AcDbEntity
  8
USP-GEO
100
AcDbPolyline
 90
        4
 70
   128
 43
0.0
 10
3.355869692697892
 20
0.0
 10
3.420670459151144
 20
0.0
 10
3.420670459151144
 20
0.0648007664532546
 10
3.355869692697892
 20
0.0648007664532546
  0
LWPOLYLINE
  5
6A
100
AcDbEntity
  8
USP-GEO
100
AcDbPolyline
 90
        7
 70
   128
 43
0.0
 10
3.890476015937236
 20
0.7946193986330279
 10
3.906676207550551
 20
0.7946193986330279
 10
3.906676207550551
 20
0.7622190154064015
 10
3.906676207550551
 20
0.7460188237930883
 10
3.906676207550551
 20
0.7136184405664601
 10
3.906676207550551
 20
0.6812180573398337
 10
3.890476015937236
 20
0.6812180573398337
  0
LWPOLYLINE
  5
6B
100
AcDbEntity
  8
USP-GEO
100
AcDbPolyline
 90
        5
 70
   128
 43
0.0
 10
3.841875441097295
 20
0.4868157579800716
 10
3.922876399163863
 20
0.5840169076599527
 10
3.971476974003804
 20
0.7460188237930883
 10
3.922876399163863
 20
0.8918205483129089
 10
3.955276782390489
 20
0.7946193986330279
  0
LWPOLYLINE
  5
6C
100
AcDbEntity
  8
USP-GEO
100
AcDbPolyline
 90
       16
 70
   129
 43
0.0
 10
3.890476015937236
 20
0.6812180573398337
 10
3.890476015937236
 20
0.7136184405664601
 10
3.890476015937236
 20
0.7460188237930883
 10
3.890476015937236
 20
0.7622190154064015
 10
3.890476015937236
 20
0.7946193986330279
 10
3.906676207550551
 20
0.810819590246341
 10
3.922876399163863
 20
0.810819590246341
 10
3.939076590777178
 20
0.810819590246341
 10
3.955276782390489
 20
0.7946193986330279
 10
3.955276782390489
 20
0.7622190154064015
 10
3.955276782390489
 20
0.7460188237930883
 10
3.955276782390489
 20
0.7136184405664601
 10
3.955276782390489
 20
0.6812180573398337
 10
3.939076590777178
 20
0.6650178657265205
 10
3.922876399163863
 20
0.6650178657265205
 10
3.906676207550551
 20
0.6650178657265205
  0
LWPOLYLINE
  5
6D
100
AcDbEntity
  8
USP-GEO
100
AcDbPolyline
 90
       12
 70
   129
 43
0.0
 10
4.246880231430134
 20
1.313835539839725
 10
4.198279656590193
 20
1.313835539839725
 10
4.165879273363566
 20
1.346235923066352
 10
4.165879273363566
 20
1.394836497906293
 10
4.165879273363566
 20
1.443437072746233
 10
4.198279656590193
 20
1.475837455972861
 10
4.246880231430134
 20
1.492037647586174
 10
4.295480806270076
 20
1.475837455972861
 10
4.327881189496702
 20
1.443437072746233
 10
4.344081381110013
 20
1.394836497906293
 10
4.327881189496702
 20
1.346235923066352
 10
4.295480806270076
 20
1.313835539839725
  0
LWPOLYLINE
  5
6E
100
AcDbEntity
  8
USP-GEO
100
AcDbPolyline
 90
        2
 70
   128
 43
0.0
 10
4.295480806270076
 20
1.313835539839725
 10
4.246880231430134
 20
1.313835539839725
  0
LWPOLYLINE
  5
6F
100
AcDbEntity
  8
USP-GEO
100
AcDbPolyline
 90
        2
 70
   128
 43
0.0
 10
3.922876399163863
 20
0.8918205483129089
 10
3.841875441097295
 20
0.9890216979927899
  0
LWPOLYLINE
  5
70
100
AcDbEntity
  8
USP-GEO
100
AcDbPolyline
 90
        6
 70
   128
 43
0.0
 10
2.010443779212204
 20
4.345701400271348
 10
2.010443779212204
 20
4.394301975111288
 10
2.010443779212204
 20
4.475302933177855
 10
2.010443779212204
 20
4.589514284051716
 10
2.010443779212204
 20
5.6919373233377
 10
1.945643012758951
 20
5.6919373233377
  0
LWPOLYLINE
  5
71
100
AcDbEntity
  8
USP-GEO
100
AcDbPolyline
 90
        5
 70
   128
 43
0.0
 10
2.010443779212204
 20
4.589514284051716
 10
1.945643012758951
 20
4.589514284051716
 10
1.945643012758951
 20
4.475302933177855
 10
1.945643012758951
 20
4.394301975111288
 10
1.945643012758951
 20
4.345701400271348
  0
LWPOLYLINE
  5
72
100
AcDbEntity
  8
USP-GEO
100
AcDbPolyline
 90
        5
 70
   128
 43
0.0
 10
1.945643012758951
 20
2.675461644938726
 10
1.864642054692383
 20
2.578260495258845
 10
1.816041479852442
 20
2.432458770739023
 10
1.864642054692383
 20
2.270456854605887
 10
1.945643012758951
 20
2.173255704926006
  0
LWPOLYLINE
  5
73
100
AcDbEntity
  8
USP-GEO
100
AcDbPolyline
 90
        5
 70
   128
 43
0.0
 10
1.945643012758951
 20
4.183699484138212
 10
1.864642054692383
 20
4.086498334458331
 10
1.816041479852442
 20
3.924496418325198
 10
1.864642054692383
 20
3.778694693805375
 10
1.945643012758951
 20
3.681493544125494
  0
LWPOLYLINE
  5
74
100
AcDbEntity
  8
USP-GEO
100
AcDbPolyline
 90
        7
 70
   128
 43
0.0
 10
1.881652255886361
 20
2.481059345578964
 10
1.880842246305697
 20
2.481059345578964
 10
1.880842246305697
 20
2.464859153965649
 10
1.880842246305697
 20
2.432458770739023
 10
1.880842246305697
 20
2.400058387512396
 10
1.880842246305697
 20
2.367658004285768
 10
1.881652255886361
 20
2.367658004285768
  0
LWPOLYLINE
  5
75
100
AcDbEntity
  8
USP-GEO
100
AcDbPolyline
 90
       16
 70
   129
 43
0.0
 10
1.832241671465755
 20
2.400058387512396
 10
1.832241671465755
 20
2.432458770739023
 10
1.832241671465755
 20
2.464859153965649
 10
1.832241671465755
 20
2.481059345578964
 10
1.84844186307907
 20
2.497259537192277
 10
1.864642054692383
 20
2.513459728805591
 10
1.880842246305697
 20
2.497259537192277
 10
1.89704243791901
 20
2.481059345578964
 10
1.89704243791901
 20
2.464859153965649
 10
1.89704243791901
 20
2.432458770739023
 10
1.89704243791901
 20
2.400058387512396
 10
1.89704243791901
 20
2.367658004285768
 10
1.880842246305697
 20
2.351457812672455
 10
1.864642054692383
 20
2.351457812672455
 10
1.84844186307907
 20
2.351457812672455
 10
1.832241671465755
 20
2.367658004285768
  0
LWPOLYLINE
  5
76
100
AcDbEntity
  8
USP-GEO
100
AcDbPolyline
 90
       12
 70
   129
 43
0.0
 10
1.45882725477888
 20
2.85447376226584
 10
1.442627063165566
 20
2.903074337105781
 10
1.45882725477888
 20
2.935474720332408
 10
1.491227638005506
 20
2.967875103559034
 10
1.539828212845447
 20
2.984075295172347
 10
1.588428787685387
 20
2.967875103559034
 10
1.620829170912015
 20
2.935474720332408
 10
1.620829170912015
 20
2.903074337105781
 10
1.620829170912015
 20
2.85447376226584
 10
1.588428787685387
 20
2.822073379039213
 10
1.539828212845447
 20
2.8058731874259
 10
1.491227638005506
 20
2.822073379039213
  0
LWPOLYLINE
  5
77
100
AcDbEntity
  8
USP-GEO
100
AcDbPolyline
 90
       12
 70
   129
 43
0.0
 10
1.45882725477888
 20
3.859695651871943
 10
1.442627063165566
 20
3.892096035098569
 10
1.45882725477888
 20
3.940696609938511
 10
1.491227638005506
 20
3.973096993165137
 10
1.539828212845447
 20
3.98929718477845
 10
1.588428787685387
 20
3.973096993165137
 10
1.620829170912015
 20
3.940696609938511
 10
1.620829170912015
 20
3.892096035098569
 10
1.620829170912015
 20
3.859695651871943
 10
1.588428787685387
 20
3.827295268645316
 10
1.539828212845447
 20
3.811095077032002
 10
1.491227638005506
 20
3.827295268645316
  0
LWPOLYLINE
  5
78
100
AcDbEntity
  8
USP-GEO
100
AcDbPolyline
 90
        7
 70
   128
 43
0.0
 10
1.881652255886361
 20
3.98929718477845
 10
1.880842246305697
 20
3.98929718477845
 10
1.880842246305697
 20
3.956896801551824
 10
1.880842246305697
 20
3.924496418325198
 10
1.880842246305697
 20
3.892096035098569
 10
1.880842246305697
 20
3.875895843485256
 10
1.881652255886361
 20
3.875895843485256
  0
LWPOLYLINE
  5
79
100
AcDbEntity
  8
USP-GEO
100
AcDbPolyline
 90
       16
 70
   129
 43
0.0
 10
1.832241671465755
 20
3.892096035098569
 10
1.832241671465755
 20
3.924496418325198
 10
1.832241671465755
 20
3.956896801551824
 10
1.832241671465755
 20
3.98929718477845
 10
1.84844186307907
 20
4.005497376391764
 10
1.864642054692383
 20
4.005497376391764
 10
1.880842246305697
 20
4.005497376391764
 10
1.89704243791901
 20
3.98929718477845
 10
1.89704243791901
 20
3.956896801551824
 10
1.89704243791901
 20
3.924496418325198
 10
1.89704243791901
 20
3.892096035098569
 10
1.89704243791901
 20
3.875895843485256
 10
1.880842246305697
 20
3.859695651871943
 10
1.864642054692383
 20
3.84349546025863
 10
1.84844186307907
 20
3.859695651871943
 10
1.832241671465755
 20
3.875895843485256
  0
LWPOLYLINE
  5
7A
100
AcDbEntity
  8
USP-GEO
100
AcDbPolyline
 90
        4
 70
   128
 43
0.0
 10
2.010443779212204
 20
2.967875103559034
 10
2.010443779212204
 20
3.940696609938511
 10
1.945643012758951
 20
3.940696609938511
 10
1.945643012758951
 20
2.967875103559034
  0
LWPOLYLINE
  5
7B
100
AcDbEntity
  8
USP-GEO
100
AcDbPolyline
 90
        8
 70
   128
 43
0.0
 10
2.010443779212204
 20
3.940696609938511
 10
2.010443779212204
 20
4.11889871768496
 10
2.010443779212204
 20
4.248500250591467
 10
2.010443779212204
 20
4.345701400271348
 10
1.945643012758951
 20
4.345701400271348
 10
1.945643012758951
 20
4.248500250591467
 10
1.945643012758951
 20
4.11889871768496
 10
1.945643012758951
 20
3.940696609938511
  0
LWPOLYLINE
  5
7C
100
AcDbEntity
  8
USP-GEO
100
AcDbPolyline
 90
        5
 70
   128
 43
0.0
 10
1.945643012758951
 20
6.583757871650609
 10
1.864642054692383
 20
6.486556721970728
 10
1.816041479852442
 20
6.324554805837593
 10
1.864642054692383
 20
6.177943071737105
 10
1.945643012758951
 20
6.080741922057224
  0
LWPOLYLINE
  5
7D
100
AcDbEntity
  8
USP-GEO
100
AcDbPolyline
 90
       12
 70
   129
 43
0.0
 10
1.442627063165566
 20
5.902539814310776
 10
1.45882725477888
 20
5.951140389150715
 10
1.491227638005506
 20
5.983540772377343
 10
1.539828212845447
 20
5.983540772377343
 10
1.588428787685387
 20
5.983540772377343
 10
1.620829170912015
 20
5.951140389150715
 10
1.620829170912015
 20
5.902539814310776
 10
1.620829170912015
 20
5.853939239470834
 10
1.588428787685387
 20
5.821538856244208
 10
1.539828212845447
 20
5.805338664630895
 10
1.491227638005506
 20
5.821538856244208
 10
1.45882725477888
 20
5.853939239470834
  0
LWPOLYLINE
  5
7E
100
AcDbEntity
  8
USP-GEO
100
AcDbPolyline
 90
       12
 70
   129
 43
0.0
 10
1.45882725477888
 20
4.848717349864733
 10
1.442627063165566
 20
4.897317924704672
 10
1.45882725477888
 20
4.945918499544614
 10
1.491227638005506
 20
4.97831888277124
 10
1.539828212845447
 20
4.994519074384554
 10
1.588428787685387
 20
4.97831888277124
 10
1.620829170912015
 20
4.945918499544614
 10
1.620829170912015
 20
4.897317924704672
 10
1.620829170912015
 20
4.848717349864733
 10
1.588428787685387
 20
4.816316966638105
 10
1.539828212845447
 20
4.816316966638105
 10
1.491227638005506
 20
4.816316966638105
  0
LWPOLYLINE
  5
7F
100
AcDbEntity
  8
USP-GEO
100
AcDbPolyline
 90
        7
 70
   128
 43
0.0
 10
1.881652255886361
 20
6.389355572290847
 10
1.880842246305697
 20
6.389355572290847
 10
1.880842246305697
 20
6.356955189064219
 10
1.880842246305697
 20
6.324554805837593
 10
1.880842246305697
 20
6.308354614224279
 10
1.880842246305697
 20
6.275954230997651
 10
1.881652255886361
 20
6.275954230997651
  0
LWPOLYLINE
  5
80
100
AcDbEntity
  8
USP-GEO
100
AcDbPolyline
 90
       16
 70
   129
 43
0.0
 10
1.832241671465755
 20
6.308354614224279
 10
1.832241671465755
 20
6.324554805837593
 10
1.832241671465755
 20
6.356955189064219
 10
1.832241671465755
 20
6.389355572290847
 10
1.84844186307907
 20
6.40555576390416
 10
1.864642054692383
 20
6.40555576390416
 10
1.880842246305697
 20
6.40555576390416
 10
1.89704243791901
 20
6.389355572290847
 10
1.89704243791901
 20
6.356955189064219
 10
1.89704243791901
 20
6.324554805837593
 10
1.89704243791901
 20
6.308354614224279
 10
1.89704243791901
 20
6.275954230997651
 10
1.880842246305697
 20
6.259754039384338
 10
1.864642054692383
 20
6.259754039384338
 10
1.84844186307907
 20
6.259754039384338
 10
1.832241671465755
 20
6.275954230997651
  0
LWPOLYLINE
  5
81
100
AcDbEntity
  8
USP-GEO
100
AcDbPolyline
 90
       12
 70
   129
 43
0.0
 10
1.442627063165566
 20
6.907761703916879
 10
1.45882725477888
 20
6.940162087143505
 10
1.491227638005506
 20
6.972562470370133
 10
1.539828212845447
 20
6.988762661983447
 10
1.588428787685387
 20
6.972562470370133
 10
1.620829170912015
 20
6.940162087143505
 10
1.620829170912015
 20
6.907761703916879
 10
1.620829170912015
 20
6.859161129076937
 10
1.588428787685387
 20
6.826760745850311
 10
1.539828212845447
 20
6.810560554236998
 10
1.491227638005506
 20
6.826760745850311
 10
1.45882725477888
 20
6.859161129076937
  0
LWPOLYLINE
  5
82
100
AcDbEntity
  8
USP-GEO
100
AcDbPolyline
 90
        2
 70
   128
 43
0.0
 10
1.491227638005506
 20
6.972562470370133
 10
1.539828212845447
 20
6.988762661983447
  0
LWPOLYLINE
  5
83
100
AcDbEntity
  8
USP-GEO
100
AcDbPolyline
 90
        9
 70
   128
 43
0.0
 10
1.945643012758951
 20
4.589514284051716
 10
1.945643012758951
 20
5.6919373233377
 10
1.945643012758951
 20
5.789138473017581
 10
1.945643012758951
 20
5.870139431084149
 10
1.945643012758951
 20
5.918740005924089
 10
2.010443779212204
 20
5.918740005924089
 10
2.010443779212204
 20
5.870139431084149
 10
2.010443779212204
 20
5.789138473017581
 10
2.010443779212204
 20
5.6919373233377
  0
LWPOLYLINE
  5
84
100
AcDbEntity
  8
USP-GEO
100
AcDbPolyline
 90
       12
 70
   128
 43
0.0
 10
2.010443779212204
 20
5.918740005924089
 10
2.010443779212204
 20
6.032141347217283
 10
2.010443779212204
 20
6.227353656157712
 10
2.010443779212204
 20
6.437956147130787
 10
2.010443779212204
 20
6.616158254877236
 10
2.010443779212204
 20
6.745759787783743
 10
1.945643012758951
 20
6.745759787783743
 10
1.945643012758951
 20
6.616158254877236
 10
1.945643012758951
 20
6.437956147130787
 10
1.945643012758951
 20
6.227353656157712
 10
1.945643012758951
 20
6.032141347217283
 10
1.945643012758951
 20
5.918740005924089
  0
LWPOLYLINE
  5
85
100
AcDbEntity
  8
USP-GEO
100
AcDbPolyline
 90
        8
 70
   128
 43
0.0
 10
1.945643012758951
 20
6.745759787783743
 10
1.945643012758951
 20
6.794360362623685
 10
1.945643012758951
 20
6.875361320690252
 10
1.945643012758951
 20
6.972562470370133
 10
2.010443779212204
 20
6.972562470370133
 10
2.010443779212204
 20
6.875361320690252
 10
2.010443779212204
 20
6.794360362623685
 10
2.010443779212204
 20
6.745759787783743
  0
LWPOLYLINE
  5
86
100
AcDbEntity
  8
USP-GEO
100
AcDbPolyline
 90
        4
 70
   128
 43
0.0
 10
3.841875441097295
 20
4.345701400271348
 10
3.841875441097295
 20
4.394301975111288
 10
3.841875441097295
 20
4.475302933177855
 10
3.841875441097295
 20
4.589514284051716
  0
LWPOLYLINE
  5
87
100
AcDbEntity
  8
USP-GEO
100
AcDbPolyline
 90
       12
 70
   128
 43
0.0
 10
3.777074674644042
 20
3.940696609938511
 10
3.777074674644042
 20
4.11889871768496
 10
3.777074674644042
 20
4.248500250591467
 10
3.777074674644042
 20
4.345701400271348
 10
3.777074674644042
 20
4.394301975111288
 10
3.777074674644042
 20
4.475302933177855
 10
3.777074674644042
 20
4.589514284051716
 10
3.777074674644042
 20
5.497535023977938
 10
3.841875441097295
 20
5.497535023977938
 10
3.841875441097295
 20
5.594736173657819
 10
3.841875441097295
 20
5.675737131724387
 10
3.841875441097295
 20
5.74053789817764
  0
LWPOLYLINE
  5
88
100
AcDbEntity
  8
USP-GEO
100
AcDbPolyline
 90
        6
 70
   128
 43
0.0
 10
3.922876399163863
 20
2.400058387512396
 10
3.841875441097295
 20
2.497259537192277
 10
3.841875441097295
 20
2.967875103559034
 10
3.841875441097295
 20
3.940696609938511
 10
3.777074674644042
 20
3.940696609938511
 10
3.777074674644042
 20
2.967875103559034
  0
LWPOLYLINE
  5
89
100
AcDbEntity
  8
USP-GEO
100
AcDbPolyline
 90
        5
 70
   128
 43
0.0
 10
3.841875441097295
 20
3.940696609938511
 10
3.841875441097295
 20
4.11889871768496
 10
3.841875441097295
 20
4.248500250591467
 10
3.841875441097295
 20
4.345701400271348
 10
3.777074674644042
 20
4.345701400271348
  0
LWPOLYLINE
  5
8A
100
AcDbEntity
  8
USP-GEO
100
AcDbPolyline
 90
       12
 70
   129
 43
0.0
 10
4.165879273363566
 20
2.903074337105781
 10
4.165879273363566
 20
2.935474720332408
 10
4.198279656590193
 20
2.967875103559034
 10
4.246880231430134
 20
2.984075295172347
 10
4.295480806270076
 20
2.967875103559034
 10
4.327881189496702
 20
2.935474720332408
 10
4.344081381110013
 20
2.903074337105781
 10
4.327881189496702
 20
2.85447376226584
 10
4.295480806270076
 20
2.822073379039213
 10
4.246880231430134
 20
2.8058731874259
 10
4.198279656590193
 20
2.822073379039213
 10
4.165879273363566
 20
2.85447376226584
  0
LWPOLYLINE
  5
8B
100
AcDbEntity
  8
USP-GEO
100
AcDbPolyline
 90
        2
 70
   128
 43
0.0
 10
4.295480806270076
 20
2.822073379039213
 10
4.246880231430134
 20
2.8058731874259
  0
LWPOLYLINE
  5
8C
100
AcDbEntity
  8
USP-GEO
100
AcDbPolyline
 90
        7
 70
   128
 43
0.0
 10
3.890476015937236
 20
2.302857237832515
 10
3.906676207550551
 20
2.302857237832515
 10
3.906676207550551
 20
2.270456854605887
 10
3.906676207550551
 20
2.238056471379261
 10
3.906676207550551
 20
2.205656088152634
 10
3.906676207550551
 20
2.189455896539321
 10
3.890476015937236
 20
2.189455896539321
  0
LWPOLYLINE
  5
8D
100
AcDbEntity
  8
USP-GEO
100
AcDbPolyline
 90
       16
 70
   129
 43
0.0
 10
3.890476015937236
 20
2.189455896539321
 10
3.890476015937236
 20
2.205656088152634
 10
3.890476015937236
 20
2.238056471379261
 10
3.890476015937236
 20
2.270456854605887
 10
3.890476015937236
 20
2.302857237832515
 10
3.906676207550551
 20
2.319057429445829
 10
3.922876399163863
 20
2.319057429445829
 10
3.939076590777178
 20
2.319057429445829
 10
3.955276782390489
 20
2.302857237832515
 10
3.955276782390489
 20
2.270456854605887
 10
3.955276782390489
 20
2.238056471379261
 10
3.955276782390489
 20
2.205656088152634
 10
3.955276782390489
 20
2.189455896539321
 10
3.939076590777178
 20
2.173255704926006
 10
3.922876399163863
 20
2.157055513312693
 10
3.906676207550551
 20
2.173255704926006
  0
LWPOLYLINE
  5
8E
100
AcDbEntity
  8
USP-GEO
100
AcDbPolyline
 90
       12
 70
   129
 43
0.0
 10
4.165879273363566
 20
3.892096035098569
 10
4.165879273363566
 20
3.940696609938511
 10
4.198279656590193
 20
3.973096993165137
 10
4.246880231430134
 20
3.98929718477845
 10
4.295480806270076
 20
3.973096993165137
 10
4.327881189496702
 20
3.940696609938511
 10
4.344081381110013
 20
3.892096035098569
 10
4.327881189496702
 20
3.859695651871943
 10
4.295480806270076
 20
3.827295268645316
 10
4.246880231430134
 20
3.811095077032002
 10
4.198279656590193
 20
3.827295268645316
 10
4.165879273363566
 20
3.859695651871943
  0
LWPOLYLINE
  5
8F
100
AcDbEntity
  8
USP-GEO
100
AcDbPolyline
 90
        2
 70
   128
 43
0.0
 10
4.295480806270076
 20
3.827295268645316
 10
4.246880231430134
 20
3.811095077032002
  0
LWPOLYLINE
  5
90
100
AcDbEntity
  8
USP-GEO
100
AcDbPolyline
 90
        2
 70
   128
 43
0.0
 10
3.922876399163863
 20
3.892096035098569
 10
3.841875441097295
 20
3.98929718477845
  0
LWPOLYLINE
  5
91
100
AcDbEntity
  8
USP-GEO
100
AcDbPolyline
 90
        5
 70
   128
 43
0.0
 10
3.841875441097295
 20
3.486281235185067
 10
3.922876399163863
 20
3.583482384864948
 10
3.971476974003804
 20
3.746294310578749
 10
3.922876399163863
 20
3.892096035098569
 10
3.955276782390489
 20
3.794894885418688
  0
LWPOLYLINE
  5
92
100
AcDbEntity
  8
USP-GEO
100
AcDbPolyline
 90
       10
 70
   129
 43
0.0
 10
3.906676207550551
 20
3.794894885418688
 10
3.906676207550551
 20
3.778694693805375
 10
3.906676207550551
 20
3.746294310578749
 10
3.906676207550551
 20
3.71389392735212
 10
3.906676207550551
 20
3.681493544125494
 10
3.890476015937236
 20
3.681493544125494
 10
3.890476015937236
 20
3.71389392735212
 10
3.890476015937236
 20
3.746294310578749
 10
3.890476015937236
 20
3.778694693805375
 10
3.890476015937236
 20
3.794894885418688
  0
LWPOLYLINE
  5
93
100
AcDbEntity
  8
USP-GEO
100
AcDbPolyline
 90
       13
 70
   128
 43
0.0
 10
3.890476015937236
 20
3.794894885418688
 10
3.906676207550551
 20
3.811095077032002
 10
3.922876399163863
 20
3.827295268645316
 10
3.939076590777178
 20
3.811095077032002
 10
3.955276782390489
 20
3.794894885418688
 10
3.955276782390489
 20
3.778694693805375
 10
3.955276782390489
 20
3.746294310578749
 10
3.955276782390489
 20
3.71389392735212
 10
3.955276782390489
 20
3.681493544125494
 10
3.939076590777178
 20
3.665293352512181
 10
3.922876399163863
 20
3.665293352512181
 10
3.906676207550551
 20
3.665293352512181
 10
3.890476015937236
 20
3.681493544125494
  0
LWPOLYLINE
  5
94
100
AcDbEntity
  8
USP-GEO
100
AcDbPolyline
 90
        3
 70
   128
 43
0.0
 10
3.777074674644042
 20
4.589514284051716
 10
3.841875441097295
 20
4.589514284051716
 10
3.841875441097295
 20
5.497535023977938
  0
LWPOLYLINE
  5
95
100
AcDbEntity
  8
USP-GEO
100
AcDbPolyline
 90
       12
 70
   128
 43
0.0
 10
3.777074674644042
 20
6.551357488423981
 10
3.777074674644042
 20
6.437956147130787
 10
3.777074674644042
 20
6.243553847771025
 10
3.777074674644042
 20
6.032141347217283
 10
3.777074674644042
 20
5.853939239470834
 10
3.777074674644042
 20
5.74053789817764
 10
3.841875441097295
 20
5.74053789817764
 10
3.841875441097295
 20
5.853939239470834
 10
3.841875441097295
 20
6.032141347217283
 10
3.841875441097295
 20
6.243553847771025
 10
3.841875441097295
 20
6.437956147130787
 10
3.841875441097295
 20
6.551357488423981
  0
LWPOLYLINE
  5
96
100
AcDbEntity
  8
USP-GEO
100
AcDbPolyline
 90
        4
 70
   128
 43
0.0
 10
3.777074674644042
 20
5.74053789817764
 10
3.777074674644042
 20
5.675737131724387
 10
3.777074674644042
 20
5.594736173657819
 10
3.777074674644042
 20
5.497535023977938
  0
LWPOLYLINE
  5
97
100
AcDbEntity
  8
USP-GEO
100
AcDbPolyline
 90
       12
 70
   129
 43
0.0
 10
4.165879273363566
 20
5.902539814310776
 10
4.165879273363566
 20
5.951140389150715
 10
4.198279656590193
 20
5.983540772377343
 10
4.246880231430134
 20
5.983540772377343
 10
4.295480806270076
 20
5.983540772377343
 10
4.327881189496702
 20
5.951140389150715
 10
4.344081381110013
 20
5.902539814310776
 10
4.327881189496702
 20
5.853939239470834
 10
4.295480806270076
 20
5.821538856244208
 10
4.246880231430134
 20
5.805338664630895
 10
4.198279656590193
 20
5.821538856244208
 10
4.165879273363566
 20
5.853939239470834
  0
LWPOLYLINE
  5
98
100
AcDbEntity
  8
USP-GEO
100
AcDbPolyline
 90
        2
 70
   128
 43
0.0
 10
4.295480806270076
 20
5.821538856244208
 10
4.246880231430134
 20
5.805338664630895
  0
LWPOLYLINE
  5
99
100
AcDbEntity
  8
USP-GEO
100
AcDbPolyline
 90
       12
 70
   129
 43
0.0
 10
4.165879273363566
 20
4.848717349864733
 10
4.165879273363566
 20
4.897317924704672
 10
4.165879273363566
 20
4.945918499544614
 10
4.198279656590193
 20
4.97831888277124
 10
4.246880231430134
 20
4.994519074384554
 10
4.295480806270076
 20
4.97831888277124
 10
4.327881189496702
 20
4.945918499544614
 10
4.344081381110013
 20
4.897317924704672
 10
4.327881189496702
 20
4.848717349864733
 10
4.295480806270076
 20
4.816316966638105
 10
4.246880231430134
 20
4.816316966638105
 10
4.198279656590193
 20
4.816316966638105
  0
LWPOLYLINE
  5
9A
100
AcDbEntity
  8
USP-GEO
100
AcDbPolyline
 90
        2
 70
   128
 43
0.0
 10
4.295480806270076
 20
4.816316966638105
 10
4.246880231430134
 20
4.816316966638105
  0
LWPOLYLINE
  5
9B
100
AcDbEntity
  8
USP-GEO
100
AcDbPolyline
 90
       12
 70
   129
 43
0.0
 10
4.165879273363566
 20
6.907761703916879
 10
4.165879273363566
 20
6.940162087143505
 10
4.198279656590193
 20
6.972562470370133
 10
4.246880231430134
 20
6.988762661983447
 10
4.295480806270076
 20
6.972562470370133
 10
4.327881189496702
 20
6.940162087143505
 10
4.344081381110013
 20
6.907761703916879
 10
4.327881189496702
 20
6.859161129076937
 10
4.295480806270076
 20
6.826760745850311
 10
4.246880231430134
 20
6.810560554236998
 10
4.198279656590193
 20
6.826760745850311
 10
4.165879273363566
 20
6.859161129076937
  0
LWPOLYLINE
  5
9C
100
AcDbEntity
  8
USP-GEO
100
AcDbPolyline
 90
        2
 70
   128
 43
0.0
 10
4.295480806270076
 20
6.826760745850311
 10
4.246880231430134
 20
6.810560554236998
  0
LWPOLYLINE
  5
9D
100
AcDbEntity
  8
USP-GEO
100
AcDbPolyline
 90
        7
 70
   128
 43
0.0
 10
3.890476015937236
 20
6.194143263350419
 10
3.906676207550551
 20
6.194143263350419
 10
3.906676207550551
 20
6.177943071737105
 10
3.906676207550551
 20
6.145542688510477
 10
3.906676207550551
 20
6.113142305283851
 10
3.906676207550551
 20
6.080741922057224
 10
3.890476015937236
 20
6.080741922057224
  0
LWPOLYLINE
  5
9E
100
AcDbEntity
  8
USP-GEO
100
AcDbPolyline
 90
        5
 70
   128
 43
0.0
 10
3.841875441097295
 20
5.886339622697462
 10
3.922876399163863
 20
5.983540772377343
 10
3.971476974003804
 20
6.145542688510477
 10
3.922876399163863
 20
6.292154422610966
 10
3.955276782390489
 20
6.194143263350419
  0
LWPOLYLINE
  5
9F
100
AcDbEntity
  8
USP-GEO
100
AcDbPolyline
 90
       16
 70
   129
 43
0.0
 10
3.890476015937236
 20
6.080741922057224
 10
3.890476015937236
 20
6.113142305283851
 10
3.890476015937236
 20
6.145542688510477
 10
3.890476015937236
 20
6.177943071737105
 10
3.890476015937236
 20
6.194143263350419
 10
3.906676207550551
 20
6.210343454963732
 10
3.922876399163863
 20
6.227353656157712
 10
3.939076590777178
 20
6.210343454963732
 10
3.955276782390489
 20
6.194143263350419
 10
3.955276782390489
 20
6.177943071737105
 10
3.955276782390489
 20
6.145542688510477
 10
3.955276782390489
 20
6.113142305283851
 10
3.955276782390489
 20
6.080741922057224
 10
3.939076590777178
 20
6.064541730443911
 10
3.922876399163863
 20
6.064541730443911
 10
3.906676207550551
 20
6.064541730443911
  0
LWPOLYLINE
  5
A0
100
AcDbEntity
  8
USP-GEO
100
AcDbPolyline
 90
        2
 70
   128
 43
0.0
 10
3.922876399163863
 20
6.292154422610966
 10
3.841875441097295
 20
6.389355572290847
  0
LWPOLYLINE
  5
A1
100
AcDbEntity
  8
USP-GEO
100
AcDbPolyline
 90
       23
 70
   128
 43
0.0
 10
5.787518453856248
 20
6.794360362623685
 10
5.754308061048954
 20
6.68095902133049
 10
5.705707486209016
 20
6.599958063263922
 10
5.608506336529133
 20
6.551357488423981
 10
5.430304228782686
 20
6.437956147130787
 10
5.333103079102803
 20
6.243553847771025
 10
5.333103079102803
 20
6.032141347217283
 10
5.430304228782686
 20
5.853939239470834
 10
5.608506336529133
 20
5.74053789817764
 10
5.705707486209016
 20
5.675737131724387
 10
5.754308061048954
 20
5.594736173657819
 10
5.787518453856248
 20
5.497535023977938
 10
5.787518453856248
 20
4.589514284051716
 10
5.754308061048954
 20
4.475302933177855
 10
5.705707486209016
 20
4.394301975111288
 10
5.608506336529133
 20
4.345701400271348
 10
5.462704612009313
 20
4.248500250591467
 10
5.349303270716118
 20
4.11889871768496
 10
5.316902887489492
 20
3.940696609938511
 10
5.316902887489492
 20
2.967875103559034
 10
5.26830231264955
 20
2.497259537192277
 10
5.106300396516415
 20
2.059854363632812
 10
4.8470973307034
 20
1.670239755332623
  0
LWPOLYLINE
  5
A2
100
AcDbEntity
  8
USP-GEO
100
AcDbPolyline
 90
        3
 70
   128
 43
0.0
 10
5.754308061048954
 20
4.475302933177855
 10
5.787518453856248
 20
4.589514284051716
 10
5.787518453856248
 20
5.497535023977938
  0
LWPOLYLINE
  5
A3
100
AcDbEntity
  8
USP-GEO
100
AcDbPolyline
 90
        3
 70
   128
 43
0.0
 10
5.26830231264955
 20
2.497259537192277
 10
5.316902887489492
 20
2.967875103559034
 10
5.316902887489492
 20
3.940696609938511
  0
LWPOLYLINE
  5
A4
100
AcDbEntity
  8
USP-GEO
100
AcDbPolyline
 90
       12
 70
   129
 43
0.0
 10
4.879497713930026
 20
2.448658962352336
 10
4.911898097156653
 20
2.481059345578964
 10
4.960498671996594
 20
2.481059345578964
 10
5.009099246836536
 20
2.481059345578964
 10
5.041499630063162
 20
2.448658962352336
 10
5.057699821676473
 20
2.400058387512396
 10
5.041499630063162
 20
2.351457812672455
 10
5.009099246836536
 20
2.319057429445829
 10
4.960498671996594
 20
2.302857237832515
 10
4.911898097156653
 20
2.319057429445829
 10
4.879497713930026
 20
2.351457812672455
 10
4.863297522316711
 20
2.400058387512396
  0
LWPOLYLINE
  5
A5
100
AcDbEntity
  8
USP-GEO
100
AcDbPolyline
 90
        2
 70
   128
 43
0.0
 10
5.009099246836536
 20
2.319057429445829
 10
4.960498671996594
 20
2.302857237832515
  0
LWPOLYLINE
  5
A6
100
AcDbEntity
  8
USP-GEO
100
AcDbPolyline
 90
       12
 70
   129
 43
0.0
 10
4.879497713930026
 20
4.345701400271348
 10
4.863297522316711
 20
4.394301975111288
 10
4.879497713930026
 20
4.442902549951229
 10
4.911898097156653
 20
4.475302933177855
 10
4.960498671996594
 20
4.491503124791169
 10
5.009099246836536
 20
4.475302933177855
 10
5.041499630063162
 20
4.442902549951229
 10
5.057699821676473
 20
4.394301975111288
 10
5.041499630063162
 20
4.345701400271348
 10
5.009099246836536
 20
4.313301017044722
 10
4.960498671996594
 20
4.313301017044722
 10
4.911898097156653
 20
4.313301017044722
  0
LWPOLYLINE
  5
A7
100
AcDbEntity
  8
USP-GEO
100
AcDbPolyline
 90
        2
 70
   128
 43
0.0
 10
5.009099246836536
 20
4.313301017044722
 10
4.960498671996594
 20
4.313301017044722
  0
LWPOLYLINE
  5
A8
100
AcDbEntity
  8
USP-GEO
100
AcDbPolyline
 90
        2
 70
   128
 43
0.0
 10
5.462704612009313
 20
4.248500250591467
 10
5.608506336529133
 20
4.345701400271348
  0
LWPOLYLINE
  5
A9
100
AcDbEntity
  8
USP-GEO
100
AcDbPolyline
 90
        2
 70
   128
 43
0.0
 10
5.705707486209016
 20
5.675737131724387
 10
5.608506336529133
 20
5.74053789817764
  0
LWPOLYLINE
  5
AA
100
AcDbEntity
  8
USP-GEO
100
AcDbPolyline
 90
       12
 70
   129
 43
0.0
 10
5.381703653942745
 20
5.156520990517689
 10
5.39790384555606
 20
5.188921373744316
 10
5.430304228782686
 20
5.221321756970942
 10
5.462704612009313
 20
5.237521948584257
 10
5.511305186849254
 20
5.221321756970942
 10
5.54370557007588
 20
5.188921373744316
 10
5.559905761689192
 20
5.156520990517689
 10
5.54370557007588
 20
5.107920415677748
 10
5.511305186849254
 20
5.075520032451121
 10
5.462704612009313
 20
5.059319840837808
 10
5.430304228782686
 20
5.075520032451121
 10
5.39790384555606
 20
5.107920415677748
  0
LWPOLYLINE
  5
AB
100
AcDbEntity
  8
USP-GEO
100
AcDbPolyline
 90
        2
 70
   128
 43
0.0
 10
5.511305186849254
 20
5.075520032451121
 10
5.462704612009313
 20
5.059319840837808
  0
LWPOLYLINE
  5
AC
100
AcDbEntity
  8
USP-GEO
100
AcDbPolyline
 90
       12
 70
   129
 43
0.0
 10
4.879497713930026
 20
6.080741922057224
 10
4.863297522316711
 20
6.113142305283851
 10
4.879497713930026
 20
6.161742880123792
 10
4.911898097156653
 20
6.194143263350419
 10
4.960498671996594
 20
6.210343454963732
 10
5.009099246836536
 20
6.194143263350419
 10
5.041499630063162
 20
6.161742880123792
 10
5.057699821676473
 20
6.113142305283851
 10
5.041499630063162
 20
6.080741922057224
 10
5.009099246836536
 20
6.048341538830596
 10
4.960498671996594
 20
6.032141347217283
 10
4.911898097156653
 20
6.048341538830596
  0
LWPOLYLINE
  5
AD
100
AcDbEntity
  8
USP-GEO
100
AcDbPolyline
 90
        2
 70
   128
 43
0.0
 10
5.009099246836536
 20
6.048341538830596
 10
4.960498671996594
 20
6.032141347217283
  0
LWPOLYLINE
  5
AE
100
AcDbEntity
  8
USP-GEO
100
AcDbPolyline
 90
        2
 70
   128
 43
0.0
 10
5.430304228782686
 20
6.437956147130787
 10
5.608506336529133
 20
6.551357488423981
  0
LWPOLYLINE
  5
AF
100
AcDbEntity
  8
USP-GEO
100
AcDbPolyline
 90
       12
 70
   129
 43
0.0
 10
5.381703653942745
 20
6.907761703916879
 10
5.39790384555606
 20
6.940162087143505
 10
5.430304228782686
 20
6.972562470370133
 10
5.462704612009313
 20
6.988762661983447
 10
5.511305186849254
 20
6.972562470370133
 10
5.54370557007588
 20
6.940162087143505
 10
5.559905761689192
 20
6.907761703916879
 10
5.54370557007588
 20
6.859161129076937
 10
5.511305186849254
 20
6.826760745850311
 10
5.462704612009313
 20
6.810560554236998
 10
5.430304228782686
 20
6.826760745850311
 10
5.39790384555606
 20
6.859161129076937
  0
LWPOLYLINE
  5
B0
100
AcDbEntity
  8
USP-GEO
100
AcDbPolyline
 90
        2
 70
   128
 43
0.0
 10
5.511305186849254
 20
6.826760745850311
 10
5.462704612009313
 20
6.810560554236998
  0
LWPOLYLINE
  5
B1
100
AcDbEntity
  8
USP-GEO
100
AcDbPolyline
 90
        2
 70
   128
 43
0.0
 10
5.754308061048954
 20
6.68095902133049
 10
5.787518453856248
 20
6.794360362623685
  0
LWPOLYLINE
  5
B2
100
AcDbEntity
  8
USP-GEO
100
AcDbPolyline
 90
        5
 70
   128
 43
0.0
 10
1.945643012758951
 20
8.302598201823171
 10
1.864642054692383
 20
8.221597243756603
 10
1.816041479852442
 20
8.059595327623469
 10
1.864642054692383
 20
7.896783401909667
 10
1.945643012758951
 20
7.815782443843099
  0
LWPOLYLINE
  5
B3
100
AcDbEntity
  8
USP-GEO
100
AcDbPolyline
 90
       12
 70
   129
 43
0.0
 10
1.45882725477888
 20
7.864383018683041
 10
1.442627063165566
 20
7.896783401909667
 10
1.45882725477888
 20
7.946193986330273
 10
1.491227638005506
 20
7.978594369556901
 10
1.539828212845447
 20
7.994794561170214
 10
1.588428787685387
 20
7.978594369556901
 10
1.620829170912015
 20
7.946193986330273
 10
1.620829170912015
 20
7.896783401909667
 10
1.620829170912015
 20
7.864383018683041
 10
1.588428787685387
 20
7.831982635456414
 10
1.539828212845447
 20
7.815782443843099
 10
1.491227638005506
 20
7.831982635456414
  0
LWPOLYLINE
  5
B4
100
AcDbEntity
  8
USP-GEO
100
AcDbPolyline
 90
       23
 70
   128
 43
0.0
 10
1.880842246305697
 20
8.124396094076724
 10
1.89704243791901
 20
8.108195902463409
 10
1.89704243791901
 20
8.091995710850095
 10
1.89704243791901
 20
8.059595327623469
 10
1.89704243791901
 20
8.027194944396841
 10
1.89704243791901
 20
8.010994752783529
 10
1.880842246305697
 20
7.978594369556901
 10
1.864642054692383
 20
7.978594369556901
 10
1.84844186307907
 20
7.978594369556901
 10
1.832241671465755
 20
8.010994752783529
 10
1.832241671465755
 20
8.027194944396841
 10
1.832241671465755
 20
8.059595327623469
 10
1.832241671465755
 20
8.091995710850095
 10
1.832241671465755
 20
8.108195902463409
 10
1.84844186307907
 20
8.124396094076724
 10
1.864642054692383
 20
8.140596285690035
 10
1.880842246305697
 20
8.124396094076724
 10
1.880842246305697
 20
8.108195902463409
 10
1.880842246305697
 20
8.091995710850095
 10
1.880842246305697
 20
8.059595327623469
 10
1.880842246305697
 20
8.027194944396841
 10
1.880842246305697
 20
8.010994752783529
 10
1.880842246305697
 20
7.994794561170214
  0
LWPOLYLINE
  5
B5
100
AcDbEntity
  8
USP-GEO
100
AcDbPolyline
 90
       12
 70
   129
 43
0.0
 10
1.45882725477888
 20
8.951415875936378
 10
1.491227638005506
 20
8.983816259163004
 10
1.539828212845447
 20
9.000016450776318
 10
1.588428787685387
 20
8.983816259163004
 10
1.620829170912015
 20
8.951415875936378
 10
1.620829170912015
 20
8.902815301096437
 10
1.620829170912015
 20
8.854214726256495
 10
1.588428787685387
 20
8.821814343029869
 10
1.539828212845447
 20
8.805614151416556
 10
1.491227638005506
 20
8.821814343029869
 10
1.45882725477888
 20
8.854214726256495
 10
1.442627063165566
 20
8.902815301096437
  0
LWPOLYLINE
  5
B6
100
AcDbEntity
  8
USP-GEO
100
AcDbPolyline
 90
       10
 70
   128
 43
0.0
 10
2.010443779212204
 20
7.653780527709965
 10
2.010443779212204
 20
7.767181869003159
 10
2.010443779212204
 20
7.946193986330273
 10
2.010443779212204
 20
8.15679647730335
 10
2.010443779212204
 20
8.351198776663112
 10
2.010443779212204
 20
8.464600117956306
 10
1.945643012758951
 20
8.464600117956306
 10
1.945643012758951
 20
8.513200692796248
 10
1.945643012758951
 20
8.594201650862816
 10
1.945643012758951
 20
8.70760299215601
  0
LWPOLYLINE
  5
B7
100
AcDbEntity
  8
USP-GEO
100
AcDbPolyline
 90
       10
 70
   128
 43
0.0
 10
2.010443779212204
 20
7.410777653510264
 10
2.010443779212204
 20
7.507978803190143
 10
2.010443779212204
 20
7.605179952870026
 10
2.010443779212204
 20
7.653780527709965
 10
1.945643012758951
 20
7.653780527709965
 10
1.945643012758951
 20
7.767181869003159
 10
1.945643012758951
 20
7.946193986330273
 10
1.945643012758951
 20
8.15679647730335
 10
1.945643012758951
 20
8.351198776663112
 10
1.945643012758951
 20
8.464600117956306
  0
LWPOLYLINE
  5
B8
100
AcDbEntity
  8
USP-GEO
100
AcDbPolyline
 90
        2
 70
   129
 43
0.0
 10
2.010443779212204
 20
9.178218558522766
 10
2.010443779212204
 20
8.70760299215601
  0
LWPOLYLINE
  5
B9
100
AcDbEntity
  8
USP-GEO
100
AcDbPolyline
 90
        8
 70
   128
 43
0.0
 10
2.010443779212204
 20
8.464600117956306
 10
2.010443779212204
 20
8.513200692796248
 10
2.010443779212204
 20
8.594201650862816
 10
2.010443779212204
 20
8.70760299215601
 10
1.945643012758951
 20
8.70760299215601
 10
1.945643012758951
 20
9.178218558522766
 10
2.010443779212204
 20
9.178218558522766
 10
1.945643012758951
 20
9.178218558522766
  0
LWPOLYLINE
  5
BA
100
AcDbEntity
  8
USP-GEO
100
AcDbPolyline
 90
        8
 70
   128
 43
0.0
 10
3.777074674644042
 20
7.459378228350203
 10
3.777074674644042
 20
7.410777653510264
 10
3.777074674644042
 20
7.329776695443696
 10
3.777074674644042
 20
7.232575545763815
 10
3.841875441097295
 20
7.232575545763815
 10
3.841875441097295
 20
7.329776695443696
 10
3.841875441097295
 20
7.410777653510264
 10
3.841875441097295
 20
7.459378228350203
  0
LWPOLYLINE
  5
BB
100
AcDbEntity
  8
USP-GEO
100
AcDbPolyline
 90
        2
 70
   128
 43
0.0
 10
3.841875441097295
 20
8.286398010209858
 10
3.777074674644042
 20
8.286398010209858
  0
LWPOLYLINE
  5
BC
100
AcDbEntity
  8
USP-GEO
100
AcDbPolyline
 90
       18
 70
   128
 43
0.0
 10
3.777074674644042
 20
8.513200692796248
 10
3.777074674644042
 20
8.415999543116365
 10
3.777074674644042
 20
8.334998585049797
 10
3.777074674644042
 20
8.286398010209858
 10
3.777074674644042
 20
8.15679647730335
 10
3.777074674644042
 20
7.978594369556901
 10
3.777074674644042
 20
7.767181869003159
 10
3.777074674644042
 20
7.572779569643397
 10
3.777074674644042
 20
7.459378228350203
 10
3.841875441097295
 20
7.459378228350203
 10
3.841875441097295
 20
7.572779569643397
 10
3.841875441097295
 20
7.767181869003159
 10
3.841875441097295
 20
7.978594369556901
 10
3.841875441097295
 20
8.15679647730335
 10
3.841875441097295
 20
8.286398010209858
 10
3.841875441097295
 20
8.334998585049797
 10
3.841875441097295
 20
8.415999543116365
 10
3.841875441097295
 20
8.513200692796248
  0
LWPOLYLINE
  5
BD
100
AcDbEntity
  8
USP-GEO
100
AcDbPolyline
 90
        4
 70
   129
 43
0.0
 10
3.841875441097295
 20
8.513200692796248
 10
3.841875441097295
 20
9.178218558522766
 10
3.777074674644042
 20
9.178218558522766
 10
3.777074674644042
 20
8.513200692796248
  0
LWPOLYLINE
  5
BE
100
AcDbEntity
  8
USP-GEO
100
AcDbPolyline
 90
       12
 70
   128
 43
0.0
 10
4.246880231430134
 20
7.815782443843099
 10
4.198279656590193
 20
7.831982635456414
 10
4.165879273363566
 20
7.864383018683041
 10
4.165879273363566
 20
7.896783401909667
 10
4.165879273363566
 20
7.946193986330273
 10
4.198279656590193
 20
7.978594369556901
 10
4.246880231430134
 20
7.994794561170214
 10
4.295480806270076
 20
7.978594369556901
 10
4.327881189496702
 20
7.946193986330273
 10
4.344081381110013
 20
7.896783401909667
 10
4.327881189496702
 20
7.864383018683041
 10
4.295480806270076
 20
7.831982635456414
  0
LWPOLYLINE
  5
BF
100
AcDbEntity
  8
USP-GEO
100
AcDbPolyline
 90
        2
 70
   129
 43
0.0
 10
4.246880231430134
 20
7.815782443843099
 10
4.295480806270076
 20
7.831982635456414
  0
LWPOLYLINE
  5
C0
100
AcDbEntity
  8
USP-GEO
100
AcDbPolyline
 90
        5
 70
   128
 43
0.0
 10
3.841875441097295
 20
7.621380144483337
 10
3.922876399163863
 20
7.71858129416322
 10
3.971476974003804
 20
7.864383018683041
 10
3.922876399163863
 20
8.027194944396841
 10
3.955276782390489
 20
7.929183785136295
  0
LWPOLYLINE
  5
C1
100
AcDbEntity
  8
USP-GEO
100
AcDbPolyline
 90
        2
 70
   128
 43
0.0
 10
3.922876399163863
 20
8.027194944396841
 10
3.841875441097295
 20
8.124396094076724
  0
LWPOLYLINE
  5
C2
100
AcDbEntity
  8
USP-GEO
100
AcDbPolyline
 90
        7
 70
   128
 43
0.0
 10
3.890476015937236
 20
7.929183785136295
 10
3.906676207550551
 20
7.929183785136295
 10
3.906676207550551
 20
7.896783401909667
 10
3.906676207550551
 20
7.864383018683041
 10
3.906676207550551
 20
7.831982635456414
 10
3.906676207550551
 20
7.815782443843099
 10
3.890476015937236
 20
7.815782443843099
  0
LWPOLYLINE
  5
C3
100
AcDbEntity
  8
USP-GEO
100
AcDbPolyline
 90
       16
 70
   129
 43
0.0
 10
3.890476015937236
 20
7.896783401909667
 10
3.890476015937236
 20
7.929183785136295
 10
3.906676207550551
 20
7.946193986330273
 10
3.922876399163863
 20
7.946193986330273
 10
3.939076590777178
 20
7.946193986330273
 10
3.955276782390489
 20
7.929183785136295
 10
3.955276782390489
 20
7.896783401909667
 10
3.955276782390489
 20
7.864383018683041
 10
3.955276782390489
 20
7.848182827069727
 10
3.955276782390489
 20
7.815782443843099
 10
3.939076590777178
 20
7.799582252229788
 10
3.922876399163863
 20
7.799582252229788
 10
3.906676207550551
 20
7.799582252229788
 10
3.890476015937236
 20
7.815782443843099
 10
3.890476015937236
 20
7.848182827069727
 10
3.890476015937236
 20
7.864383018683041
  0
LWPOLYLINE
  5
C4
100
AcDbEntity
  8
USP-GEO
100
AcDbPolyline
 90
       12
 70
   128
 43
0.0
 10
4.246880231430134
 20
8.805614151416556
 10
4.198279656590193
 20
8.821814343029869
 10
4.165879273363566
 20
8.854214726256495
 10
4.165879273363566
 20
8.902815301096437
 10
4.165879273363566
 20
8.951415875936378
 10
4.198279656590193
 20
8.983816259163004
 10
4.246880231430134
 20
9.000016450776318
 10
4.295480806270076
 20
8.983816259163004
 10
4.327881189496702
 20
8.951415875936378
 10
4.344081381110013
 20
8.902815301096437
 10
4.327881189496702
 20
8.854214726256495
 10
4.295480806270076
 20
8.821814343029869
  0
LWPOLYLINE
  5
C5
100
AcDbEntity
  8
USP-GEO
100
AcDbPolyline
 90
        2
 70
   129
 43
0.0
 10
4.246880231430134
 20
8.805614151416556
 10
4.295480806270076
 20
8.821814343029869
  0
LWPOLYLINE
  5
C6
100
AcDbEntity
  8
USP-GEO
100
AcDbPolyline
 90
        2
 70
   129
 43
0.0
 10
5.608506336529133
 20
7.459378228350203
 10
5.705707486209016
 20
7.410777653510264
  0
LWPOLYLINE
  5
C7
100
AcDbEntity
  8
USP-GEO
100
AcDbPolyline
 90
       12
 70
   128
 43
0.0
 10
4.960498671996594
 20
8.027194944396841
 10
4.911898097156653
 20
8.043395136010156
 10
4.879497713930026
 20
8.075795519236782
 10
4.863297522316711
 20
8.124396094076724
 10
4.879497713930026
 20
8.172996668916663
 10
4.911898097156653
 20
8.205397052143291
 10
4.960498671996594
 20
8.205397052143291
 10
5.009099246836536
 20
8.205397052143291
 10
5.041499630063162
 20
8.172996668916663
 10
5.057699821676473
 20
8.124396094076724
 10
5.041499630063162
 20
8.075795519236782
 10
5.009099246836536
 20
8.043395136010156
  0
LWPOLYLINE
  5
C8
100
AcDbEntity
  8
USP-GEO
100
AcDbPolyline
 90
        2
 70
   129
 43
0.0
 10
4.960498671996594
 20
8.027194944396841
 10
5.009099246836536
 20
8.043395136010156
  0
LWPOLYLINE
  5
C9
100
AcDbEntity
  8
USP-GEO
100
AcDbPolyline
 90
       12
 70
   128
 43
0.0
 10
5.462704612009313
 20
8.805614151416556
 10
5.430304228782686
 20
8.821814343029869
 10
5.39790384555606
 20
8.854214726256495
 10
5.381703653942745
 20
8.902815301096437
 10
5.39790384555606
 20
8.951415875936378
 10
5.430304228782686
 20
8.983816259163004
 10
5.462704612009313
 20
9.000016450776318
 10
5.511305186849254
 20
8.983816259163004
 10
5.54370557007588
 20
8.951415875936378
 10
5.559905761689192
 20
8.902815301096437
 10
5.54370557007588
 20
8.854214726256495
 10
5.511305186849254
 20
8.821814343029869
  0
LWPOLYLINE
  5
CA
100
AcDbEntity
  8
USP-GEO
100
AcDbPolyline
 90
        2
 70
   129
 43
0.0
 10
5.462704612009313
 20
8.805614151416556
 10
5.511305186849254
 20
8.821814343029869
  0
LWPOLYLINE
  5
CB
100
AcDbEntity
  8
USP-GEO
100
AcDbPolyline
 90
        3
 70
   128
 43
0.0
 10
5.705707486209016
 20
7.410777653510264
 10
5.754308061048954
 20
7.329776695443696
 10
5.787518453856248
 20
7.232575545763815
  0
ENDBLK
  5
CD
100
AcDbEntity
  8
0
100
AcDbBlockEnd
  0
BLOCK
  5
107
100
AcDbEntity
  8
0
100
AcDbBlockBegin
  2
HUS179_S
 70
     0
 10
0.0
 20
0.0
 30
0.0
  3
HUS179_S
  1

  0
LWPOLYLINE
  5
D0
100
AcDbEntity
  8
USP-GEO
100
AcDbPolyline
 90
        2
 70
   129
 43
0.0
 10
1.134013412931945
 20
7.410777653510264
 10
1.134013412931945
 20
6.972562470370133
  0
LWPOLYLINE
  5
D1
100
AcDbEntity
  8
USP-GEO
100
AcDbPolyline
 90
       72
 70
   128
 43
0.0
 10
1.134013412931945
 20
8.70760299215601
 10
1.134013412931945
 20
9.178218558522766
 10
0.0648007664532537
 20
9.178218558522766
 10
0.0648007664532537
 20
8.70760299215601
 10
0.0648007664532537
 20
8.594201650862816
 10
0.0648007664532537
 20
8.513200692796248
 10
0.0648007664532537
 20
8.464600117956306
 10
0.0648007664532537
 20
8.351198776663112
 10
0.0648007664532537
 20
8.15679647730335
 10
0.0648007664532537
 20
7.946193986330273
 10
0.0648007664532537
 20
7.767181869003159
 10
0.0648007664532537
 20
7.653780527709965
 10
0.0648007664532537
 20
7.605179952870026
 10
0.0648007664532537
 20
7.507978803190143
 10
0.0648007664532537
 20
7.410777653510264
 10
0.0648007664532537
 20
6.972562470370133
 10
0.0648007664532537
 20
6.875361320690252
 10
0.0648007664532537
 20
6.794360362623685
 10
0.0648007664532537
 20
6.745759787783743
 10
0.0648007664532537
 20
6.616158254877236
 10
0.0648007664532537
 20
6.437956147130787
 10
0.0648007664532537
 20
6.227353656157712
 10
0.0648007664532537
 20
6.032141347217283
 10
0.0648007664532537
 20
5.918740005924089
 10
0.0648007664532537
 20
5.870139431084149
 10
0.0648007664532537
 20
5.789138473017581
 10
0.0648007664532537
 20
5.6919373233377
 10
0.0648007664532537
 20
4.589514284051716
 10
0.0648007664532537
 20
4.475302933177855
 10
0.0648007664532537
 20
4.394301975111288
 10
0.0648007664532537
 20
4.345701400271348
 10
0.0648007664532537
 20
4.248500250591467
 10
0.0648007664532537
 20
4.11889871768496
 10
0.0648007664532537
 20
3.940696609938511
 10
0.0648007664532537
 20
2.967875103559034
 10
0.0648007664532537
 20
2.497259537192277
 10
0.0648007664532537
 20
2.059854363632812
 10
0.0648007664532537
 20
1.670239755332623
 10
0.0648007664532537
 20
0.5030159495933848
 10
0.3402040238795836
 20
0.1620019161331356
 10
0.3726044071062109
 20
0.1458017245198224
 10
0.3726044071062109
 20
0.113401341293196
 10
0.3726044071062109
 20
0.0810009580665678
 10
0.3726044071062109
 20
0.0
 10
3.371259874730539
 20
0.0
 10
3.371259874730539
 20
0.0810009580665678
 10
3.371259874730539
 20
0.113401341293196
 10
3.371259874730539
 20
0.1458017245198224
 10
3.355059683117226
 20
0.1620019161331356
 10
2.074434536084793
 20
1.670239755332623
 10
1.799031278658465
 20
2.059854363632812
 10
1.637029362525329
 20
2.497259537192277
 10
1.588428787685388
 20
2.967875103559034
 10
1.588428787685388
 20
3.940696609938511
 10
1.556028404458762
 20
4.11889871768496
 10
1.442627063165567
 20
4.248500250591467
 10
1.29601532906508
 20
4.345701400271348
 10
1.215014370998512
 20
4.394301975111288
 10
1.150213604545258
 20
4.475302933177855
 10
1.134013412931945
 20
4.589514284051716
 10
1.134013412931945
 20
5.6919373233377
 10
1.150213604545258
 20
5.789138473017581
 10
1.215014370998512
 20
5.870139431084149
 10
1.29601532906508
 20
5.918740005924089
 10
1.475027446392194
 20
6.032141347217283
 10
1.572228596072075
 20
6.227353656157712
 10
1.572228596072075
 20
6.437956147130787
 10
1.475027446392194
 20
6.616158254877236
 10
1.29601532906508
 20
6.745759787783743
 10
1.215014370998512
 20
6.794360362623685
 10
1.150213604545258
 20
6.875361320690252
 10
1.134013412931945
 20
6.972562470370133
  0
LWPOLYLINE
  5
D2
100
AcDbEntity
  8
USP-GEO
100
AcDbPolyline
 90
        2
 70
   128
 43
0.0
 10
0.0648007664532537
 20
6.972562470370133
 10
0.0648007664532537
 20
7.410777653510264
  0
LWPOLYLINE
  5
D3
100
AcDbEntity
  8
USP-GEO
100
AcDbPolyline
 90
       10
 70
   128
 43
0.0
 10
0.0648007664532537
 20
6.745759787783743
 10
0.0648007664532537
 20
6.794360362623685
 10
0.0648007664532537
 20
6.875361320690252
 10
0.0648007664532537
 20
6.972562470370133
 10
0.0
 20
6.972562470370133
 10
0.0
 20
7.410777653510264
 10
0.0648007664532537
 20
7.410777653510264
 10
0.0648007664532537
 20
7.507978803190143
 10
0.0648007664532537
 20
7.605179952870026
 10
0.0648007664532537
 20
7.653780527709965
  0
LWPOLYLINE
  5
D4
100
AcDbEntity
  8
USP-GEO
100
AcDbPolyline
 90
       41
 70
   128
 43
0.0
 10
1.134013412931945
 20
8.70760299215601
 10
1.134013412931945
 20
9.178218558522766
 10
0.0648007664532537
 20
9.178218558522766
 10
0.0
 20
9.178218558522766
 10
0.0
 20
8.70760299215601
 10
0.0
 20
8.594201650862816
 10
0.0
 20
8.513200692796248
 10
0.0
 20
8.464600117956306
 10
0.0
 20
8.351198776663112
 10
0.0
 20
8.15679647730335
 10
0.0
 20
7.946193986330273
 10
0.0
 20
7.767181869003159
 10
0.0
 20
7.653780527709965
 10
0.0
 20
7.605179952870026
 10
0.0
 20
7.507978803190143
 10
0.0
 20
7.410777653510264
 10
0.0
 20
6.972562470370133
 10
0.0
 20
6.875361320690252
 10
0.0
 20
6.794360362623685
 10
0.0
 20
6.745759787783743
 10
0.0
 20
6.616158254877236
 10
0.0
 20
6.437956147130787
 10
0.0
 20
6.227353656157712
 10
0.0
 20
6.032141347217283
 10
0.0
 20
5.918740005924089
 10
0.0
 20
5.870139431084149
 10
0.0
 20
5.789138473017581
 10
0.0
 20
5.6919373233377
 10
0.0
 20
4.589514284051716
 10
0.0
 20
4.475302933177855
 10
0.0
 20
4.394301975111288
 10
0.0
 20
4.345701400271348
 10
0.0
 20
4.248500250591467
 10
0.0
 20
4.11889871768496
 10
0.0
 20
3.940696609938511
 10
0.0
 20
2.967875103559034
 10
0.0
 20
2.497259537192277
 10
0.0
 20
2.059854363632812
 10
0.0
 20
1.670239755332623
 10
0.0
 20
0.5030159495933848
 10
0.0648007664532537
 20
0.5030159495933848
  0
LWPOLYLINE
  5
D5
100
AcDbEntity
  8
USP-GEO
100
AcDbPolyline
 90
        4
 70
   128
 43
0.0
 10
0.3726044071062109
 20
0.0810009580665678
 10
0.3726044071062109
 20
0.0
 10
3.371259874730539
 20
0.0
 10
3.371259874730539
 20
0.0810009580665678
  0
LWPOLYLINE
  5
D6
100
AcDbEntity
  8
USP-GEO
100
AcDbPolyline
 90
        2
 70
   128
 43
0.0
 10
3.355059683117226
 20
0.1620019161331356
 10
2.074434536084793
 20
1.670239755332623
  0
LWPOLYLINE
  5
D7
100
AcDbEntity
  8
USP-GEO
100
AcDbPolyline
 90
        2
 70
   128
 43
0.0
 10
3.371259874730539
 20
0.0648007664532546
 10
0.3726044071062109
 20
0.0648007664532546
  0
TEXT
  5
D8
100
AcDbEntity
  8
USP-TXT
100
AcDbText
 10
-0.0257213113637453
 20
-1.038719859779307
 30
0.0
 40
0.203125
  1
HUS179 - LEFT SIDE VIEW
 72
     1
 11
2.242507855302921
 21
-1.038719859779307
 31
0.0
100
AcDbText
  0
LWPOLYLINE
  5
D9
100
AcDbEntity
  8
USP-GEO
100
AcDbPolyline
 90
        5
 70
   128
 43
0.0
 10
0.0
 20
3.940696609938511
 10
0.0
 20
2.967875103559034
 10
0.0
 20
2.497259537192277
 10
0.0
 20
2.059854363632812
 10
0.0
 20
1.670239755332623
  0
LWPOLYLINE
  5
DA
100
AcDbEntity
  8
USP-GEO
100
AcDbPolyline
 90
        5
 70
   128
 43
0.0
 10
0.0648007664532537
 20
1.670239755332623
 10
0.0648007664532537
 20
2.059854363632812
 10
0.0648007664532537
 20
2.497259537192277
 10
0.0648007664532537
 20
2.967875103559034
 10
0.0648007664532537
 20
3.940696609938511
  0
LWPOLYLINE
  5
DB
100
AcDbEntity
  8
USP-GEO
100
AcDbPolyline
 90
        2
 70
   128
 43
0.0
 10
0.0648007664532537
 20
0.5030159495933848
 10
0.3402040238795836
 20
0.1620019161331356
  0
LWPOLYLINE
  5
DC
100
AcDbEntity
  8
USP-GEO
100
AcDbPolyline
 90
        4
 70
   129
 43
0.0
 10
0.0648007664532537
 20
0.5030159495933848
 10
0.0648007664532537
 20
1.670239755332623
 10
0.0
 20
1.670239755332623
 10
0.0
 20
0.5030159495933848
  0
LWPOLYLINE
  5
DD
100
AcDbEntity
  8
USP-GEO
100
AcDbPolyline
 90
       12
 70
   129
 43
0.0
 10
1.279815137451767
 20
0.7136184405664601
 10
1.166413796158573
 20
0.6812180573398337
 10
1.036812263252063
 20
0.7136184405664601
 10
0.9396111135721829
 20
0.7946193986330279
 10
0.9072107303455565
 20
0.9242209315395371
 10
0.9396111135721829
 20
1.053822464446044
 10
1.036812263252063
 20
1.15183362370659
 10
1.166413796158573
 20
1.184234006933218
 10
1.279815137451767
 20
1.15183362370659
 10
1.377826296712313
 20
1.053822464446044
 10
1.410226679938941
 20
0.9242209315395371
 10
1.377826296712313
 20
0.7946193986330279
  0
LWPOLYLINE
  5
DE
100
AcDbEntity
  8
USP-GEO
100
AcDbPolyline
 90
       16
 70
   129
 43
0.0
 10
1.231214562611826
 20
0.8918205483129089
 10
1.231214562611826
 20
0.9242209315395371
 10
1.231214562611826
 20
0.9566213147661635
 10
1.247414754225139
 20
0.9890216979927899
 10
1.263614945838454
 20
1.005221889606103
 10
1.29601532906508
 20
1.005221889606103
 10
1.328415712291707
 20
1.005221889606103
 10
1.345425913485686
 20
0.9890216979927899
 10
1.361626105098999
 20
0.9566213147661635
 10
1.377826296712313
 20
0.9242209315395371
 10
1.361626105098999
 20
0.8918205483129089
 10
1.345425913485686
 20
0.8756203566995957
 10
1.328415712291707
 20
0.8594201650862824
 10
1.29601532906508
 20
0.8432199734729692
 10
1.263614945838454
 20
0.8594201650862824
 10
1.247414754225139
 20
0.8756203566995957
  0
LWPOLYLINE
  5
DF
100
AcDbEntity
  8
USP-GEO
100
AcDbPolyline
 90
        3
 70
   128
 43
0.0
 10
1.312215520678393
 20
0.8756203566995957
 10
1.263614945838454
 20
0.9242209315395371
 10
1.231214562611826
 20
0.9404211231528503
  0
LWPOLYLINE
  5
E0
100
AcDbEntity
  8
USP-GEO
100
AcDbPolyline
 90
        9
 70
   128
 43
0.0
 10
1.280625147032432
 20
0.8594201650862824
 10
1.279815137451767
 20
0.8594201650862824
 10
1.312215520678393
 20
0.8756203566995957
 10
1.328415712291707
 20
0.8918205483129089
 10
1.328415712291707
 20
0.9242209315395371
 10
1.328415712291707
 20
0.9566213147661635
 10
1.312215520678393
 20
0.9890216979927899
 10
1.279815137451767
 20
1.005221889606103
 10
1.280625147032432
 20
1.005221889606103
  0
LWPOLYLINE
  5
E1
100
AcDbEntity
  8
USP-GEO
100
AcDbPolyline
 90
       12
 70
   129
 43
0.0
 10
0.2430028741997026
 20
4.913518116317986
 10
0.1782021077464488
 20
4.97831888277124
 10
0.1620019161331347
 20
5.059319840837808
 10
0.1782021077464488
 20
5.140320798904376
 10
0.2430028741997026
 20
5.188921373744316
 10
0.3078036406529563
 20
5.205121565357629
 10
0.3888045987195241
 20
5.188921373744316
 10
0.4536053651727779
 20
5.140320798904376
 10
0.469805556786092
 20
5.059319840837808
 10
0.4536053651727779
 20
4.97831888277124
 10
0.3888045987195241
 20
4.913518116317986
 10
0.3078036406529563
 20
4.897317924704672
  0
LWPOLYLINE
  5
E2
100
AcDbEntity
  8
USP-GEO
100
AcDbPolyline
 90
        5
 70
   128
 43
0.0
 10
0.0648007664532537
 20
4.589514284051716
 10
0.0648007664532537
 20
4.475302933177855
 10
0.0648007664532537
 20
4.394301975111288
 10
0.0648007664532537
 20
4.345701400271348
 10
0.0
 20
4.345701400271348
  0
LWPOLYLINE
  5
E3
100
AcDbEntity
  8
USP-GEO
100
AcDbPolyline
 90
       11
 70
   128
 43
0.0
 10
0.0
 20
4.589514284051716
 10
0.0
 20
4.475302933177855
 10
0.0
 20
4.394301975111288
 10
0.0
 20
4.345701400271348
 10
0.0
 20
4.248500250591467
 10
0.0
 20
4.11889871768496
 10
0.0
 20
3.940696609938511
 10
0.0648007664532537
 20
3.940696609938511
 10
0.0648007664532537
 20
4.11889871768496
 10
0.0648007664532537
 20
4.248500250591467
 10
0.0648007664532537
 20
4.345701400271348
  0
LWPOLYLINE
  5
E4
100
AcDbEntity
  8
USP-GEO
100
AcDbPolyline
 90
        2
 70
   128
 43
0.0
 10
0.0648007664532537
 20
2.967875103559034
 10
0.0
 20
2.967875103559034
  0
LWPOLYLINE
  5
E5
100
AcDbEntity
  8
USP-GEO
100
AcDbPolyline
 90
        8
 70
   128
 43
0.0
 10
0.0
 20
5.918740005924089
 10
0.0
 20
5.870139431084149
 10
0.0
 20
5.789138473017581
 10
0.0
 20
5.6919373233377
 10
0.0648007664532537
 20
5.6919373233377
 10
0.0648007664532537
 20
5.789138473017581
 10
0.0648007664532537
 20
5.870139431084149
 10
0.0648007664532537
 20
5.918740005924089
  0
LWPOLYLINE
  5
E6
100
AcDbEntity
  8
USP-GEO
100
AcDbPolyline
 90
        4
 70
   128
 43
0.0
 10
0.0
 20
5.6919373233377
 10
0.0
 20
4.589514284051716
 10
0.0648007664532537
 20
4.589514284051716
 10
0.0648007664532537
 20
5.6919373233377
  0
LWPOLYLINE
  5
E7
100
AcDbEntity
  8
USP-GEO
100
AcDbPolyline
 90
       12
 70
   129
 43
0.0
 10
0.0648007664532537
 20
5.918740005924089
 10
0.0648007664532537
 20
6.032141347217283
 10
0.0648007664532537
 20
6.227353656157712
 10
0.0648007664532537
 20
6.437956147130787
 10
0.0648007664532537
 20
6.616158254877236
 10
0.0648007664532537
 20
6.745759787783743
 10
0.0
 20
6.745759787783743
 10
0.0
 20
6.616158254877236
 10
0.0
 20
6.437956147130787
 10
0.0
 20
6.227353656157712
 10
0.0
 20
6.032141347217283
 10
0.0
 20
5.918740005924089
  0
LWPOLYLINE
  5
E8
100
AcDbEntity
  8
USP-GEO
100
AcDbPolyline
 90
        4
 70
   128
 43
0.0
 10
0.0
 20
6.972562470370133
 10
0.0
 20
6.875361320690252
 10
0.0
 20
6.794360362623685
 10
0.0
 20
6.745759787783743
  0
LWPOLYLINE
  5
E9
100
AcDbEntity
  8
USP-GEO
100
AcDbPolyline
 90
       12
 70
   129
 43
0.0
 10
1.279815137451767
 20
2.205656088152634
 10
1.166413796158573
 20
2.173255704926006
 10
1.036812263252063
 20
2.205656088152634
 10
0.9396111135721829
 20
2.302857237832515
 10
0.9072107303455565
 20
2.432458770739023
 10
0.9396111135721829
 20
2.545860112032217
 10
1.036812263252063
 20
2.643061261712098
 10
1.166413796158573
 20
2.675461644938726
 10
1.279815137451767
 20
2.643061261712098
 10
1.377826296712313
 20
2.545860112032217
 10
1.410226679938941
 20
2.432458770739023
 10
1.377826296712313
 20
2.302857237832515
  0
LWPOLYLINE
  5
EA
100
AcDbEntity
  8
USP-GEO
100
AcDbPolyline
 90
       16
 70
   129
 43
0.0
 10
1.231214562611826
 20
2.400058387512396
 10
1.231214562611826
 20
2.432458770739023
 10
1.231214562611826
 20
2.464859153965649
 10
1.247414754225139
 20
2.481059345578964
 10
1.263614945838454
 20
2.497259537192277
 10
1.29601532906508
 20
2.513459728805591
 10
1.328415712291707
 20
2.497259537192277
 10
1.345425913485686
 20
2.481059345578964
 10
1.361626105098999
 20
2.464859153965649
 10
1.377826296712313
 20
2.432458770739023
 10
1.361626105098999
 20
2.400058387512396
 10
1.345425913485686
 20
2.367658004285768
 10
1.328415712291707
 20
2.351457812672455
 10
1.29601532906508
 20
2.351457812672455
 10
1.263614945838454
 20
2.351457812672455
 10
1.247414754225139
 20
2.367658004285768
  0
LWPOLYLINE
  5
EB
100
AcDbEntity
  8
USP-GEO
100
AcDbPolyline
 90
       12
 70
   129
 43
0.0
 10
0.9072107303455565
 20
3.924496418325198
 10
0.9396111135721829
 20
3.811095077032002
 10
1.036812263252063
 20
3.71389392735212
 10
1.166413796158573
 20
3.681493544125494
 10
1.279815137451767
 20
3.71389392735212
 10
1.377826296712313
 20
3.811095077032002
 10
1.410226679938941
 20
3.924496418325198
 10
1.377826296712313
 20
4.054097951231705
 10
1.279815137451767
 20
4.151299100911586
 10
1.166413796158573
 20
4.183699484138212
 10
1.036812263252063
 20
4.151299100911586
 10
0.9396111135721829
 20
4.054097951231705
  0
LWPOLYLINE
  5
EC
100
AcDbEntity
  8
USP-GEO
100
AcDbPolyline
 90
       16
 70
   129
 43
0.0
 10
1.231214562611826
 20
3.892096035098569
 10
1.231214562611826
 20
3.924496418325198
 10
1.231214562611826
 20
3.956896801551824
 10
1.247414754225139
 20
3.98929718477845
 10
1.263614945838454
 20
4.005497376391764
 10
1.29601532906508
 20
4.005497376391764
 10
1.328415712291707
 20
4.005497376391764
 10
1.345425913485686
 20
3.98929718477845
 10
1.361626105098999
 20
3.956896801551824
 10
1.377826296712313
 20
3.924496418325198
 10
1.361626105098999
 20
3.892096035098569
 10
1.345425913485686
 20
3.875895843485256
 10
1.328415712291707
 20
3.859695651871943
 10
1.29601532906508
 20
3.84349546025863
 10
1.263614945838454
 20
3.859695651871943
 10
1.247414754225139
 20
3.875895843485256
  0
LWPOLYLINE
  5
ED
100
AcDbEntity
  8
USP-GEO
100
AcDbPolyline
 90
        3
 70
   128
 43
0.0
 10
1.312215520678393
 20
2.383858195899083
 10
1.263614945838454
 20
2.432458770739023
 10
1.231214562611826
 20
2.432458770739023
  0
LWPOLYLINE
  5
EE
100
AcDbEntity
  8
USP-GEO
100
AcDbPolyline
 90
        3
 70
   128
 43
0.0
 10
1.312215520678393
 20
3.875895843485256
 10
1.263614945838454
 20
3.924496418325198
 10
1.231214562611826
 20
3.940696609938511
  0
LWPOLYLINE
  5
EF
100
AcDbEntity
  8
USP-GEO
100
AcDbPolyline
 90
        3
 70
   128
 43
0.0
 10
1.637029362525329
 20
2.497259537192277
 10
1.588428787685388
 20
2.967875103559034
 10
1.588428787685388
 20
3.940696609938511
  0
LWPOLYLINE
  5
F0
100
AcDbEntity
  8
USP-GEO
100
AcDbPolyline
 90
        8
 70
   128
 43
0.0
 10
1.279815137451767
 20
2.351457812672455
 10
1.312215520678393
 20
2.367658004285768
 10
1.328415712291707
 20
2.400058387512396
 10
1.328415712291707
 20
2.432458770739023
 10
1.328415712291707
 20
2.464859153965649
 10
1.312215520678393
 20
2.481059345578964
 10
1.279815137451767
 20
2.497259537192277
 10
1.280625147032432
 20
2.497259537192277
  0
LWPOLYLINE
  5
F1
100
AcDbEntity
  8
USP-GEO
100
AcDbPolyline
 90
        9
 70
   128
 43
0.0
 10
1.280625147032432
 20
3.859695651871943
 10
1.279815137451767
 20
3.859695651871943
 10
1.312215520678393
 20
3.875895843485256
 10
1.328415712291707
 20
3.892096035098569
 10
1.328415712291707
 20
3.924496418325198
 10
1.328415712291707
 20
3.956896801551824
 10
1.312215520678393
 20
3.98929718477845
 10
1.279815137451767
 20
4.005497376391764
 10
1.280625147032432
 20
4.005497376391764
  0
LWPOLYLINE
  5
F2
100
AcDbEntity
  8
USP-GEO
100
AcDbPolyline
 90
        2
 70
   128
 43
0.0
 10
1.442627063165567
 20
4.248500250591467
 10
1.29601532906508
 20
4.345701400271348
  0
LWPOLYLINE
  5
F3
100
AcDbEntity
  8
USP-GEO
100
AcDbPolyline
 90
        7
 70
   128
 43
0.0
 10
1.572228596072075
 20
6.227353656157712
 10
1.572228596072075
 20
6.032141347217283
 10
1.475027446392194
 20
5.853939239470834
 10
1.29601532906508
 20
5.74053789817764
 10
1.215014370998512
 20
5.675737131724387
 10
1.150213604545258
 20
5.594736173657819
 10
1.134013412931945
 20
5.497535023977938
  0
LWPOLYLINE
  5
F4
100
AcDbEntity
  8
USP-GEO
100
AcDbPolyline
 90
       12
 70
   129
 43
0.0
 10
0.9072107303455565
 20
6.324554805837593
 10
0.9396111135721829
 20
6.4541563387441
 10
1.036812263252063
 20
6.551357488423981
 10
1.166413796158573
 20
6.583757871650609
 10
1.279815137451767
 20
6.551357488423981
 10
1.377826296712313
 20
6.4541563387441
 10
1.410226679938941
 20
6.324554805837593
 10
1.377826296712313
 20
6.210343454963732
 10
1.279815137451767
 20
6.113142305283851
 10
1.166413796158573
 20
6.080741922057224
 10
1.036812263252063
 20
6.113142305283851
 10
0.9396111135721829
 20
6.210343454963732
  0
LWPOLYLINE
  5
F5
100
AcDbEntity
  8
USP-GEO
100
AcDbPolyline
 90
       16
 70
   129
 43
0.0
 10
1.231214562611826
 20
6.308354614224279
 10
1.231214562611826
 20
6.324554805837593
 10
1.231214562611826
 20
6.356955189064219
 10
1.247414754225139
 20
6.389355572290847
 10
1.263614945838454
 20
6.40555576390416
 10
1.29601532906508
 20
6.40555576390416
 10
1.328415712291707
 20
6.40555576390416
 10
1.345425913485686
 20
6.389355572290847
 10
1.361626105098999
 20
6.356955189064219
 10
1.377826296712313
 20
6.324554805837593
 10
1.361626105098999
 20
6.308354614224279
 10
1.345425913485686
 20
6.275954230997651
 10
1.328415712291707
 20
6.259754039384338
 10
1.29601532906508
 20
6.259754039384338
 10
1.263614945838454
 20
6.259754039384338
 10
1.247414754225139
 20
6.275954230997651
  0
LWPOLYLINE
  5
F6
100
AcDbEntity
  8
USP-GEO
100
AcDbPolyline
 90
        3
 70
   128
 43
0.0
 10
1.312215520678393
 20
6.292154422610966
 10
1.263614945838454
 20
6.340754997450906
 10
1.231214562611826
 20
6.340754997450906
  0
LWPOLYLINE
  5
F7
100
AcDbEntity
  8
USP-GEO
100
AcDbPolyline
 90
        2
 70
   128
 43
0.0
 10
1.134013412931945
 20
4.589514284051716
 10
1.134013412931945
 20
5.6919373233377
  0
LWPOLYLINE
  5
F8
100
AcDbEntity
  8
USP-GEO
100
AcDbPolyline
 90
        8
 70
   128
 43
0.0
 10
1.279815137451767
 20
6.259754039384338
 10
1.312215520678393
 20
6.275954230997651
 10
1.328415712291707
 20
6.308354614224279
 10
1.328415712291707
 20
6.324554805837593
 10
1.328415712291707
 20
6.356955189064219
 10
1.312215520678393
 20
6.389355572290847
 10
1.279815137451767
 20
6.40555576390416
 10
1.280625147032432
 20
6.40555576390416
  0
LWPOLYLINE
  5
F9
100
AcDbEntity
  8
USP-GEO
100
AcDbPolyline
 90
        2
 70
   128
 43
0.0
 10
1.475027446392194
 20
6.616158254877236
 10
1.29601532906508
 20
6.745759787783743
  0
LWPOLYLINE
  5
FA
100
AcDbEntity
  8
USP-GEO
100
AcDbPolyline
 90
       12
 70
   128
 43
0.0
 10
0.0
 20
8.464600117956306
 10
0.0
 20
8.351198776663112
 10
0.0
 20
8.15679647730335
 10
0.0
 20
7.946193986330273
 10
0.0
 20
7.767181869003159
 10
0.0
 20
7.653780527709965
 10
0.0648007664532537
 20
7.653780527709965
 10
0.0648007664532537
 20
7.767181869003159
 10
0.0648007664532537
 20
7.946193986330273
 10
0.0648007664532537
 20
8.15679647730335
 10
0.0648007664532537
 20
8.351198776663112
 10
0.0648007664532537
 20
8.464600117956306
  0
LWPOLYLINE
  5
FB
100
AcDbEntity
  8
USP-GEO
100
AcDbPolyline
 90
        4
 70
   128
 43
0.0
 10
0.0
 20
7.653780527709965
 10
0.0
 20
7.605179952870026
 10
0.0
 20
7.507978803190143
 10
0.0
 20
7.410777653510264
  0
LWPOLYLINE
  5
FC
100
AcDbEntity
  8
USP-GEO
100
AcDbPolyline
 90
        4
 70
   128
 43
0.0
 10
0.0648007664532537
 20
8.70760299215601
 10
0.0648007664532537
 20
9.178218558522766
 10
0.0
 20
9.178218558522766
 10
0.0
 20
8.70760299215601
  0
LWPOLYLINE
  5
FD
100
AcDbEntity
  8
USP-GEO
100
AcDbPolyline
 90
        8
 70
   129
 43
0.0
 10
0.0
 20
8.513200692796248
 10
0.0
 20
8.464600117956306
 10
0.0648007664532537
 20
8.464600117956306
 10
0.0648007664532537
 20
8.513200692796248
 10
0.0648007664532537
 20
8.594201650862816
 10
0.0648007664532537
 20
8.70760299215601
 10
0.0
 20
8.70760299215601
 10
0.0
 20
8.594201650862816
  0
LWPOLYLINE
  5
FE
100
AcDbEntity
  8
USP-GEO
100
AcDbPolyline
 90
        7
 70
   128
 43
0.0
 10
1.572228596072075
 20
7.946193986330273
 10
1.572228596072075
 20
7.767181869003159
 10
1.475027446392194
 20
7.572779569643397
 10
1.29601532906508
 20
7.459378228350203
 10
1.215014370998512
 20
7.410777653510264
 10
1.150213604545258
 20
7.329776695443696
 10
1.134013412931945
 20
7.232575545763815
  0
LWPOLYLINE
  5
FF
100
AcDbEntity
  8
USP-GEO
100
AcDbPolyline
 90
        3
 70
   128
 43
0.0
 10
1.29601532906508
 20
8.464600117956306
 10
1.215014370998512
 20
8.513200692796248
 10
1.150213604545258
 20
8.594201650862816
  0
LWPOLYLINE
  5
100
100
AcDbEntity
  8
USP-GEO
100
AcDbPolyline
 90
        8
 70
   128
 43
0.0
 10
1.475027446392194
 20
8.351198776663112
 10
1.572228596072075
 20
8.15679647730335
 10
1.572228596072075
 20
7.946193986330273
 10
1.475027446392194
 20
7.767181869003159
 10
1.29601532906508
 20
7.653780527709965
 10
1.215014370998512
 20
7.605179952870026
 10
1.150213604545258
 20
7.507978803190143
 10
1.134013412931945
 20
7.410777653510264
  0
LWPOLYLINE
  5
101
100
AcDbEntity
  8
USP-GEO
100
AcDbPolyline
 90
       12
 70
   129
 43
0.0
 10
0.9072107303455565
 20
8.059595327623469
 10
0.9396111135721829
 20
7.929183785136295
 10
1.036812263252063
 20
7.848182827069727
 10
1.166413796158573
 20
7.815782443843099
 10
1.279815137451767
 20
7.848182827069727
 10
1.377826296712313
 20
7.929183785136295
 10
1.410226679938941
 20
8.059595327623469
 10
1.377826296712313
 20
8.189196860529976
 10
1.279815137451767
 20
8.270197818596544
 10
1.166413796158573
 20
8.302598201823171
 10
1.036812263252063
 20
8.270197818596544
 10
0.9396111135721829
 20
8.189196860529976
  0
LWPOLYLINE
  5
102
100
AcDbEntity
  8
USP-GEO
100
AcDbPolyline
 90
       16
 70
   129
 43
0.0
 10
1.263614945838454
 20
7.978594369556901
 10
1.247414754225139
 20
8.010994752783529
 10
1.231214562611826
 20
8.027194944396841
 10
1.231214562611826
 20
8.059595327623469
 10
1.231214562611826
 20
8.091995710850095
 10
1.247414754225139
 20
8.108195902463409
 10
1.263614945838454
 20
8.124396094076724
 10
1.29601532906508
 20
8.140596285690035
 10
1.328415712291707
 20
8.124396094076724
 10
1.345425913485686
 20
8.108195902463409
 10
1.361626105098999
 20
8.091995710850095
 10
1.377826296712313
 20
8.059595327623469
 10
1.361626105098999
 20
8.027194944396841
 10
1.345425913485686
 20
8.010994752783529
 10
1.328415712291707
 20
7.978594369556901
 10
1.29601532906508
 20
7.978594369556901
  0
LWPOLYLINE
  5
103
100
AcDbEntity
  8
USP-GEO
100
AcDbPolyline
 90
        3
 70
   128
 43
0.0
 10
1.312215520678393
 20
8.010994752783529
 10
1.263614945838454
 20
8.059595327623469
 10
1.231214562611826
 20
8.075795519236782
  0
LWPOLYLINE
  5
104
100
AcDbEntity
  8
USP-GEO
100
AcDbPolyline
 90
        2
 70
   129
 43
0.0
 10
1.134013412931945
 20
8.70760299215601
 10
1.150213604545258
 20
8.594201650862816
  0
LWPOLYLINE
  5
105
100
AcDbEntity
  8
USP-GEO
100
AcDbPolyline
 90
        2
 70
   129
 43
0.0
 10
1.29601532906508
 20
8.464600117956306
 10
1.475027446392194
 20
8.351198776663112
  0
LWPOLYLINE
  5
106
100
AcDbEntity
  8
USP-GEO
100
AcDbPolyline
 90
        9
 70
   128
 43
0.0
 10
1.280625147032432
 20
7.978594369556901
 10
1.279815137451767
 20
7.978594369556901
 10
1.312215520678393
 20
7.994794561170214
 10
1.328415712291707
 20
8.027194944396841
 10
1.328415712291707
 20
8.059595327623469
 10
1.328415712291707
 20
8.091995710850095
 10
1.312215520678393
 20
8.108195902463409
 10
1.279815137451767
 20
8.124396094076724
 10
1.280625147032432
 20
8.124396094076724
  0
ENDBLK
  5
108
100
AcDbEntity
  8
0
100
AcDbBlockEnd
  0
ENDSEC
  0
SECTION
  2
ENTITIES
  0
INSERT
  5
3
100
AcDbEntity
  8
USP
100
AcDbBlockReference
  2
HUS179_T
 10
5.031400249544807
 20
12.86120655292809
 30
0.0
  0
INSERT
  5
37
100
AcDbEntity
  8
USP
100
AcDbBlockReference
  2
HUS179_F
 10
5.031400249544807
 20
1.039926732693226
 30
0.0
  0
INSERT
  5
CE
100
AcDbEntity
  8
USP
100
AcDbBlockReference
  2
HUS179_S
 10
0.0393112039022503
 20
1.039926732693226
 30
0.0
  0
ENDSEC
  0
SECTION
  2
OBJECTS
  0
DICTIONARY
  5
121
102
{ACAD_XDICTIONARY
360
122
102
}
100
AcDbDictionary
  3
ACAD_GROUP
350
11F
  3
ACAD_MLINESTYLE
350
120
  0
DICTIONARY
  5
9
100
AcDbDictionary
280
     1
  3
ACAD_XREC_ROUNDTRIP
360
A
  0
DICTIONARY
  5
12
100
AcDbDictionary
280
     1
  3
ACAD_XREC_ROUNDTRIP
360
13
  0
DICTIONARY
  5
109
100
AcDbDictionary
280
     1
  3
ACAD_LAYOUTSELFREF
360
10A
  0
DICTIONARY
  5
10E
100
AcDbDictionary
280
     1
  3
ACAD_LAYOUTSELFREF
360
10F
  0
DICTIONARY
  5
122
100
AcDbDictionary
280
     1
  3
ACAD_XREC_ROUNDTRIP
360
123
  0
DICTIONARY
  5
11F
102
{ACAD_REACTORS
330
121
102
}
100
AcDbDictionary
  0
DICTIONARY
  5
120
102
{ACAD_REACTORS
330
121
102
}
100
AcDbDictionary
  3
STANDARD
350
124
  0
XRECORD
  5
A
102
{ACAD_REACTORS
330
9
102
}
100
AcDbXrecord
102
EXTNAMES
  1
USP-GEO
  2
USP-Geo
  0
XRECORD
  5
13
102
{ACAD_REACTORS
330
12
102
}
100
AcDbXrecord
102
EXTNAMES
  1
USP-TXT
  2
USP-Txt
  0
XRECORD
  5
10A
102
{ACAD_REACTORS
330
109
102
}
100
AcDbXrecord
340
18
  0
XRECORD
  5
10F
102
{ACAD_REACTORS
330
10E
102
}
100
AcDbXrecord
340
15
  0
XRECORD
  5
123
102
{ACAD_REACTORS
330
122
102
}
100
AcDbXrecord
102
EXTNAMES
  1
ACDBVARIABLEDICTIONARY
  2
AcDbVariableDictionary
  0
MLINESTYLE
  5
124
102
{ACAD_REACTORS
330
120
102
}
100
AcDbMlineStyle
  2
STANDARD
 70
     0
  3

 62
     0
 51
90.0
 52
90.0
 71
     2
 49
0.5
 62
   256
  6
BYLAYER
 49
-0.5
 62
   256
  6
BYLAYER
  0
ENDSEC
  0
EOF
