  0
SECTION
  2
HEADER
  9
$ACADVER
  1
AC1014
  9
$ACADMAINTVER
 70
     9
  9
$DWGCODEPAGE
  3
ANSI_1252
  9
$INSBASE
 10
0.0
 20
0.0
 30
0.0
  9
$EXTMIN
 10
0.0038726611857194
 20
0.0008226552384691
 30
0.0
  9
$EXTMAX
 10
13.48097238918261
 20
33.92725551481139
 30
0.0
  9
$LIMMIN
 10
0.0
 20
0.0
  9
$LIMMAX
 10
12.0
 20
9.0
  9
$ORTHOMODE
 70
     1
  9
$REGENMODE
 70
     1
  9
$FILLMODE
 70
     1
  9
$QTEXTMODE
 70
     0
  9
$MIRRTEXT
 70
     1
  9
$DRAGMODE
 70
     2
  9
$LTSCALE
 40
1.0
  9
$OSMODE
 70
     0
  9
$ATTMODE
 70
     1
  9
$TEXTSIZE
 40
0.2
  9
$TRACEWID
 40
0.05
  9
$TEXTSTYLE
  7
STANDARD
  9
$CLAYER
  8
USP
  9
$CELTYPE
  6
BYLAYER
  9
$CECOLOR
 62
   256
  9
$CELTSCALE
 40
1.0
  9
$DELOBJ
 70
     1
  9
$DISPSILH
 70
     0
  9
$DIMSCALE
 40
2.5
  9
$DIMASZ
 40
0.18
  9
$DIMEXO
 40
0.0625
  9
$DIMDLI
 40
0.38
  9
$DIMRND
 40
0.0
  9
$DIMDLE
 40
0.0
  9
$DIMEXE
 40
0.18
  9
$DIMTP
 40
0.0
  9
$DIMTM
 40
0.0
  9
$DIMTXT
 40
0.18
  9
$DIMCEN
 40
0.09
  9
$DIMTSZ
 40
0.0
  9
$DIMTOL
 70
     0
  9
$DIMLIM
 70
     0
  9
$DIMTIH
 70
     1
  9
$DIMTOH
 70
     1
  9
$DIMSE1
 70
     0
  9
$DIMSE2
 70
     0
  9
$DIMTAD
 70
     0
  9
$DIMZIN
 70
     0
  9
$DIMBLK
  1

  9
$DIMASO
 70
     1
  9
$DIMSHO
 70
     1
  9
$DIMPOST
  1

  9
$DIMAPOST
  1

  9
$DIMALT
 70
     0
  9
$DIMALTD
 70
     2
  9
$DIMALTF
 40
25.4
  9
$DIMLFAC
 40
1.0
  9
$DIMTOFL
 70
     0
  9
$DIMTVP
 40
0.0
  9
$DIMTIX
 70
     0
  9
$DIMSOXD
 70
     0
  9
$DIMSAH
 70
     0
  9
$DIMBLK1
  1

  9
$DIMBLK2
  1

  9
$DIMSTYLE
  2
FRACTION
  9
$DIMCLRD
 70
     0
  9
$DIMCLRE
 70
     0
  9
$DIMCLRT
 70
     0
  9
$DIMTFAC
 40
1.0
  9
$DIMGAP
 40
0.09
  9
$DIMJUST
 70
     0
  9
$DIMSD1
 70
     0
  9
$DIMSD2
 70
     0
  9
$DIMTOLJ
 70
     1
  9
$DIMTZIN
 70
     0
  9
$DIMALTZ
 70
     0
  9
$DIMALTTZ
 70
     0
  9
$DIMFIT
 70
     3
  9
$DIMUPT
 70
     0
  9
$DIMUNIT
 70
     7
  9
$DIMDEC
 70
     4
  9
$DIMTDEC
 70
     4
  9
$DIMALTU
 70
     2
  9
$DIMALTTD
 70
     2
  9
$DIMTXSTY
  7
STANDARD
  9
$DIMAUNIT
 70
     0
  9
$LUNITS
 70
     2
  9
$LUPREC
 70
     4
  9
$SKETCHINC
 40
0.1
  9
$FILLETRAD
 40
0.5
  9
$AUNITS
 70
     0
  9
$AUPREC
 70
     2
  9
$MENU
  1
.
  9
$ELEVATION
 40
0.0
  9
$PELEVATION
 40
0.0
  9
$THICKNESS
 40
0.0
  9
$LIMCHECK
 70
     0
  9
$BLIPMODE
 70
     0
  9
$CHAMFERA
 40
0.5
  9
$CHAMFERB
 40
0.5
  9
$CHAMFERC
 40
1.0
  9
$CHAMFERD
 40
0.0
  9
$SKPOLY
 70
     0
  9
$TDCREATE
 40
2452018.382721087
  9
$TDUPDATE
 40
2452759.745036527
  9
$TDINDWG
 40
0.1469024074
  9
$TDUSRTIMER
 40
0.1469024074
  9
$USRTIMER
 70
     1
  9
$ANGBASE
 50
0.0
  9
$ANGDIR
 70
     0
  9
$PDMODE
 70
     0
  9
$PDSIZE
 40
0.0
  9
$PLINEWID
 40
0.0
  9
$COORDS
 70
     1
  9
$SPLFRAME
 70
     0
  9
$SPLINETYPE
 70
     6
  9
$SPLINESEGS
 70
     8
  9
$ATTDIA
 70
     0
  9
$ATTREQ
 70
     0
  9
$HANDLING
 70
     1
  9
$HANDSEED
  5
E6
  9
$SURFTAB1
 70
     6
  9
$SURFTAB2
 70
     6
  9
$SURFTYPE
 70
     6
  9
$SURFU
 70
     6
  9
$SURFV
 70
     6
  9
$UCSNAME
  2

  9
$UCSORG
 10
0.0
 20
0.0
 30
0.0
  9
$UCSXDIR
 10
1.0
 20
0.0
 30
0.0
  9
$UCSYDIR
 10
0.0
 20
1.0
 30
0.0
  9
$PUCSNAME
  2

  9
$PUCSORG
 10
0.0
 20
0.0
 30
0.0
  9
$PUCSXDIR
 10
1.0
 20
0.0
 30
0.0
  9
$PUCSYDIR
 10
0.0
 20
1.0
 30
0.0
  9
$USERI1
 70
     0
  9
$USERI2
 70
     0
  9
$USERI3
 70
     0
  9
$USERI4
 70
     0
  9
$USERI5
 70
     0
  9
$USERR1
 40
0.0
  9
$USERR2
 40
0.0
  9
$USERR3
 40
0.0
  9
$USERR4
 40
0.0
  9
$USERR5
 40
0.0
  9
$WORLDVIEW
 70
     1
  9
$SHADEDGE
 70
     3
  9
$SHADEDIF
 70
    70
  9
$TILEMODE
 70
     1
  9
$MAXACTVP
 70
    48
  9
$PINSBASE
 10
0.0
 20
0.0
 30
0.0
  9
$PLIMCHECK
 70
     0
  9
$PEXTMIN
 10
1.000000000000000E+20
 20
1.000000000000000E+20
 30
1.000000000000000E+20
  9
$PEXTMAX
 10
-1.000000000000000E+20
 20
-1.000000000000000E+20
 30
-1.000000000000000E+20
  9
$PLIMMIN
 10
0.0
 20
0.0
  9
$PLIMMAX
 10
12.0
 20
9.0
  9
$UNITMODE
 70
     0
  9
$VISRETAIN
 70
     1
  9
$PLINEGEN
 70
     0
  9
$PSLTSCALE
 70
     1
  9
$TREEDEPTH
 70
  3020
  9
$PICKSTYLE
 70
     1
  9
$CMLSTYLE
  2
STANDARD
  9
$CMLJUST
 70
     0
  9
$CMLSCALE
 40
1.0
  9
$PROXYGRAPHICS
 70
     1
  9
$MEASUREMENT
 70
     0
  0
ENDSEC
  0
SECTION
  2
CLASSES
  0
CLASS
  1
ACDBDICTIONARYWDFLT
  2
AcDbDictionaryWithDefault
  3
AutoCAD 2000
 90
        0
280
     1
281
     0
  0
CLASS
  1
ACDBPLACEHOLDER
  2
AcDbPlaceHolder
  3
AutoCAD 2000
 90
        0
280
     1
281
     0
  0
CLASS
  1
LAYOUT
  2
AcDbLayout
  3
AutoCAD 2000
 90
        0
280
     1
281
     0
  0
CLASS
  1
DICTIONARYVAR
  2
AcDbDictionaryVar
  3
"AutoCAD"
 90
        0
280
     1
281
     0
  0
CLASS
  1
LONG_TRANSACTION
  2
AcDbLongTransaction
  3
AutoCAD 2000
 90
        0
280
     1
281
     0
  0
CLASS
  1
LWPOLYLINE
  2
AcDbPolyline
  3
"AutoCAD"
 90
        0
280
     1
281
     1
  0
CLASS
  1
HATCH
  2
AcDbHatch
  3
"ACAD_SEDONA"
 90
        0
280
     1
281
     1
  0
CLASS
  1
XRECORD
  2
AcDbXrecord
  3
"<Built In>"
 90
        0
280
     0
281
     0
  0
CLASS
  1
LONG_TRANSACTION
  2
AcDbLongTransaction
  3
AutoCAD 2000
 90
        0
280
     1
281
     0
  0
CLASS
  1
LWPOLYLINE
  2
AcDbPolyline
  3
"AutoCAD"
 90
        0
280
     1
281
     1
  0
CLASS
  1
HATCH
  2
AcDbHatch
  3
"ACAD_SEDONA"
 90
        0
280
     1
281
     1
  0
CLASS
  1
XRECORD
  2
AcDbXrecord
  3
"<Built In>"
 90
        0
280
     0
281
     0
  0
CLASS
  1
LONG_TRANSACTION
  2
AcDbLongTransaction
  3
AutoCAD 2000
 90
        0
280
     1
281
     0
  0
CLASS
  1
LWPOLYLINE
  2
AcDbPolyline
  3
"AutoCAD"
 90
        0
280
     1
281
     1
  0
CLASS
  1
HATCH
  2
AcDbHatch
  3
"ACAD_SEDONA"
 90
        0
280
     1
281
     1
  0
CLASS
  1
XRECORD
  2
AcDbXrecord
  3
"<Built In>"
 90
        0
280
     0
281
     0
  0
CLASS
  1
LONG_TRANSACTION
  2
AcDbLongTransaction
  3
AutoCAD 2000
 90
        0
280
     1
281
     0
  0
CLASS
  1
LWPOLYLINE
  2
AcDbPolyline
  3
"AutoCAD"
 90
        0
280
     1
281
     1
  0
CLASS
  1
HATCH
  2
AcDbHatch
  3
"ACAD_SEDONA"
 90
        0
280
     1
281
     1
  0
CLASS
  1
XRECORD
  2
AcDbXrecord
  3
"<Built In>"
 90
        0
280
     0
281
     0
  0
ENDSEC
  0
SECTION
  2
TABLES
  0
TABLE
  2
VPORT
  5
D2
100
AcDbSymbolTable
 70
     1
  0
VPORT
  5
E2
100
AcDbSymbolTableRecord
100
AcDbViewportTableRecord
  2
*ACTIVE
 70
     0
 10
0.0
 20
0.0
 11
1.0
 21
1.0
 12
6.742298842390681
 22
17.6576965910847
 13
0.0
 23
0.0
 14
0.5
 24
0.5
 15
0.5
 25
0.5
 16
0.0
 26
0.0
 36
1.0
 17
0.0
 27
0.0
 37
0.0
 40
35.56258549590007
 41
1.457627118644067
 42
50.0
 43
0.0
 44
0.0
 50
0.0
 51
0.0
 71
     0
 72
   100
 73
     1
 74
     1
 75
     0
 76
     0
 77
     0
 78
     0
  0
ENDTAB
  0
TABLE
  2
LTYPE
  5
CE
100
AcDbSymbolTable
 70
     2
  0
LTYPE
  5
CF
100
AcDbSymbolTableRecord
100
AcDbLinetypeTableRecord
  2
BYBLOCK
 70
     0
  3

 72
    65
 73
     0
 40
0.0
  0
LTYPE
  5
6
100
AcDbSymbolTableRecord
100
AcDbLinetypeTableRecord
  2
BYLAYER
 70
     0
  3

 72
    65
 73
     0
 40
0.0
  0
LTYPE
  5
5
100
AcDbSymbolTableRecord
100
AcDbLinetypeTableRecord
  2
CONTINUOUS
 70
     0
  3
Solid line
 72
    65
 73
     0
 40
0.0
  0
LTYPE
  5
1C
100
AcDbSymbolTableRecord
100
AcDbLinetypeTableRecord
  2
HIDDEN
 70
     0
  3
Hidden __ __ __ __ __ __ __ __ __ __ __ __ __ _
 72
    65
 73
     2
 40
0.375
 49
0.25
 74
     0
 49
-0.125
 74
     0
  0
ENDTAB
  0
TABLE
  2
LAYER
  5
CC
100
AcDbSymbolTable
 70
     5
  0
LAYER
  5
31
100
AcDbSymbolTableRecord
100
AcDbLayerTableRecord
  2
0
 70
     0
 62
     7
  6
CONTINUOUS
  0
LAYER
  5
9
102
{ACAD_XDICTIONARY
360
A
102
}
100
AcDbSymbolTableRecord
100
AcDbLayerTableRecord
  2
USP-GEO
 70
     0
 62
     7
  6
CONTINUOUS
  0
LAYER
  5
E
102
{ACAD_XDICTIONARY
360
F
102
}
100
AcDbSymbolTableRecord
100
AcDbLayerTableRecord
  2
USP-TXT
 70
     0
 62
     7
  6
CONTINUOUS
  0
LAYER
  5
1A
102
{ACAD_XDICTIONARY
360
1B
102
}
100
AcDbSymbolTableRecord
100
AcDbLayerTableRecord
  2
USP-HID
 70
     0
 62
     7
  6
HIDDEN
  0
LAYER
  5
4
100
AcDbSymbolTableRecord
100
AcDbLayerTableRecord
  2
USP
 70
     0
 62
     7
  6
CONTINUOUS
  0
ENDTAB
  0
TABLE
  2
STYLE
  5
CD
100
AcDbSymbolTable
 70
     1
  0
STYLE
  5
10
100
AcDbSymbolTableRecord
100
AcDbTextStyleTableRecord
  2
STANDARD
 70
     0
 40
0.0
 41
1.0
 50
0.0
 71
     0
 42
0.2
  3
txt
  4

  0
ENDTAB
  0
TABLE
  2
VIEW
  5
D0
100
AcDbSymbolTable
 70
     0
  0
ENDTAB
  0
TABLE
  2
UCS
  5
D1
100
AcDbSymbolTable
 70
     0
  0
ENDTAB
  0
TABLE
  2
APPID
  5
D5
100
AcDbSymbolTable
 70
     1
  0
APPID
  5
B
100
AcDbSymbolTableRecord
100
AcDbRegAppTableRecord
  2
ACAD
 70
     0
  0
ENDTAB
  0
TABLE
  2
DIMSTYLE
  5
D6
100
AcDbSymbolTable
 70
     1
  0
DIMSTYLE
105
DD
102
{ACAD_XDICTIONARY
360
DE
102
}
100
AcDbSymbolTableRecord
100
AcDbDimStyleTableRecord
  2
FRACTION
 70
     0
  3

  4

  5

  6

  7

 40
2.5
 41
0.18
 42
0.0625
 43
0.38
 44
0.18
 45
0.0
 46
0.0
 47
0.0
 48
0.0
140
0.18
141
0.09
142
0.0
143
25.4
144
1.0
145
0.0
146
1.0
147
0.09
 71
     0
 72
     0
 73
     1
 74
     1
 75
     0
 76
     0
 77
     0
 78
     0
170
     0
171
     2
172
     0
173
     0
174
     0
175
     0
176
     0
177
     0
178
     0
270
     7
271
     4
272
     4
273
     2
274
     2
340
10
275
     0
280
     0
281
     0
282
     0
283
     1
284
     0
285
     0
286
     0
287
     3
288
     0
  0
ENDTAB
  0
TABLE
  2
BLOCK_RECORD
  5
1
100
AcDbSymbolTable
 70
     3
  0
BLOCK_RECORD
  5
2
102
{ACAD_XDICTIONARY
360
C5
102
}
100
AcDbSymbolTableRecord
100
AcDbBlockTableRecord
  2
*MODEL_SPACE
  0
BLOCK_RECORD
  5
C8
102
{ACAD_XDICTIONARY
360
C9
102
}
100
AcDbSymbolTableRecord
100
AcDbBlockTableRecord
  2
*PAPER_SPACE
  0
BLOCK_RECORD
  5
7
100
AcDbSymbolTableRecord
100
AcDbBlockTableRecord
  2
HTA24_T
  0
BLOCK_RECORD
  5
34
100
AcDbSymbolTableRecord
100
AcDbBlockTableRecord
  2
HTA24_F
  0
BLOCK_RECORD
  5
7B
100
AcDbSymbolTableRecord
100
AcDbBlockTableRecord
  2
HTA24_S
  0
ENDTAB
  0
ENDSEC
  0
SECTION
  2
BLOCKS
  0
BLOCK
  5
C6
100
AcDbEntity
  8
0
100
AcDbBlockBegin
  2
*MODEL_SPACE
 70
     0
 10
0.0
 20
0.0
 30
0.0
  3
*MODEL_SPACE
  1

  0
ENDBLK
  5
C7
100
AcDbEntity
  8
0
100
AcDbBlockEnd
  0
BLOCK
  5
CA
100
AcDbEntity
 67
     1
  8
0
100
AcDbBlockBegin
  2
*PAPER_SPACE
 70
     0
 10
0.0
 20
0.0
 30
0.0
  3
*PAPER_SPACE
  1

  0
ENDBLK
  5
CB
100
AcDbEntity
 67
     1
  8
0
100
AcDbBlockEnd
  0
BLOCK
  5
30
100
AcDbEntity
  8
0
100
AcDbBlockBegin
  2
HTA24_T
 70
     0
 10
0.0
 20
0.0
 30
0.0
  3
HTA24_T
  1

  0
LINE
  5
8
100
AcDbEntity
  8
USP-GEO
100
AcDbLine
 10
0.0
 20
0.25
 30
0.0
 11
0.0000000000000071
 21
1.500000000000014
 31
0.0
  0
LINE
  5
C
100
AcDbEntity
  8
USP-GEO
100
AcDbLine
 10
1.249999999999992
 20
1.499999999999985
 30
0.0
 11
1.249999999999978
 21
0.25
 31
0.0
  0
TEXT
  5
D
100
AcDbEntity
  8
USP-TXT
100
AcDbText
 10
-1.458333333333347
 20
-1.053628245498298
 30
0.0
 40
0.25
  1
HTA24 - TOP ANGLE
 72
     1
 11
0.6249999999999858
 21
-1.053628245498298
 31
0.0
100
AcDbText
  0
LINE
  5
11
100
AcDbEntity
  8
USP-GEO
100
AcDbLine
 10
0.9999999999999857
 20
0.0
 30
0.0
 11
0.2499999999999929
 21
0.0
 31
0.0
  0
LINE
  5
12
100
AcDbEntity
  8
USP-GEO
100
AcDbLine
 10
0.2499999999999929
 20
0.0
 30
0.0
 11
0.0599999999999881
 21
0.2500000000000142
 31
0.0
  0
LINE
  5
13
100
AcDbEntity
  8
USP-GEO
100
AcDbLine
 10
0.0599999999999881
 20
0.2500000000000142
 30
0.0
 11
0.0
 21
0.25
 31
0.0
  0
LINE
  5
14
100
AcDbEntity
  8
USP-GEO
100
AcDbLine
 10
1.189999999999983
 20
0.25
 30
0.0
 11
0.9999999999999857
 21
0.0
 31
0.0
  0
LINE
  5
15
100
AcDbEntity
  8
USP-GEO
100
AcDbLine
 10
1.249999999999978
 20
0.25
 30
0.0
 11
1.18999999999999
 21
0.25
 31
0.0
  0
LINE
  5
16
100
AcDbEntity
  8
USP-GEO
100
AcDbLine
 10
0.6249999999999929
 20
1.140880799123195
 30
0.0
 11
0.3386269330410414
 21
1.427253866082125
 31
0.0
  0
LINE
  5
17
100
AcDbEntity
  8
USP-GEO
100
AcDbLine
 10
1.250000000000163
 20
1.562999999998751
 30
0.0
 11
0.0000000000001563
 21
1.562999999998766
 31
0.0
  0
LINE
  5
18
100
AcDbEntity
  8
USP-GEO
100
AcDbLine
 10
1.25000000000017
 20
1.499999999998749
 30
0.0
 11
0.0000000000001563
 21
1.499999999998763
 31
0.0
  0
LINE
  5
19
100
AcDbEntity
  8
USP-HID
100
AcDbLine
 10
0.375
 20
1.500000000000007
 30
0.0
 11
0.6250000000000142
 21
1.249999999999985
 31
0.0
  0
LINE
  5
1D
100
AcDbEntity
  8
USP-GEO
100
AcDbLine
 10
0.2299999900001381
 20
1.499999999999033
 30
0.0
 11
0.3940000100001413
 21
1.499999999999033
 31
0.0
  0
LINE
  5
1E
100
AcDbEntity
  8
USP-GEO
100
AcDbLine
 10
0.3386269330410343
 20
1.500000000000007
 30
0.0
 11
0.3386269330410343
 21
1.427253866082132
 31
0.0
  0
LINE
  5
1F
100
AcDbEntity
  8
USP-GEO
100
AcDbLine
 10
0.0000000000001563
 20
1.499999999998763
 30
0.0
 11
0.0000000000001563
 21
1.562999999998766
 31
0.0
  0
LINE
  5
20
100
AcDbEntity
  8
USP-HID
100
AcDbLine
 10
0.3940000000001831
 20
1.499999999998806
 30
0.0
 11
0.3940000000001831
 21
1.562999999998808
 31
0.0
  0
LINE
  5
21
100
AcDbEntity
  8
USP-HID
100
AcDbLine
 10
0.2300000000001816
 20
1.499999999998806
 30
0.0
 11
0.2300000000001816
 21
1.562999999998808
 31
0.0
  0
LINE
  5
22
100
AcDbEntity
  8
USP-HID
100
AcDbLine
 10
0.062000000000026
 20
1.562999999999888
 30
0.0
 11
0.062000000000026
 21
1.4999999999999
 31
0.0
  0
LINE
  5
23
100
AcDbEntity
  8
USP-HID
100
AcDbLine
 10
0.3750000000000071
 20
1.563000000000016
 30
0.0
 11
0.3750000000000071
 21
1.5
 31
0.0
  0
LINE
  5
24
100
AcDbEntity
  8
USP-HID
100
AcDbLine
 10
0.3386269330410343
 20
1.427253866082125
 30
0.0
 11
0.3749999999999858
 21
1.500000000000014
 31
0.0
  0
LINE
  5
25
100
AcDbEntity
  8
USP-GEO
100
AcDbLine
 10
0.9113730669589372
 20
1.499999999999992
 30
0.0
 11
0.9113730669589372
 21
1.427253866082125
 31
0.0
  0
LINE
  5
26
100
AcDbEntity
  8
USP-GEO
100
AcDbLine
 10
0.6250000000000071
 20
1.499999999999985
 30
0.0
 11
0.6249999999999929
 21
1.140880799123195
 31
0.0
  0
LINE
  5
27
100
AcDbEntity
  8
USP-GEO
100
AcDbLine
 10
0.9113730669589301
 20
1.427253866082125
 30
0.0
 11
0.6249999999999929
 21
1.140880799123202
 31
0.0
  0
LINE
  5
28
100
AcDbEntity
  8
USP-HID
100
AcDbLine
 10
1.020000000000166
 20
1.499999999998863
 30
0.0
 11
1.020000000000166
 21
1.562999999998865
 31
0.0
  0
LINE
  5
29
100
AcDbEntity
  8
USP-HID
100
AcDbLine
 10
0.856000000000165
 20
1.499999999998863
 30
0.0
 11
0.856000000000165
 21
1.562999999998865
 31
0.0
  0
LINE
  5
2A
100
AcDbEntity
  8
USP-HID
100
AcDbLine
 10
0.8750000000000071
 20
1.562999999999988
 30
0.0
 11
0.8750000000000071
 21
1.5
 31
0.0
  0
LINE
  5
2B
100
AcDbEntity
  8
USP-HID
100
AcDbLine
 10
0.625
 20
1.562999999999988
 30
0.0
 11
0.625
 21
1.499999999999985
 31
0.0
  0
LINE
  5
2C
100
AcDbEntity
  8
USP-HID
100
AcDbLine
 10
0.6250000000000071
 20
1.25
 30
0.0
 11
0.8750000000000071
 21
1.5
 31
0.0
  0
LINE
  5
2D
100
AcDbEntity
  8
USP-HID
100
AcDbLine
 10
0.8749999999999786
 20
1.499999999999985
 30
0.0
 11
0.911373066958923
 21
1.427253866082104
 31
0.0
  0
LINE
  5
2E
100
AcDbEntity
  8
USP-GEO
100
AcDbLine
 10
1.25000000000017
 20
1.499999999998749
 30
0.0
 11
1.25000000000017
 21
1.562999999998751
 31
0.0
  0
LINE
  5
2F
100
AcDbEntity
  8
USP-HID
100
AcDbLine
 10
1.18800000000003
 20
1.562999999999874
 30
0.0
 11
1.18800000000003
 21
1.499999999999886
 31
0.0
  0
ENDBLK
  5
32
100
AcDbEntity
  8
0
100
AcDbBlockEnd
  0
BLOCK
  5
78
100
AcDbEntity
  8
0
100
AcDbBlockBegin
  2
HTA24_F
 70
     0
 10
0.0
 20
0.0
 30
0.0
  3
HTA24_F
  1

  0
LINE
  5
35
100
AcDbEntity
  8
USP-GEO
100
AcDbLine
 10
1.250000000000028
 20
1.876000000000061
 30
0.0
 11
1.250000000000007
 21
0.0630000000000521
 31
0.0
  0
LINE
  5
36
100
AcDbEntity
  8
USP-GEO
100
AcDbLine
 10
0.0
 20
0.0630000000000592
 30
0.0
 11
0.0000000000000142
 21
1.876000000000075
 31
0.0
  0
TEXT
  5
37
100
AcDbEntity
  8
USP-TXT
100
AcDbText
 10
-1.708333333333347
 20
-1.925736048774542
 30
0.0
 40
0.25
  1
HTA24 - FRONT ANGLE
 72
     1
 11
0.6249999999999858
 21
-1.925736048774542
 31
0.0
100
AcDbText
  0
LINE
  5
38
100
AcDbEntity
  8
USP-GEO
100
AcDbLine
 10
0.3386269330410485
 20
0.1357461339179444
 30
0.0
 11
0.625
 21
0.4221192008768817
 31
0.0
  0
LINE
  5
39
100
AcDbEntity
  8
USP-GEO
100
AcDbLine
 10
0.9999999999999857
 20
0.0629999999999758
 30
0.0
 11
0.2499999999999929
 21
0.0629999999999811
 31
0.0
  0
LINE
  5
3A
100
AcDbEntity
  8
USP-GEO
100
AcDbLine
 10
0.2499999999999929
 20
-0.0000000000000213
 30
0.0
 11
0.9999999999999786
 21
-0.0000000000000266
 31
0.0
  0
LINE
  5
3B
100
AcDbEntity
  8
USP-HID
100
AcDbLine
 10
0.6250000000000071
 20
0.313000000000061
 30
0.0
 11
0.375
 21
0.0630000000000592
 31
0.0
  0
LINE
  5
3C
100
AcDbEntity
  8
USP-GEO
100
AcDbLine
 10
0.3386269330410343
 20
0.1357461339179373
 30
0.0
 11
0.3386269330410343
 21
0.0630000000000504
 31
0.0
  0
LINE
  5
3D
100
AcDbEntity
  8
USP-GEO
100
AcDbLine
 10
0.2499999999999929
 20
-0.0000000000000213
 30
0.0
 11
0.2499999999999929
 21
0.0629999999999811
 31
0.0
  0
LINE
  5
3E
100
AcDbEntity
  8
USP-GEO
100
AcDbLine
 10
0.2499999999999929
 20
0.0629999999999811
 30
0.0
 11
0.0599999999999881
 21
0.0629999999999953
 31
0.0
  0
LINE
  5
3F
100
AcDbEntity
  8
USP-GEO
100
AcDbLine
 10
0.0599999999999881
 20
-0.0000000000000071
 30
0.0
 11
0.0599999999999881
 21
0.0630000000000024
 31
0.0
  0
LINE
  5
40
100
AcDbEntity
  8
USP-GEO
100
AcDbLine
 10
0.2499999999999929
 20
-0.0000000000000213
 30
0.0
 11
0.0599999999999881
 21
-0.0000000000000071
 31
0.0
  0
LINE
  5
41
100
AcDbEntity
  8
USP-GEO
100
AcDbLine
 10
0.0599999999999881
 20
0.0629999999999953
 30
0.0
 11
-0.0000000000000071
 21
0.0629999999999953
 31
0.0
  0
LINE
  5
42
100
AcDbEntity
  8
USP-GEO
100
AcDbLine
 10
0.0
 20
0.0
 30
0.0
 11
0.0
 21
0.0629999999999953
 31
0.0
  0
LINE
  5
43
100
AcDbEntity
  8
USP-GEO
100
AcDbLine
 10
0.0
 20
0.0
 30
0.0
 11
0.0599999999999881
 21
0.0
 31
0.0
  0
LINE
  5
44
100
AcDbEntity
  8
USP-HID
100
AcDbLine
 10
0.375
 20
0.0630000000000592
 30
0.0
 11
0.375
 21
0.0000000000000568
 31
0.0
  0
LINE
  5
45
100
AcDbEntity
  8
USP-HID
100
AcDbLine
 10
0.3749999999999858
 20
0.0630000000000521
 30
0.0
 11
0.3386269330410414
 21
0.1357461339179444
 31
0.0
  0
LINE
  5
46
100
AcDbEntity
  8
USP-GEO
100
AcDbLine
 10
0.6250000000000071
 20
0.42211920087688
 30
0.0
 11
0.6249999999999929
 21
0.0630000000000379
 31
0.0
  0
LINE
  5
47
100
AcDbEntity
  8
USP-GEO
100
AcDbLine
 10
0.6250000000000142
 20
0.4221192008768835
 30
0.0
 11
0.9113730669589443
 21
0.1357461339179373
 31
0.0
  0
LINE
  5
48
100
AcDbEntity
  8
USP-GEO
100
AcDbLine
 10
1.189999999999983
 20
0.0629999999999917
 30
0.0
 11
0.9999999999999857
 21
0.0629999999999811
 31
0.0
  0
LINE
  5
49
100
AcDbEntity
  8
USP-GEO
100
AcDbLine
 10
0.9999999999999786
 20
-0.0000000000000213
 30
0.0
 11
1.189999999999976
 21
-0.0000000000000107
 31
0.0
  0
LINE
  5
4A
100
AcDbEntity
  8
USP-GEO
100
AcDbLine
 10
0.9113730669589301
 20
0.1357461339179355
 30
0.0
 11
0.9113730669589301
 21
0.0630000000000521
 31
0.0
  0
LINE
  5
4B
100
AcDbEntity
  8
USP-GEO
100
AcDbLine
 10
0.9999999999999786
 20
-0.0000000000000213
 30
0.0
 11
0.9999999999999786
 21
0.0629999999999811
 31
0.0
  0
LINE
  5
4C
100
AcDbEntity
  8
USP-HID
100
AcDbLine
 10
0.8750000000000071
 20
0.0000000000000568
 30
0.0
 11
0.8750000000000071
 21
0.0630000000000592
 31
0.0
  0
LINE
  5
4D
100
AcDbEntity
  8
USP-HID
100
AcDbLine
 10
0.6250000000000214
 20
0.0000000000000426
 30
0.0
 11
0.6250000000000214
 21
0.063000000000045
 31
0.0
  0
LINE
  5
4E
100
AcDbEntity
  8
USP-HID
100
AcDbLine
 10
0.8750000000000071
 20
0.0630000000000575
 30
0.0
 11
0.6250000000000071
 21
0.3130000000000592
 31
0.0
  0
LINE
  5
4F
100
AcDbEntity
  8
USP-HID
100
AcDbLine
 10
0.9113730669589372
 20
0.135746133917932
 30
0.0
 11
0.875
 21
0.0630000000000628
 31
0.0
  0
LINE
  5
50
100
AcDbEntity
  8
USP-GEO
100
AcDbLine
 10
1.249999999999978
 20
0.0629999999999882
 30
0.0
 11
1.18999999999999
 21
0.0629999999999882
 31
0.0
  0
LINE
  5
51
100
AcDbEntity
  8
USP-GEO
100
AcDbLine
 10
1.18999999999999
 20
0.0
 30
0.0
 11
1.18999999999999
 21
0.0629999999999882
 31
0.0
  0
LINE
  5
52
100
AcDbEntity
  8
USP-GEO
100
AcDbLine
 10
1.249999999999978
 20
-0.0000000000000142
 30
0.0
 11
1.18999999999999
 21
-0.0000000000000142
 31
0.0
  0
LINE
  5
53
100
AcDbEntity
  8
USP-GEO
100
AcDbLine
 10
1.249999999999978
 20
-0.0000000000000142
 30
0.0
 11
1.249999999999978
 21
0.0629999999999882
 31
0.0
  0
LINE
  5
54
100
AcDbEntity
  8
USP-GEO
100
AcDbLine
 10
0.0000000000001137
 20
2.250000000000056
 30
0.0
 11
0.0000000000001563
 21
24.06300000000003
 31
0.0
  0
LINE
  5
55
100
AcDbEntity
  8
USP-GEO
100
AcDbLine
 10
1.250000000000106
 20
2.250000000000056
 30
0.0
 11
1.25000000000017
 21
24.06300000000003
 31
0.0
  0
CIRCLE
  5
56
100
AcDbEntity
  8
USP-GEO
100
AcDbCircle
 10
0.3120000000000616
 20
7.013000000000069
 30
0.0
 40
0.082
  0
LINE
  5
57
100
AcDbEntity
  8
USP-GEO
100
AcDbLine
 10
0.0000000000000142
 20
1.876000000000075
 30
0.0
 11
0.0300000000000225
 21
1.876000000000068
 31
0.0
  0
ARC
  5
58
100
AcDbEntity
  8
USP-GEO
100
AcDbCircle
 10
0.0300000000000296
 20
1.908000000000058
 30
0.0
 40
0.032
100
AcDbArc
 50
270.0000000000004
 51
0.0000000000004198
  0
LINE
  5
59
100
AcDbEntity
  8
USP-GEO
100
AcDbLine
 10
0.062000000000026
 20
1.908000000000058
 30
0.0
 11
0.062000000000026
 21
2.21800000000006
 31
0.0
  0
ARC
  5
5A
100
AcDbEntity
  8
USP-GEO
100
AcDbCircle
 10
0.0300000000000296
 20
2.218000000000053
 30
0.0
 40
0.032
100
AcDbArc
 50
0.0000000000004198
 51
90.00000000000044
  0
LINE
  5
5B
100
AcDbEntity
  8
USP-GEO
100
AcDbLine
 10
0.0300000000000225
 20
2.250000000000056
 30
0.0
 11
0.0000000000000142
 21
2.250000000000056
 31
0.0
  0
LINE
  5
5C
100
AcDbEntity
  8
USP-GEO
100
AcDbLine
 10
1.250000000000021
 20
2.250000000000049
 30
0.0
 11
1.22000000000002
 21
2.250000000000042
 31
0.0
  0
ARC
  5
5D
100
AcDbEntity
  8
USP-GEO
100
AcDbCircle
 10
1.22000000000002
 20
2.218000000000046
 30
0.0
 40
0.032
100
AcDbArc
 50
90.00000000000044
 51
180.0000000000004
  0
LINE
  5
5E
100
AcDbEntity
  8
USP-GEO
100
AcDbLine
 10
1.188000000000009
 20
2.218000000000046
 30
0.0
 11
1.188000000000009
 21
1.908000000000058
 31
0.0
  0
ARC
  5
5F
100
AcDbEntity
  8
USP-GEO
100
AcDbCircle
 10
1.22000000000002
 20
1.908000000000058
 30
0.0
 40
0.032
100
AcDbArc
 50
180.0000000000004
 51
270.0000000000004
  0
LINE
  5
60
100
AcDbEntity
  8
USP-GEO
100
AcDbLine
 10
1.22000000000002
 20
1.876000000000061
 30
0.0
 11
1.250000000000021
 21
1.876000000000054
 31
0.0
  0
CIRCLE
  5
61
100
AcDbEntity
  8
USP-GEO
100
AcDbCircle
 10
0.9380000000000521
 20
6.095000000000048
 30
0.0
 40
0.082
  0
CIRCLE
  5
62
100
AcDbEntity
  8
USP-GEO
100
AcDbCircle
 10
0.3120000000000616
 20
8.263000000000076
 30
0.0
 40
0.082
  0
CIRCLE
  5
63
100
AcDbEntity
  8
USP-GEO
100
AcDbCircle
 10
0.9380000000000592
 20
7.638000000000062
 30
0.0
 40
0.082
  0
CIRCLE
  5
64
100
AcDbEntity
  8
USP-GEO
100
AcDbCircle
 10
0.9380000000000663
 20
8.888000000000062
 30
0.0
 40
0.082
  0
CIRCLE
  5
65
100
AcDbEntity
  8
USP-GEO
100
AcDbCircle
 10
0.3120000000000829
 20
10.13800000000007
 30
0.0
 40
0.082
  0
CIRCLE
  5
66
100
AcDbEntity
  8
USP-GEO
100
AcDbCircle
 10
0.3120000000000829
 20
11.63800000000006
 30
0.0
 40
0.082
  0
CIRCLE
  5
67
100
AcDbEntity
  8
USP-GEO
100
AcDbCircle
 10
0.9380000000000805
 20
10.88800000000006
 30
0.0
 40
0.082
  0
CIRCLE
  5
68
100
AcDbEntity
  8
USP-GEO
100
AcDbCircle
 10
0.9380000000001231
 20
17.56300000000004
 30
0.0
 40
0.082
  0
CIRCLE
  5
69
100
AcDbEntity
  8
USP-GEO
100
AcDbCircle
 10
0.3120000000000971
 20
12.93800000000007
 30
0.0
 40
0.082
  0
CIRCLE
  5
6A
100
AcDbEntity
  8
USP-GEO
100
AcDbCircle
 10
0.3120000000001042
 20
14.03800000000006
 30
0.0
 40
0.082
  0
CIRCLE
  5
6B
100
AcDbEntity
  8
USP-GEO
100
AcDbCircle
 10
0.9380000000000947
 20
12.38800000000006
 30
0.0
 40
0.082
  0
CIRCLE
  5
6C
100
AcDbEntity
  8
USP-GEO
100
AcDbCircle
 10
0.9380000000001018
 20
13.48800000000005
 30
0.0
 40
0.082
  0
CIRCLE
  5
6D
100
AcDbEntity
  8
USP-GEO
100
AcDbCircle
 10
0.9380000000001089
 20
14.58800000000006
 30
0.0
 40
0.082
  0
CIRCLE
  5
6E
100
AcDbEntity
  8
USP-GEO
100
AcDbCircle
 10
0.3120000000001184
 20
15.13800000000004
 30
0.0
 40
0.082
  0
CIRCLE
  5
6F
100
AcDbEntity
  8
USP-GEO
100
AcDbCircle
 10
0.3120000000001326
 20
16.56300000000005
 30
0.0
 40
0.082
  0
CIRCLE
  5
70
100
AcDbEntity
  8
USP-GEO
100
AcDbCircle
 10
0.938000000000116
 20
15.68800000000005
 30
0.0
 40
0.082
  0
CIRCLE
  5
71
100
AcDbEntity
  8
USP-GEO
100
AcDbCircle
 10
0.3120000000001397
 20
18.56300000000005
 30
0.0
 40
0.082
  0
CIRCLE
  5
72
100
AcDbEntity
  8
USP-GEO
100
AcDbCircle
 10
0.3120000000001468
 20
18.56300000000005
 30
0.0
 40
0.082
  0
CIRCLE
  5
73
100
AcDbEntity
  8
USP-GEO
100
AcDbCircle
 10
0.9380000000001516
 20
19.56300000000005
 30
0.0
 40
0.082
  0
CIRCLE
  5
74
100
AcDbEntity
  8
USP-GEO
100
AcDbCircle
 10
0.312000000000161
 20
20.81300000000003
 30
0.0
 40
0.082
  0
CIRCLE
  5
75
100
AcDbEntity
  8
USP-GEO
100
AcDbCircle
 10
0.9380000000001729
 20
22.06300000000002
 30
0.0
 40
0.082
  0
LINE
  5
76
100
AcDbEntity
  8
USP-GEO
100
AcDbLine
 10
1.250000000000163
 20
24.06300000000003
 30
0.0
 11
0.0000000000001563
 21
24.06300000000003
 31
0.0
  0
CIRCLE
  5
77
100
AcDbEntity
  8
USP-GEO
100
AcDbCircle
 10
0.3120000000001752
 20
23.31300000000003
 30
0.0
 40
0.082
  0
ENDBLK
  5
79
100
AcDbEntity
  8
0
100
AcDbBlockEnd
  0
BLOCK
  5
C3
100
AcDbEntity
  8
0
100
AcDbBlockBegin
  2
HTA24_S
 70
     0
 10
0.0
 20
0.0
 30
0.0
  3
HTA24_S
  1

  0
LINE
  5
7C
100
AcDbEntity
  8
USP-GEO
100
AcDbLine
 10
1.562999999999995
 20
0.0000000000000782
 30
0.0
 11
1.562999999999895
 21
1.876000000000082
 31
0.0
  0
LINE
  5
7D
100
AcDbEntity
  8
USP-GEO
100
AcDbLine
 10
1.499999999999886
 20
1.876000000000082
 30
0.0
 11
1.499999999999985
 21
0.0630000000000735
 31
0.0
  0
TEXT
  5
7E
100
AcDbEntity
  8
USP-TXT
100
AcDbText
 10
-1.291666666666674
 20
-1.92573604877452
 30
0.0
 40
0.25
  1
HTA24 - SIDE ANGLE
 72
     1
 11
0.8749999999999928
 21
-1.92573604877452
 31
0.0
100
AcDbText
  0
LINE
  5
7F
100
AcDbEntity
  8
USP-GEO
100
AcDbLine
 10
1.499999999999978
 20
0.4221192008769013
 30
0.0
 11
1.140880799123195
 21
0.0630000000000592
 31
0.0
  0
LINE
  5
80
100
AcDbEntity
  8
USP-GEO
100
AcDbLine
 10
1.499999999999985
 20
0.0630000000000735
 30
0.0
 11
0.2499999999999929
 21
0.0630000000000095
 31
0.0
  0
LINE
  5
81
100
AcDbEntity
  8
USP-GEO
100
AcDbLine
 10
1.562999999999988
 20
0.0000000000000782
 30
0.0
 11
0.2499999999999929
 21
0.0000000000000107
 31
0.0
  0
LINE
  5
82
100
AcDbEntity
  8
USP-GEO
100
AcDbLine
 10
0.2499999999999929
 20
0.0630000000000131
 30
0.0
 11
0.0
 21
0.0630000000000024
 31
0.0
  0
LINE
  5
83
100
AcDbEntity
  8
USP-GEO
100
AcDbLine
 10
0.0
 20
0.0
 30
0.0
 11
0.2499999999999929
 21
0.0000000000000107
 31
0.0
  0
LINE
  5
84
100
AcDbEntity
  8
USP-GEO
100
AcDbLine
 10
0.0
 20
0.0
 30
0.0
 11
0.0
 21
0.0630000000000024
 31
0.0
  0
LINE
  5
85
100
AcDbEntity
  8
USP-GEO
100
AcDbLine
 10
0.2499999999999929
 20
0.0000000000000071
 30
0.0
 11
0.2499999999999929
 21
0.0630000000000095
 31
0.0
  0
LINE
  5
86
100
AcDbEntity
  8
USP-GEO
100
AcDbLine
 10
1.499999999999985
 20
0.1357461339179551
 30
0.0
 11
1.427253866082118
 21
0.0630000000000735
 31
0.0
  0
LINE
  5
87
100
AcDbEntity
  8
USP-HID
100
AcDbLine
 10
1.499999999999985
 20
0.3130000000000805
 30
0.0
 11
1.25
 21
0.0630000000000521
 31
0.0
  0
LINE
  5
88
100
AcDbEntity
  8
USP-HID
100
AcDbLine
 10
1.249999999999992
 20
0.0000000000000639
 30
0.0
 11
1.249999999999992
 21
0.0630000000000663
 31
0.0
  0
LINE
  5
89
100
AcDbEntity
  8
USP-HID
100
AcDbLine
 10
1.562999999999988
 20
0.0630000000000806
 30
0.0
 11
1.499999999999992
 21
0.063000000000077
 31
0.0
  0
LINE
  5
8A
100
AcDbEntity
  8
USP-HID
100
AcDbLine
 10
1.562999999999973
 20
0.3130000000000805
 30
0.0
 11
1.499999999999985
 21
0.313000000000077
 31
0.0
  0
LINE
  5
8B
100
AcDbEntity
  8
USP-HID
100
AcDbLine
 10
1.499999999999992
 20
0.0000000000000782
 30
0.0
 11
1.499999999999992
 21
0.0630000000000806
 31
0.0
  0
LINE
  5
8C
100
AcDbEntity
  8
USP-GEO
100
AcDbLine
 10
1.562999999999867
 20
2.250000000000071
 30
0.0
 11
1.562999999998751
 21
24.06300000000006
 31
0.0
  0
LINE
  5
8D
100
AcDbEntity
  8
USP-GEO
100
AcDbLine
 10
1.499999999999864
 20
2.250000000000078
 30
0.0
 11
1.499999999998749
 21
24.06300000000006
 31
0.0
  0
LINE
  5
8E
100
AcDbEntity
  8
USP-GEO
100
AcDbLine
 10
1.562999999999888
 20
1.876000000000082
 30
0.0
 11
1.499999999999886
 21
1.876000000000079
 31
0.0
  0
LINE
  5
8F
100
AcDbEntity
  8
USP-GEO
100
AcDbLine
 10
1.562999999999867
 20
2.250000000000071
 30
0.0
 11
1.499999999999872
 21
2.250000000000067
 31
0.0
  0
LINE
  5
90
100
AcDbEntity
  8
USP-GEO
100
AcDbLine
 10
1.499999999999879
 20
2.250000000000067
 30
0.0
 11
1.499999999999879
 21
2.218000000000067
 31
0.0
  0
LINE
  5
91
100
AcDbEntity
  8
USP-GEO
100
AcDbLine
 10
1.562999999999874
 20
2.25000000000006
 30
0.0
 11
1.562999999999874
 21
2.21800000000006
 31
0.0
  0
LINE
  5
92
100
AcDbEntity
  8
USP-GEO
100
AcDbLine
 10
1.499999999999879
 20
2.218000000000067
 30
0.0
 11
1.499999999999893
 21
1.908000000000079
 31
0.0
  0
LINE
  5
93
100
AcDbEntity
  8
USP-GEO
100
AcDbLine
 10
1.562999999999881
 20
1.908000000000072
 30
0.0
 11
1.562999999999867
 21
2.218000000000067
 31
0.0
  0
LINE
  5
94
100
AcDbEntity
  8
USP-GEO
100
AcDbLine
 10
1.499999999999879
 20
1.908000000000079
 30
0.0
 11
1.499999999999879
 21
1.876000000000079
 31
0.0
  0
LINE
  5
95
100
AcDbEntity
  8
USP-GEO
100
AcDbLine
 10
1.562999999999895
 20
1.908000000000079
 30
0.0
 11
1.562999999999895
 21
1.876000000000079
 31
0.0
  0
LINE
  5
96
100
AcDbEntity
  8
USP-HID
100
AcDbLine
 10
1.562999999999675
 20
6.177000000000077
 30
0.0
 11
1.499999999999687
 21
6.177000000000074
 31
0.0
  0
LINE
  5
97
100
AcDbEntity
  8
USP-HID
100
AcDbLine
 10
1.562999999999689
 20
6.013000000000077
 30
0.0
 11
1.499999999999701
 21
6.013000000000073
 31
0.0
  0
LINE
  5
98
100
AcDbEntity
  8
USP-HID
100
AcDbLine
 10
1.562999999999647
 20
6.931000000000096
 30
0.0
 11
1.499999999999644
 21
6.931000000000093
 31
0.0
  0
LINE
  5
99
100
AcDbEntity
  8
USP-HID
100
AcDbLine
 10
1.562999999999632
 20
7.095000000000098
 30
0.0
 11
1.49999999999963
 21
7.095000000000094
 31
0.0
  0
LINE
  5
9A
100
AcDbEntity
  8
USP-HID
100
AcDbLine
 10
1.562999999999604
 20
7.556000000000082
 30
0.0
 11
1.499999999999616
 21
7.55600000000008
 31
0.0
  0
LINE
  5
9B
100
AcDbEntity
  8
USP-HID
100
AcDbLine
 10
1.56299999999959
 20
7.720000000000084
 30
0.0
 11
1.499999999999602
 21
7.72000000000008
 31
0.0
  0
LINE
  5
9C
100
AcDbEntity
  8
USP-HID
100
AcDbLine
 10
1.56299999999959
 20
8.181000000000096
 30
0.0
 11
1.499999999999587
 21
8.181000000000095
 31
0.0
  0
LINE
  5
9D
100
AcDbEntity
  8
USP-HID
100
AcDbLine
 10
1.562999999999576
 20
8.345000000000098
 30
0.0
 11
1.499999999999573
 21
8.345000000000094
 31
0.0
  0
LINE
  5
9E
100
AcDbEntity
  8
USP-HID
100
AcDbLine
 10
1.562999999999547
 20
8.806000000000082
 30
0.0
 11
1.499999999999545
 21
8.80600000000008
 31
0.0
  0
LINE
  5
9F
100
AcDbEntity
  8
USP-HID
100
AcDbLine
 10
1.562999999999533
 20
8.970000000000084
 30
0.0
 11
1.499999999999531
 21
8.97000000000008
 31
0.0
  0
LINE
  5
A0
100
AcDbEntity
  8
USP-HID
100
AcDbLine
 10
1.562999999999476
 20
10.22000000000009
 30
0.0
 11
1.499999999999459
 21
10.22000000000009
 31
0.0
  0
LINE
  5
A1
100
AcDbEntity
  8
USP-HID
100
AcDbLine
 10
1.56299999999949
 20
10.05600000000009
 30
0.0
 11
1.499999999999474
 21
10.05600000000009
 31
0.0
  0
LINE
  5
A2
100
AcDbEntity
  8
USP-HID
100
AcDbLine
 10
1.562999999999433
 20
10.80600000000009
 30
0.0
 11
1.499999999999445
 21
10.80600000000008
 31
0.0
  0
LINE
  5
A3
100
AcDbEntity
  8
USP-HID
100
AcDbLine
 10
1.562999999999419
 20
10.97000000000009
 30
0.0
 11
1.499999999999431
 21
10.97000000000008
 31
0.0
  0
LINE
  5
A4
100
AcDbEntity
  8
USP-HID
100
AcDbLine
 10
1.562999999999412
 20
11.55600000000008
 30
0.0
 11
1.499999999999403
 21
11.55600000000008
 31
0.0
  0
LINE
  5
A5
100
AcDbEntity
  8
USP-HID
100
AcDbLine
 10
1.562999999999398
 20
11.72000000000008
 30
0.0
 11
1.499999999999388
 21
11.72000000000008
 31
0.0
  0
LINE
  5
A6
100
AcDbEntity
  8
USP-HID
100
AcDbLine
 10
1.562999999999348
 20
12.47000000000009
 30
0.0
 11
1.49999999999936
 21
12.47000000000008
 31
0.0
  0
LINE
  5
A7
100
AcDbEntity
  8
USP-HID
100
AcDbLine
 10
1.562999999999362
 20
12.30600000000009
 30
0.0
 11
1.499999999999374
 21
12.30600000000008
 31
0.0
  0
LINE
  5
A8
100
AcDbEntity
  8
USP-HID
100
AcDbLine
 10
1.562999999999341
 20
12.85600000000009
 30
0.0
 11
1.499999999999353
 21
12.85600000000009
 31
0.0
  0
LINE
  5
A9
100
AcDbEntity
  8
USP-HID
100
AcDbLine
 10
1.562999999999327
 20
13.02000000000009
 30
0.0
 11
1.499999999999339
 21
13.02000000000009
 31
0.0
  0
LINE
  5
AA
100
AcDbEntity
  8
USP-HID
100
AcDbLine
 10
1.562999999999291
 20
13.57000000000007
 30
0.0
 11
1.499999999999289
 21
13.57000000000007
 31
0.0
  0
LINE
  5
AB
100
AcDbEntity
  8
USP-HID
100
AcDbLine
 10
1.562999999999306
 20
13.40600000000007
 30
0.0
 11
1.499999999999303
 21
13.40600000000007
 31
0.0
  0
LINE
  5
AC
100
AcDbEntity
  8
USP-HID
100
AcDbLine
 10
1.56299999999927
 20
14.12000000000007
 30
0.0
 11
1.499999999999268
 21
14.12000000000007
 31
0.0
  0
LINE
  5
AD
100
AcDbEntity
  8
USP-HID
100
AcDbLine
 10
1.562999999999284
 20
13.95600000000007
 30
0.0
 11
1.499999999999282
 21
13.95600000000007
 31
0.0
  0
LINE
  5
AE
100
AcDbEntity
  8
USP-HID
100
AcDbLine
 10
1.562999999999242
 20
14.67000000000008
 30
0.0
 11
1.499999999999239
 21
14.67000000000008
 31
0.0
  0
LINE
  5
AF
100
AcDbEntity
  8
USP-HID
100
AcDbLine
 10
1.562999999999256
 20
14.50600000000008
 30
0.0
 11
1.499999999999253
 21
14.50600000000007
 31
0.0
  0
LINE
  5
B0
100
AcDbEntity
  8
USP-HID
100
AcDbLine
 10
1.562999999999213
 20
15.22000000000007
 30
0.0
 11
1.499999999999211
 21
15.22000000000007
 31
0.0
  0
LINE
  5
B1
100
AcDbEntity
  8
USP-HID
100
AcDbLine
 10
1.562999999999227
 20
15.05600000000007
 30
0.0
 11
1.499999999999225
 21
15.05600000000007
 31
0.0
  0
LINE
  5
B2
100
AcDbEntity
  8
USP-HID
100
AcDbLine
 10
1.562999999999171
 20
15.77000000000008
 30
0.0
 11
1.499999999999182
 21
15.77000000000007
 31
0.0
  0
LINE
  5
B3
100
AcDbEntity
  8
USP-HID
100
AcDbLine
 10
1.562999999999185
 20
15.60600000000007
 30
0.0
 11
1.499999999999197
 21
15.60600000000007
 31
0.0
  0
LINE
  5
B4
100
AcDbEntity
  8
USP-HID
100
AcDbLine
 10
1.562999999999142
 20
16.64500000000007
 30
0.0
 11
1.49999999999914
 21
16.64500000000007
 31
0.0
  0
LINE
  5
B5
100
AcDbEntity
  8
USP-HID
100
AcDbLine
 10
1.562999999999156
 20
16.48100000000007
 30
0.0
 11
1.499999999999154
 21
16.48100000000007
 31
0.0
  0
LINE
  5
B6
100
AcDbEntity
  8
USP-HID
100
AcDbLine
 10
1.562999999999099
 20
17.48100000000007
 30
0.0
 11
1.499999999999097
 21
17.48100000000007
 31
0.0
  0
LINE
  5
B7
100
AcDbEntity
  8
USP-HID
100
AcDbLine
 10
1.562999999999085
 20
17.64500000000007
 30
0.0
 11
1.499999999999083
 21
17.64500000000007
 31
0.0
  0
LINE
  5
B8
100
AcDbEntity
  8
USP-HID
100
AcDbLine
 10
1.562999999999036
 20
18.64500000000008
 30
0.0
 11
1.499999999999033
 21
18.64500000000008
 31
0.0
  0
LINE
  5
B9
100
AcDbEntity
  8
USP-HID
100
AcDbLine
 10
1.56299999999905
 20
18.48100000000008
 30
0.0
 11
1.499999999999047
 21
18.48100000000008
 31
0.0
  0
LINE
  5
BA
100
AcDbEntity
  8
USP-HID
100
AcDbLine
 10
1.562999999998993
 20
19.48100000000008
 30
0.0
 11
1.499999999999005
 21
19.48100000000007
 31
0.0
  0
LINE
  5
BB
100
AcDbEntity
  8
USP-HID
100
AcDbLine
 10
1.562999999998979
 20
19.64500000000008
 30
0.0
 11
1.499999999998991
 21
19.64500000000007
 31
0.0
  0
LINE
  5
BC
100
AcDbEntity
  8
USP-HID
100
AcDbLine
 10
1.499999999998934
 20
20.73100000000005
 30
0.0
 11
1.562999999998936
 21
20.73100000000006
 31
0.0
  0
LINE
  5
BD
100
AcDbEntity
  8
USP-HID
100
AcDbLine
 10
1.499999999998919
 20
20.89500000000005
 30
0.0
 11
1.562999999998922
 21
20.89500000000006
 31
0.0
  0
LINE
  5
BE
100
AcDbEntity
  8
USP-HID
100
AcDbLine
 10
1.499999999998863
 20
21.98100000000005
 30
0.0
 11
1.562999999998865
 21
21.98100000000005
 31
0.0
  0
LINE
  5
BF
100
AcDbEntity
  8
USP-HID
100
AcDbLine
 10
1.499999999998848
 20
22.14500000000005
 30
0.0
 11
1.562999999998851
 21
22.14500000000005
 31
0.0
  0
LINE
  5
C0
100
AcDbEntity
  8
USP-HID
100
AcDbLine
 10
1.499999999998806
 20
23.23100000000005
 30
0.0
 11
1.562999999998808
 21
23.23100000000005
 31
0.0
  0
LINE
  5
C1
100
AcDbEntity
  8
USP-HID
100
AcDbLine
 10
1.499999999998792
 20
23.39500000000005
 30
0.0
 11
1.562999999998794
 21
23.39500000000005
 31
0.0
  0
LINE
  5
C2
100
AcDbEntity
  8
USP-GEO
100
AcDbLine
 10
1.499999999998756
 20
24.06300000000006
 30
0.0
 11
1.562999999998758
 21
24.06300000000006
 31
0.0
  0
ENDBLK
  5
C4
100
AcDbEntity
  8
0
100
AcDbBlockEnd
  0
ENDSEC
  0
SECTION
  2
ENTITIES
  0
INSERT
  5
3
100
AcDbEntity
  8
USP
100
AcDbBlockReference
  2
HTA24_T
 10
1.712205994519074
 20
32.36425551481137
 30
0.0
  0
INSERT
  5
33
100
AcDbEntity
  8
USP
100
AcDbBlockReference
  2
HTA24_F
 10
1.712205994519067
 20
1.926558704013011
 30
0.0
  0
INSERT
  5
7A
100
AcDbEntity
  8
USP
100
AcDbBlockReference
  2
HTA24_S
 10
10.43930572251595
 20
1.92655870401299
 30
0.0
  0
ENDSEC
  0
SECTION
  2
OBJECTS
  0
DICTIONARY
  5
DA
102
{ACAD_XDICTIONARY
360
DB
102
}
100
AcDbDictionary
  3
ACAD_GROUP
350
D8
  3
ACAD_MLINESTYLE
350
D9
1001
ACAD
1000
TREAT_AS_HARD
1070
     0
  0
DICTIONARY
  5
A
100
AcDbDictionary
280
     1
1001
ACAD
1000
TREAT_AS_HARD
1070
     1
  0
DICTIONARY
  5
F
100
AcDbDictionary
280
     1
1001
ACAD
1000
TREAT_AS_HARD
1070
     1
  0
DICTIONARY
  5
1B
100
AcDbDictionary
280
     1
1001
ACAD
1000
TREAT_AS_HARD
1070
     1
  0
DICTIONARY
  5
DE
100
AcDbDictionary
280
     1
  0
DICTIONARY
  5
C5
100
AcDbDictionary
280
     1
1001
ACAD
1000
TREAT_AS_HARD
1070
     1
  0
DICTIONARY
  5
C9
100
AcDbDictionary
280
     1
1001
ACAD
1000
TREAT_AS_HARD
1070
     1
  0
DICTIONARY
  5
DB
100
AcDbDictionary
280
     1
  0
DICTIONARY
  5
D8
102
{ACAD_REACTORS
330
DA
102
}
100
AcDbDictionary
1001
ACAD
1000
TREAT_AS_HARD
1070
     0
  0
DICTIONARY
  5
D9
102
{ACAD_REACTORS
330
DA
102
}
100
AcDbDictionary
  3
STANDARD
350
DC
1001
ACAD
1000
TREAT_AS_HARD
1070
     0
  0
MLINESTYLE
  5
DC
102
{ACAD_REACTORS
330
D9
102
}
100
AcDbMlineStyle
  2
STANDARD
 70
     0
  3

 62
   256
 51
90.0
 52
90.0
 71
     2
 49
0.5
 62
   256
  6
BYLAYER
 49
-0.5
 62
   256
  6
BYLAYER
  0
ENDSEC
  0
EOF
