  0
SECTION
  2
HEADER
  9
$ACADVER
  1
AC1014
  9
$ACADMAINTVER
 70
     9
  9
$DWGCODEPAGE
  3
ANSI_1252
  9
$INSBASE
 10
0.0
 20
0.0
 30
0.0
  9
$EXTMIN
 10
0.0028397317339506
 20
0.0002704965844096
 30
0.0
  9
$EXTMAX
 10
12.9170082632114
 20
27.99638419594668
 30
0.0
  9
$LIMMIN
 10
0.0
 20
0.0
  9
$LIMMAX
 10
12.0
 20
9.0
  9
$ORTHOMODE
 70
     1
  9
$REGENMODE
 70
     1
  9
$FILLMODE
 70
     1
  9
$QTEXTMODE
 70
     0
  9
$MIRRTEXT
 70
     1
  9
$DRAGMODE
 70
     2
  9
$LTSCALE
 40
1.0
  9
$OSMODE
 70
     0
  9
$ATTMODE
 70
     1
  9
$TEXTSIZE
 40
0.2
  9
$TRACEWID
 40
0.05
  9
$TEXTSTYLE
  7
STANDARD
  9
$CLAYER
  8
USP
  9
$CELTYPE
  6
BYLAYER
  9
$CECOLOR
 62
   256
  9
$CELTSCALE
 40
1.0
  9
$DELOBJ
 70
     1
  9
$DISPSILH
 70
     1
  9
$DIMSCALE
 40
2.5
  9
$DIMASZ
 40
0.18
  9
$DIMEXO
 40
0.0625
  9
$DIMDLI
 40
0.38
  9
$DIMRND
 40
0.0
  9
$DIMDLE
 40
0.0
  9
$DIMEXE
 40
0.18
  9
$DIMTP
 40
0.0
  9
$DIMTM
 40
0.0
  9
$DIMTXT
 40
0.18
  9
$DIMCEN
 40
0.09
  9
$DIMTSZ
 40
0.0
  9
$DIMTOL
 70
     0
  9
$DIMLIM
 70
     0
  9
$DIMTIH
 70
     1
  9
$DIMTOH
 70
     1
  9
$DIMSE1
 70
     0
  9
$DIMSE2
 70
     0
  9
$DIMTAD
 70
     0
  9
$DIMZIN
 70
     0
  9
$DIMBLK
  1

  9
$DIMASO
 70
     1
  9
$DIMSHO
 70
     1
  9
$DIMPOST
  1

  9
$DIMAPOST
  1

  9
$DIMALT
 70
     0
  9
$DIMALTD
 70
     2
  9
$DIMALTF
 40
25.4
  9
$DIMLFAC
 40
1.0
  9
$DIMTOFL
 70
     0
  9
$DIMTVP
 40
0.0
  9
$DIMTIX
 70
     0
  9
$DIMSOXD
 70
     0
  9
$DIMSAH
 70
     0
  9
$DIMBLK1
  1

  9
$DIMBLK2
  1

  9
$DIMSTYLE
  2
FRACTION
  9
$DIMCLRD
 70
     0
  9
$DIMCLRE
 70
     0
  9
$DIMCLRT
 70
     0
  9
$DIMTFAC
 40
1.0
  9
$DIMGAP
 40
0.09
  9
$DIMJUST
 70
     0
  9
$DIMSD1
 70
     0
  9
$DIMSD2
 70
     0
  9
$DIMTOLJ
 70
     1
  9
$DIMTZIN
 70
     0
  9
$DIMALTZ
 70
     0
  9
$DIMALTTZ
 70
     0
  9
$DIMFIT
 70
     3
  9
$DIMUPT
 70
     0
  9
$DIMUNIT
 70
     7
  9
$DIMDEC
 70
     4
  9
$DIMTDEC
 70
     4
  9
$DIMALTU
 70
     2
  9
$DIMALTTD
 70
     2
  9
$DIMTXSTY
  7
STANDARD
  9
$DIMAUNIT
 70
     0
  9
$LUNITS
 70
     2
  9
$LUPREC
 70
     4
  9
$SKETCHINC
 40
0.1
  9
$FILLETRAD
 40
0.5
  9
$AUNITS
 70
     0
  9
$AUPREC
 70
     2
  9
$MENU
  1
.
  9
$ELEVATION
 40
0.0
  9
$PELEVATION
 40
0.0
  9
$THICKNESS
 40
0.0
  9
$LIMCHECK
 70
     0
  9
$BLIPMODE
 70
     0
  9
$CHAMFERA
 40
0.5
  9
$CHAMFERB
 40
0.5
  9
$CHAMFERC
 40
1.0
  9
$CHAMFERD
 40
0.0
  9
$SKPOLY
 70
     0
  9
$TDCREATE
 40
2452018.382721087
  9
$TDUPDATE
 40
2452759.745025856
  9
$TDINDWG
 40
0.2346566782
  9
$TDUSRTIMER
 40
0.2346566782
  9
$USRTIMER
 70
     1
  9
$ANGBASE
 50
0.0
  9
$ANGDIR
 70
     0
  9
$PDMODE
 70
     0
  9
$PDSIZE
 40
0.0
  9
$PLINEWID
 40
0.0
  9
$COORDS
 70
     1
  9
$SPLFRAME
 70
     0
  9
$SPLINETYPE
 70
     6
  9
$SPLINESEGS
 70
     8
  9
$ATTDIA
 70
     0
  9
$ATTREQ
 70
     0
  9
$HANDLING
 70
     1
  9
$HANDSEED
  5
DB
  9
$SURFTAB1
 70
     6
  9
$SURFTAB2
 70
     6
  9
$SURFTYPE
 70
     6
  9
$SURFU
 70
     6
  9
$SURFV
 70
     6
  9
$UCSNAME
  2

  9
$UCSORG
 10
0.0
 20
0.0
 30
0.0
  9
$UCSXDIR
 10
1.0
 20
0.0
 30
0.0
  9
$UCSYDIR
 10
0.0
 20
1.0
 30
0.0
  9
$PUCSNAME
  2

  9
$PUCSORG
 10
0.0
 20
0.0
 30
0.0
  9
$PUCSXDIR
 10
1.0
 20
0.0
 30
0.0
  9
$PUCSYDIR
 10
0.0
 20
1.0
 30
0.0
  9
$USERI1
 70
     0
  9
$USERI2
 70
     0
  9
$USERI3
 70
     0
  9
$USERI4
 70
     0
  9
$USERI5
 70
     0
  9
$USERR1
 40
0.0
  9
$USERR2
 40
0.0
  9
$USERR3
 40
0.0
  9
$USERR4
 40
0.0
  9
$USERR5
 40
0.0
  9
$WORLDVIEW
 70
     1
  9
$SHADEDGE
 70
     3
  9
$SHADEDIF
 70
    70
  9
$TILEMODE
 70
     1
  9
$MAXACTVP
 70
    48
  9
$PINSBASE
 10
0.0
 20
0.0
 30
0.0
  9
$PLIMCHECK
 70
     0
  9
$PEXTMIN
 10
1.000000000000000E+20
 20
1.000000000000000E+20
 30
1.000000000000000E+20
  9
$PEXTMAX
 10
-1.000000000000000E+20
 20
-1.000000000000000E+20
 30
-1.000000000000000E+20
  9
$PLIMMIN
 10
0.0
 20
0.0
  9
$PLIMMAX
 10
12.0
 20
9.0
  9
$UNITMODE
 70
     0
  9
$VISRETAIN
 70
     1
  9
$PLINEGEN
 70
     0
  9
$PSLTSCALE
 70
     1
  9
$TREEDEPTH
 70
  3020
  9
$PICKSTYLE
 70
     1
  9
$CMLSTYLE
  2
STANDARD
  9
$CMLJUST
 70
     0
  9
$CMLSCALE
 40
1.0
  9
$PROXYGRAPHICS
 70
     1
  9
$MEASUREMENT
 70
     0
  0
ENDSEC
  0
SECTION
  2
CLASSES
  0
CLASS
  1
ACDBDICTIONARYWDFLT
  2
AcDbDictionaryWithDefault
  3
AutoCAD 2000
 90
        0
280
     1
281
     0
  0
CLASS
  1
ACDBPLACEHOLDER
  2
AcDbPlaceHolder
  3
AutoCAD 2000
 90
        0
280
     1
281
     0
  0
CLASS
  1
LAYOUT
  2
AcDbLayout
  3
AutoCAD 2000
 90
        0
280
     1
281
     0
  0
CLASS
  1
DICTIONARYVAR
  2
AcDbDictionaryVar
  3
"AutoCAD"
 90
        0
280
     1
281
     0
  0
CLASS
  1
LONG_TRANSACTION
  2
AcDbLongTransaction
  3
AutoCAD 2000
 90
        0
280
     1
281
     0
  0
CLASS
  1
LWPOLYLINE
  2
AcDbPolyline
  3
"AutoCAD"
 90
        0
280
     1
281
     1
  0
CLASS
  1
HATCH
  2
AcDbHatch
  3
"ACAD_SEDONA"
 90
        0
280
     1
281
     1
  0
CLASS
  1
XRECORD
  2
AcDbXrecord
  3
"<Built In>"
 90
        0
280
     0
281
     0
  0
CLASS
  1
LONG_TRANSACTION
  2
AcDbLongTransaction
  3
AutoCAD 2000
 90
        0
280
     1
281
     0
  0
CLASS
  1
LWPOLYLINE
  2
AcDbPolyline
  3
"AutoCAD"
 90
        0
280
     1
281
     1
  0
CLASS
  1
HATCH
  2
AcDbHatch
  3
"ACAD_SEDONA"
 90
        0
280
     1
281
     1
  0
CLASS
  1
XRECORD
  2
AcDbXrecord
  3
"<Built In>"
 90
        0
280
     0
281
     0
  0
CLASS
  1
LONG_TRANSACTION
  2
AcDbLongTransaction
  3
AutoCAD 2000
 90
        0
280
     1
281
     0
  0
CLASS
  1
LWPOLYLINE
  2
AcDbPolyline
  3
"AutoCAD"
 90
        0
280
     1
281
     1
  0
CLASS
  1
HATCH
  2
AcDbHatch
  3
"ACAD_SEDONA"
 90
        0
280
     1
281
     1
  0
CLASS
  1
XRECORD
  2
AcDbXrecord
  3
"<Built In>"
 90
        0
280
     0
281
     0
  0
CLASS
  1
LONG_TRANSACTION
  2
AcDbLongTransaction
  3
AutoCAD 2000
 90
        0
280
     1
281
     0
  0
CLASS
  1
LWPOLYLINE
  2
AcDbPolyline
  3
"AutoCAD"
 90
        0
280
     1
281
     1
  0
CLASS
  1
HATCH
  2
AcDbHatch
  3
"ACAD_SEDONA"
 90
        0
280
     1
281
     1
  0
CLASS
  1
XRECORD
  2
AcDbXrecord
  3
"<Built In>"
 90
        0
280
     0
281
     0
  0
ENDSEC
  0
SECTION
  2
TABLES
  0
TABLE
  2
VPORT
  5
C7
100
AcDbSymbolTable
 70
     1
  0
VPORT
  5
D7
100
AcDbSymbolTableRecord
100
AcDbViewportTableRecord
  2
*ACTIVE
 70
     0
 10
0.0
 20
0.0
 11
1.0
 21
1.0
 12
6.460189182430305
 22
14.57180322260118
 13
0.0
 23
0.0
 14
0.5
 24
0.5
 15
0.5
 25
0.5
 16
0.0
 26
0.0
 36
1.0
 17
0.0
 27
0.0
 37
0.0
 40
29.3464448480573
 41
1.457627118644067
 42
50.0
 43
0.0
 44
0.0
 50
0.0
 51
0.0
 71
     0
 72
   100
 73
     1
 74
     1
 75
     0
 76
     0
 77
     0
 78
     0
  0
ENDTAB
  0
TABLE
  2
LTYPE
  5
C3
100
AcDbSymbolTable
 70
     2
  0
LTYPE
  5
C4
100
AcDbSymbolTableRecord
100
AcDbLinetypeTableRecord
  2
BYBLOCK
 70
     0
  3

 72
    65
 73
     0
 40
0.0
  0
LTYPE
  5
6
100
AcDbSymbolTableRecord
100
AcDbLinetypeTableRecord
  2
BYLAYER
 70
     0
  3

 72
    65
 73
     0
 40
0.0
  0
LTYPE
  5
5
100
AcDbSymbolTableRecord
100
AcDbLinetypeTableRecord
  2
CONTINUOUS
 70
     0
  3
Solid line
 72
    65
 73
     0
 40
0.0
  0
LTYPE
  5
1E
100
AcDbSymbolTableRecord
100
AcDbLinetypeTableRecord
  2
HIDDEN
 70
     0
  3
Hidden __ __ __ __ __ __ __ __ __ __ __ __ __ _
 72
    65
 73
     2
 40
0.375
 49
0.25
 74
     0
 49
-0.125
 74
     0
  0
ENDTAB
  0
TABLE
  2
LAYER
  5
C1
100
AcDbSymbolTable
 70
     5
  0
LAYER
  5
30
100
AcDbSymbolTableRecord
100
AcDbLayerTableRecord
  2
0
 70
     0
 62
     7
  6
CONTINUOUS
  0
LAYER
  5
E
102
{ACAD_XDICTIONARY
360
F
102
}
100
AcDbSymbolTableRecord
100
AcDbLayerTableRecord
  2
USP-GEO
 70
     0
 62
     7
  6
CONTINUOUS
  0
LAYER
  5
9
102
{ACAD_XDICTIONARY
360
A
102
}
100
AcDbSymbolTableRecord
100
AcDbLayerTableRecord
  2
USP-TXT
 70
     0
 62
     7
  6
CONTINUOUS
  0
LAYER
  5
1C
102
{ACAD_XDICTIONARY
360
1D
102
}
100
AcDbSymbolTableRecord
100
AcDbLayerTableRecord
  2
USP-HID
 70
     0
 62
     7
  6
HIDDEN
  0
LAYER
  5
4
100
AcDbSymbolTableRecord
100
AcDbLayerTableRecord
  2
USP
 70
     0
 62
     7
  6
CONTINUOUS
  0
ENDTAB
  0
TABLE
  2
STYLE
  5
C2
100
AcDbSymbolTable
 70
     1
  0
STYLE
  5
C
100
AcDbSymbolTableRecord
100
AcDbTextStyleTableRecord
  2
STANDARD
 70
     0
 40
0.0
 41
1.0
 50
0.0
 71
     0
 42
0.2
  3
txt
  4

  0
ENDTAB
  0
TABLE
  2
VIEW
  5
C5
100
AcDbSymbolTable
 70
     0
  0
ENDTAB
  0
TABLE
  2
UCS
  5
C6
100
AcDbSymbolTable
 70
     0
  0
ENDTAB
  0
TABLE
  2
APPID
  5
CA
100
AcDbSymbolTable
 70
     1
  0
APPID
  5
B
100
AcDbSymbolTableRecord
100
AcDbRegAppTableRecord
  2
ACAD
 70
     0
  0
ENDTAB
  0
TABLE
  2
DIMSTYLE
  5
CB
100
AcDbSymbolTable
 70
     1
  0
DIMSTYLE
105
D2
102
{ACAD_XDICTIONARY
360
D3
102
}
100
AcDbSymbolTableRecord
100
AcDbDimStyleTableRecord
  2
FRACTION
 70
     0
  3

  4

  5

  6

  7

 40
2.5
 41
0.18
 42
0.0625
 43
0.38
 44
0.18
 45
0.0
 46
0.0
 47
0.0
 48
0.0
140
0.18
141
0.09
142
0.0
143
25.4
144
1.0
145
0.0
146
1.0
147
0.09
 71
     0
 72
     0
 73
     1
 74
     1
 75
     0
 76
     0
 77
     0
 78
     0
170
     0
171
     2
172
     0
173
     0
174
     0
175
     0
176
     0
177
     0
178
     0
270
     7
271
     4
272
     4
273
     2
274
     2
340
C
275
     0
280
     0
281
     0
282
     0
283
     1
284
     0
285
     0
286
     0
287
     3
288
     0
  0
ENDTAB
  0
TABLE
  2
BLOCK_RECORD
  5
1
100
AcDbSymbolTable
 70
     3
  0
BLOCK_RECORD
  5
2
102
{ACAD_XDICTIONARY
360
BA
102
}
100
AcDbSymbolTableRecord
100
AcDbBlockTableRecord
  2
*MODEL_SPACE
  0
BLOCK_RECORD
  5
BD
102
{ACAD_XDICTIONARY
360
BE
102
}
100
AcDbSymbolTableRecord
100
AcDbBlockTableRecord
  2
*PAPER_SPACE
  0
BLOCK_RECORD
  5
7
100
AcDbSymbolTableRecord
100
AcDbBlockTableRecord
  2
HTA20-18_T
  0
BLOCK_RECORD
  5
33
100
AcDbSymbolTableRecord
100
AcDbBlockTableRecord
  2
HTA20-18_F
  0
BLOCK_RECORD
  5
76
100
AcDbSymbolTableRecord
100
AcDbBlockTableRecord
  2
HTA20-18_S
  0
ENDTAB
  0
ENDSEC
  0
SECTION
  2
BLOCKS
  0
BLOCK
  5
BB
100
AcDbEntity
  8
0
100
AcDbBlockBegin
  2
*MODEL_SPACE
 70
     0
 10
0.0
 20
0.0
 30
0.0
  3
*MODEL_SPACE
  1

  0
ENDBLK
  5
BC
100
AcDbEntity
  8
0
100
AcDbBlockEnd
  0
BLOCK
  5
BF
100
AcDbEntity
 67
     1
  8
0
100
AcDbBlockBegin
  2
*PAPER_SPACE
 70
     0
 10
0.0
 20
0.0
 30
0.0
  3
*PAPER_SPACE
  1

  0
ENDBLK
  5
C0
100
AcDbEntity
 67
     1
  8
0
100
AcDbBlockEnd
  0
BLOCK
  5
2F
100
AcDbEntity
  8
0
100
AcDbBlockBegin
  2
HTA20-18_T
 70
     0
 10
0.0
 20
0.0
 30
0.0
  3
HTA20-18_T
  1

  0
TEXT
  5
8
100
AcDbEntity
  8
USP-TXT
100
AcDbText
 10
-1.687499999999999
 20
-1.372620459832788
 30
0.0
 40
0.25
  1
HTA20-18 - TOP VIEW
 72
     1
 11
0.625
 21
-1.372620459832788
 31
0.0
100
AcDbText
  0
LINE
  5
D
100
AcDbEntity
  8
USP-GEO
100
AcDbLine
 10
0.6249999999999929
 20
1.140880799123184
 30
0.0
 11
0.3386269330410343
 21
1.427253866082107
 31
0.0
  0
LINE
  5
10
100
AcDbEntity
  8
USP-GEO
100
AcDbLine
 10
0.625
 20
1.5
 30
0.0
 11
0.6249999999999965
 21
1.140880799123184
 31
0.0
  0
LINE
  5
11
100
AcDbEntity
  8
USP-GEO
100
AcDbLine
 10
0.911373066958923
 20
1.427253866082114
 30
0.0
 11
0.6249999999999929
 21
1.140880799123191
 31
0.0
  0
LINE
  5
12
100
AcDbEntity
  8
USP-GEO
100
AcDbLine
 10
0.0
 20
0.2499999999999858
 30
0.0
 11
-0.0000000000000142
 21
1.499999999999985
 31
0.0
  0
LINE
  5
13
100
AcDbEntity
  8
USP-GEO
100
AcDbLine
 10
1.249999999999989
 20
1.5
 30
0.0
 11
1.249999999999996
 21
0.2499999999999929
 31
0.0
  0
LINE
  5
14
100
AcDbEntity
  8
USP-GEO
100
AcDbLine
 10
1.000000000000003
 20
0.0000000000000036
 30
0.0
 11
0.2499999999999964
 21
0.0
 31
0.0
  0
LINE
  5
15
100
AcDbEntity
  8
USP-GEO
100
AcDbLine
 10
0.2499999999999964
 20
0.0
 30
0.0
 11
0.0599999999999952
 21
0.2499999999999964
 31
0.0
  0
LINE
  5
16
100
AcDbEntity
  8
USP-GEO
100
AcDbLine
 10
0.0599999999999916
 20
0.2499999999999929
 30
0.0
 11
0.0000000000000036
 21
0.2499999999999858
 31
0.0
  0
LINE
  5
17
100
AcDbEntity
  8
USP-GEO
100
AcDbLine
 10
1.189999999999997
 20
0.2499999999999964
 30
0.0
 11
1.000000000000003
 21
0.0
 31
0.0
  0
LINE
  5
18
100
AcDbEntity
  8
USP-GEO
100
AcDbLine
 10
1.249999999999996
 20
0.2499999999999929
 30
0.0
 11
1.189999999999994
 21
0.2499999999999929
 31
0.0
  0
LINE
  5
19
100
AcDbEntity
  8
USP-GEO
100
AcDbLine
 10
-0.0000000000000746
 20
1.50000000000054
 30
0.0
 11
1.249999999999925
 21
1.500000000000547
 31
0.0
  0
LINE
  5
1A
100
AcDbEntity
  8
USP-GEO
100
AcDbLine
 10
-0.0000000000000746
 20
1.563000000000542
 30
0.0
 11
1.249999999999925
 21
1.563000000000549
 31
0.0
  0
LINE
  5
1B
100
AcDbEntity
  8
USP-HID
100
AcDbLine
 10
0.8749999999999893
 20
1.499999999999989
 30
0.0
 11
0.9113730669589266
 21
1.427253866082121
 31
0.0
  0
LINE
  5
1F
100
AcDbEntity
  8
USP-GEO
100
AcDbLine
 10
-0.0000000000000746
 20
1.563000000000542
 30
0.0
 11
-0.0000000000000746
 21
1.50000000000054
 31
0.0
  0
LINE
  5
20
100
AcDbEntity
  8
USP-HID
100
AcDbLine
 10
0.061999999999987
 20
1.563000000000045
 30
0.0
 11
0.061999999999987
 21
1.500000000000049
 31
0.0
  0
LINE
  5
21
100
AcDbEntity
  8
USP-HID
100
AcDbLine
 10
0.3749999999999893
 20
1.499999999999992
 30
0.0
 11
0.6249999999999965
 21
1.249999999999985
 31
0.0
  0
LINE
  5
22
100
AcDbEntity
  8
USP-GEO
100
AcDbLine
 10
0.3386269330410307
 20
1.500000000000003
 30
0.0
 11
0.3386269330410307
 21
1.427253866082114
 31
0.0
  0
LINE
  5
23
100
AcDbEntity
  8
USP-HID
100
AcDbLine
 10
0.2299999999999294
 20
1.563000000000492
 30
0.0
 11
0.2299999999999294
 21
1.500000000000497
 31
0.0
  0
LINE
  5
24
100
AcDbEntity
  8
USP-HID
100
AcDbLine
 10
0.3939999999999308
 20
1.563000000000499
 30
0.0
 11
0.3939999999999308
 21
1.500000000000497
 31
0.0
  0
LINE
  5
25
100
AcDbEntity
  8
USP-HID
100
AcDbLine
 10
0.3749999999999893
 20
1.562999999999988
 30
0.0
 11
0.3749999999999893
 21
1.499999999999992
 31
0.0
  0
LINE
  5
26
100
AcDbEntity
  8
USP-HID
100
AcDbLine
 10
0.3386269330410343
 20
1.427253866082114
 30
0.0
 11
0.3749999999999751
 21
1.5
 31
0.0
  0
LINE
  5
27
100
AcDbEntity
  8
USP-HID
100
AcDbLine
 10
0.8559999999999199
 20
1.563000000000528
 30
0.0
 11
0.8559999999999199
 21
1.500000000000525
 31
0.0
  0
LINE
  5
28
100
AcDbEntity
  8
USP-HID
100
AcDbLine
 10
0.8749999999999964
 20
1.562999999999995
 30
0.0
 11
0.8749999999999964
 21
1.499999999999992
 31
0.0
  0
LINE
  5
29
100
AcDbEntity
  8
USP-HID
100
AcDbLine
 10
0.6249999999999894
 20
1.563000000000002
 30
0.0
 11
0.6249999999999894
 21
1.5
 31
0.0
  0
LINE
  5
2A
100
AcDbEntity
  8
USP-HID
100
AcDbLine
 10
0.6249999999999929
 20
1.249999999999989
 30
0.0
 11
0.8749999999999964
 21
1.499999999999992
 31
0.0
  0
LINE
  5
2B
100
AcDbEntity
  8
USP-GEO
100
AcDbLine
 10
0.9113730669589266
 20
1.5
 30
0.0
 11
0.9113730669589266
 21
1.427253866082118
 31
0.0
  0
LINE
  5
2C
100
AcDbEntity
  8
USP-GEO
100
AcDbLine
 10
1.249999999999925
 20
1.563000000000542
 30
0.0
 11
1.249999999999925
 21
1.500000000000547
 31
0.0
  0
LINE
  5
2D
100
AcDbEntity
  8
USP-HID
100
AcDbLine
 10
1.019999999999921
 20
1.563000000000528
 30
0.0
 11
1.019999999999921
 21
1.500000000000532
 31
0.0
  0
LINE
  5
2E
100
AcDbEntity
  8
USP-HID
100
AcDbLine
 10
1.187999999999981
 20
1.563000000000052
 30
0.0
 11
1.187999999999981
 21
1.500000000000049
 31
0.0
  0
ENDBLK
  5
31
100
AcDbEntity
  8
0
100
AcDbBlockEnd
  0
BLOCK
  5
73
100
AcDbEntity
  8
0
100
AcDbBlockBegin
  2
HTA20-18_F
 70
     0
 10
0.0
 20
0.0
 30
0.0
  3
HTA20-18_F
  1

  0
LINE
  5
34
100
AcDbEntity
  8
USP-GEO
100
AcDbLine
 10
1.249999999999928
 20
19.99999999999998
 30
0.0
 11
1.249999999999992
 21
2.186999999999997
 31
0.0
  0
LINE
  5
35
100
AcDbEntity
  8
USP-GEO
100
AcDbLine
 10
-0.0000000000000071
 20
2.186999999999997
 30
0.0
 11
-0.0000000000000711
 21
20.0
 31
0.0
  0
TEXT
  5
36
100
AcDbEntity
  8
USP-TXT
100
AcDbText
 10
-1.937499999999992
 20
-1.698245844624359
 30
0.0
 40
0.25
  1
HTA20-18 - FRONT VIEW
 72
     1
 11
0.6250000000000071
 21
-1.698245844624359
 31
0.0
100
AcDbText
  0
LINE
  5
37
100
AcDbEntity
  8
USP-GEO
100
AcDbLine
 10
1.249999999999989
 20
1.813000000000009
 30
0.0
 11
1.249999999999989
 21
0.0
 31
0.0
  0
LINE
  5
38
100
AcDbEntity
  8
USP-GEO
100
AcDbLine
 10
0.0
 20
0.0
 30
0.0
 11
-0.0000000000000071
 21
1.813000000000002
 31
0.0
  0
LINE
  5
39
100
AcDbEntity
  8
USP-GEO
100
AcDbLine
 10
0.6249999999999929
 20
0.3591192008768242
 30
0.0
 11
0.9113730669589266
 21
0.0727461339178799
 31
0.0
  0
LINE
  5
3A
100
AcDbEntity
  8
USP-GEO
100
AcDbLine
 10
1.000000000000007
 20
0.0000000000000453
 30
0.0
 11
0.25
 21
0.0000000000000426
 31
0.0
  0
LINE
  5
3B
100
AcDbEntity
  8
USP-GEO
100
AcDbLine
 10
0.2500000000000035
 20
-0.0629999999999598
 30
0.0
 11
1.000000000000007
 21
-0.0629999999999571
 31
0.0
  0
LINE
  5
3C
100
AcDbEntity
  8
USP-HID
100
AcDbLine
 10
0.911373066958923
 20
0.0727461339178843
 30
0.0
 11
0.8749999999999857
 21
0.0000000000000133
 31
0.0
  0
LINE
  5
3D
100
AcDbEntity
  8
USP-GEO
100
AcDbLine
 10
0.25
 20
0.0000000000000426
 30
0.0
 11
0.0599999999999952
 21
0.0000000000000346
 31
0.0
  0
LINE
  5
3E
100
AcDbEntity
  8
USP-GEO
100
AcDbLine
 10
0.2500000000000035
 20
-0.0629999999999598
 30
0.0
 11
0.0599999999999987
 21
-0.0629999999999678
 31
0.0
  0
LINE
  5
3F
100
AcDbEntity
  8
USP-GEO
100
AcDbLine
 10
0.0600000000000023
 20
-0.0629999999999669
 30
0.0
 11
0.0600000000000023
 21
0.000000000000032
 31
0.0
  0
LINE
  5
40
100
AcDbEntity
  8
USP-GEO
100
AcDbLine
 10
0.0599999999999952
 20
0.0000000000000355
 30
0.0
 11
0.0000000000000071
 21
0.0000000000000355
 31
0.0
  0
LINE
  5
41
100
AcDbEntity
  8
USP-GEO
100
AcDbLine
 10
0.0000000000000107
 20
-0.0629999999999669
 30
0.0
 11
0.0000000000000107
 21
0.0000000000000355
 31
0.0
  0
LINE
  5
42
100
AcDbEntity
  8
USP-GEO
100
AcDbLine
 10
0.0000000000000107
 20
-0.0629999999999669
 30
0.0
 11
0.0600000000000023
 21
-0.0629999999999669
 31
0.0
  0
LINE
  5
43
100
AcDbEntity
  8
USP-GEO
100
AcDbLine
 10
0.3386269330410414
 20
0.0727461339178861
 30
0.0
 11
0.6249999999999929
 21
0.3591192008768242
 31
0.0
  0
LINE
  5
44
100
AcDbEntity
  8
USP-GEO
100
AcDbLine
 10
0.6250000000000036
 20
0.359119200876826
 30
0.0
 11
0.625
 21
0.0000000000000115
 31
0.0
  0
LINE
  5
45
100
AcDbEntity
  8
USP-HID
100
AcDbLine
 10
0.8749999999999964
 20
0.0000000000000044
 30
0.0
 11
0.625
 21
0.25
 31
0.0
  0
LINE
  5
46
100
AcDbEntity
  8
USP-HID
100
AcDbLine
 10
0.6249999999999965
 20
0.2500000000000027
 30
0.0
 11
0.3749999999999929
 21
-0.0000000000000036
 31
0.0
  0
LINE
  5
47
100
AcDbEntity
  8
USP-GEO
100
AcDbLine
 10
0.3386269330410343
 20
0.0727461339178843
 30
0.0
 11
0.3386269330410343
 21
-0.0000000000000044
 31
0.0
  0
LINE
  5
48
100
AcDbEntity
  8
USP-GEO
100
AcDbLine
 10
0.2500000000000035
 20
-0.0629999999999598
 30
0.0
 11
0.2500000000000035
 21
0.0000000000000426
 31
0.0
  0
LINE
  5
49
100
AcDbEntity
  8
USP-HID
100
AcDbLine
 10
0.3749999999999929
 20
-0.0000000000000036
 30
0.0
 11
0.3749999999999929
 21
-0.0630000000000024
 31
0.0
  0
LINE
  5
4A
100
AcDbEntity
  8
USP-HID
100
AcDbLine
 10
0.3749999999999858
 20
-0.0000000000000071
 30
0.0
 11
0.3386269330410379
 21
0.0727461339178905
 31
0.0
  0
LINE
  5
4B
100
AcDbEntity
  8
USP-HID
100
AcDbLine
 10
0.875
 20
-0.0629999999999953
 30
0.0
 11
0.875
 21
0.0000000000000071
 31
0.0
  0
LINE
  5
4C
100
AcDbEntity
  8
USP-HID
100
AcDbLine
 10
0.625
 20
-0.0629999999999953
 30
0.0
 11
0.625
 21
0.0000000000000071
 31
0.0
  0
LINE
  5
4D
100
AcDbEntity
  8
USP-GEO
100
AcDbLine
 10
0.9113730669589301
 20
0.0727461339178826
 30
0.0
 11
0.9113730669589301
 21
0.0000000000000027
 31
0.0
  0
LINE
  5
4E
100
AcDbEntity
  8
USP-GEO
100
AcDbLine
 10
1.25
 20
0.0000000000000355
 30
0.0
 11
1.189999999999997
 21
0.0000000000000355
 31
0.0
  0
LINE
  5
4F
100
AcDbEntity
  8
USP-GEO
100
AcDbLine
 10
1.189999999999997
 20
-0.0629999999999598
 30
0.0
 11
1.189999999999997
 21
0.0000000000000391
 31
0.0
  0
LINE
  5
50
100
AcDbEntity
  8
USP-GEO
100
AcDbLine
 10
1.25
 20
-0.0629999999999633
 30
0.0
 11
1.189999999999997
 21
-0.0629999999999633
 31
0.0
  0
LINE
  5
51
100
AcDbEntity
  8
USP-GEO
100
AcDbLine
 10
1.25
 20
-0.0629999999999633
 30
0.0
 11
1.25
 21
0.0000000000000355
 31
0.0
  0
LINE
  5
52
100
AcDbEntity
  8
USP-GEO
100
AcDbLine
 10
1.190000000000001
 20
0.0000000000000435
 30
0.0
 11
1.000000000000007
 21
0.0000000000000497
 31
0.0
  0
LINE
  5
53
100
AcDbEntity
  8
USP-GEO
100
AcDbLine
 10
1.000000000000007
 20
-0.0629999999999598
 30
0.0
 11
1.000000000000007
 21
0.0000000000000497
 31
0.0
  0
LINE
  5
54
100
AcDbEntity
  8
USP-GEO
100
AcDbLine
 10
1.000000000000007
 20
-0.0629999999999598
 30
0.0
 11
1.190000000000004
 21
-0.062999999999966
 31
0.0
  0
LINE
  5
55
100
AcDbEntity
  8
USP-GEO
100
AcDbLine
 10
0.0299999999999869
 20
2.186999999999997
 30
0.0
 11
-0.0000000000000142
 21
2.186999999999997
 31
0.0
  0
ARC
  5
56
100
AcDbEntity
  8
USP-GEO
100
AcDbCircle
 10
0.0299999999999869
 20
2.154999999999994
 30
0.0
 40
0.032
100
AcDbArc
 50
359.9999999999997
 51
89.9999999999998
  0
LINE
  5
57
100
AcDbEntity
  8
USP-GEO
100
AcDbLine
 10
0.0619999999999905
 20
1.844999999999991
 30
0.0
 11
0.0619999999999905
 21
2.154999999999994
 31
0.0
  0
ARC
  5
58
100
AcDbEntity
  8
USP-GEO
100
AcDbCircle
 10
0.0299999999999869
 20
1.844999999999991
 30
0.0
 40
0.032
100
AcDbArc
 50
269.9999999999997
 51
359.9999999999997
  0
LINE
  5
59
100
AcDbEntity
  8
USP-GEO
100
AcDbLine
 10
-0.0000000000000071
 20
1.813000000000002
 30
0.0
 11
0.0299999999999869
 21
1.812999999999995
 31
0.0
  0
LINE
  5
5A
100
AcDbEntity
  8
USP-GEO
100
AcDbLine
 10
1.219999999999984
 20
1.813000000000009
 30
0.0
 11
1.249999999999996
 21
1.813000000000002
 31
0.0
  0
ARC
  5
5B
100
AcDbEntity
  8
USP-GEO
100
AcDbCircle
 10
1.219999999999984
 20
1.845000000000005
 30
0.0
 40
0.032
100
AcDbArc
 50
179.9999999999998
 51
269.9999999999997
  0
LINE
  5
5C
100
AcDbEntity
  8
USP-GEO
100
AcDbLine
 10
1.187999999999988
 20
2.155000000000001
 30
0.0
 11
1.187999999999988
 21
1.844999999999998
 31
0.0
  0
ARC
  5
5D
100
AcDbEntity
  8
USP-GEO
100
AcDbCircle
 10
1.219999999999984
 20
2.154999999999994
 30
0.0
 40
0.032
100
AcDbArc
 50
89.9999999999998
 51
179.9999999999998
  0
LINE
  5
5E
100
AcDbEntity
  8
USP-GEO
100
AcDbLine
 10
1.249999999999992
 20
2.186999999999997
 30
0.0
 11
1.219999999999984
 21
2.18699999999999
 31
0.0
  0
CIRCLE
  5
5F
100
AcDbEntity
  8
USP-GEO
100
AcDbCircle
 10
0.9379999999999739
 20
6.031999999999989
 30
0.0
 40
0.082
  0
CIRCLE
  5
60
100
AcDbEntity
  8
USP-GEO
100
AcDbCircle
 10
0.9379999999999668
 20
7.575000000000009
 30
0.0
 40
0.082
  0
CIRCLE
  5
61
100
AcDbEntity
  8
USP-GEO
100
AcDbCircle
 10
0.3119999999999763
 20
6.950000000000017
 30
0.0
 40
0.082
  0
CIRCLE
  5
62
100
AcDbEntity
  8
USP-GEO
100
AcDbCircle
 10
0.3119999999999692
 20
8.200000000000013
 30
0.0
 40
0.082
  0
CIRCLE
  5
63
100
AcDbEntity
  8
USP-GEO
100
AcDbCircle
 10
0.9379999999999633
 20
8.825000000000009
 30
0.0
 40
0.082
  0
CIRCLE
  5
64
100
AcDbEntity
  8
USP-GEO
100
AcDbCircle
 10
0.3119999999999621
 20
10.07500000000001
 30
0.0
 40
0.082
  0
CIRCLE
  5
65
100
AcDbEntity
  8
USP-GEO
100
AcDbCircle
 10
0.9379999999999562
 20
12.32500000000001
 30
0.0
 40
0.082
  0
CIRCLE
  5
66
100
AcDbEntity
  8
USP-GEO
100
AcDbCircle
 10
0.9379999999999597
 20
10.82500000000001
 30
0.0
 40
0.082
  0
CIRCLE
  5
67
100
AcDbEntity
  8
USP-GEO
100
AcDbCircle
 10
0.311999999999955
 20
11.575
 30
0.0
 40
0.082
  0
CIRCLE
  5
68
100
AcDbEntity
  8
USP-GEO
100
AcDbCircle
 10
0.9379999999999526
 20
13.425
 30
0.0
 40
0.082
  0
CIRCLE
  5
69
100
AcDbEntity
  8
USP-GEO
100
AcDbCircle
 10
0.9379999999999455
 20
14.525
 30
0.0
 40
0.082
  0
CIRCLE
  5
6A
100
AcDbEntity
  8
USP-GEO
100
AcDbCircle
 10
0.311999999999955
 20
12.87500000000001
 30
0.0
 40
0.082
  0
CIRCLE
  5
6B
100
AcDbEntity
  8
USP-GEO
100
AcDbCircle
 10
0.3119999999999479
 20
13.975
 30
0.0
 40
0.082
  0
CIRCLE
  5
6C
100
AcDbEntity
  8
USP-GEO
100
AcDbCircle
 10
0.9379999999999455
 20
15.625
 30
0.0
 40
0.082
  0
CIRCLE
  5
6D
100
AcDbEntity
  8
USP-GEO
100
AcDbCircle
 10
0.3119999999999479
 20
15.07499999999999
 30
0.0
 40
0.082
  0
CIRCLE
  5
6E
100
AcDbEntity
  8
USP-GEO
100
AcDbCircle
 10
0.3119999999999408
 20
16.49999999999998
 30
0.0
 40
0.082
  0
CIRCLE
  5
6F
100
AcDbEntity
  8
USP-GEO
100
AcDbCircle
 10
0.9379999999999384
 20
17.49999999999999
 30
0.0
 40
0.082
  0
CIRCLE
  5
70
100
AcDbEntity
  8
USP-GEO
100
AcDbCircle
 10
0.3119999999999337
 20
18.5
 30
0.0
 40
0.082
  0
CIRCLE
  5
71
100
AcDbEntity
  8
USP-GEO
100
AcDbCircle
 10
0.9379999999999313
 20
19.5
 30
0.0
 40
0.082
  0
LINE
  5
72
100
AcDbEntity
  8
USP-GEO
100
AcDbLine
 10
-0.0000000000000711
 20
20.0
 30
0.0
 11
1.249999999999928
 21
19.99999999999999
 31
0.0
  0
ENDBLK
  5
74
100
AcDbEntity
  8
0
100
AcDbBlockEnd
  0
BLOCK
  5
B8
100
AcDbEntity
  8
0
100
AcDbBlockBegin
  2
HTA20-18_S
 70
     0
 10
0.0
 20
0.0
 30
0.0
  3
HTA20-18_S
  1

  0
LINE
  5
77
100
AcDbEntity
  8
USP-GEO
100
AcDbLine
 10
1.500000000000547
 20
20.06299999999994
 30
0.0
 11
1.500000000000053
 21
2.249999999999957
 31
0.0
  0
LINE
  5
78
100
AcDbEntity
  8
USP-GEO
100
AcDbLine
 10
1.563000000000055
 20
2.249999999999953
 30
0.0
 11
1.563000000000549
 21
20.06299999999994
 31
0.0
  0
TEXT
  5
79
100
AcDbEntity
  8
USP-TXT
100
AcDbText
 10
-1.489333333333335
 20
-1.6352458446244
 30
0.0
 40
0.25
  1
HTA20-18 - SIDE VIEW
 72
     1
 11
0.9064999999999976
 21
-1.6352458446244
 31
0.0
100
AcDbText
  0
LINE
  5
7A
100
AcDbEntity
  8
USP-GEO
100
AcDbLine
 10
1.5
 20
0.0629999999999607
 30
0.0
 11
0.2499999999999964
 21
0.0629999999999953
 31
0.0
  0
LINE
  5
7B
100
AcDbEntity
  8
USP-GEO
100
AcDbLine
 10
1.562999999999995
 20
-0.0000000000000391
 30
0.0
 11
0.2499999999999964
 21
-0.0000000000000027
 31
0.0
  0
LINE
  5
7C
100
AcDbEntity
  8
USP-GEO
100
AcDbLine
 10
0.2499999999999964
 20
-0.0000000000000036
 30
0.0
 11
0.2499999999999964
 21
0.0629999999999953
 31
0.0
  0
LINE
  5
7D
100
AcDbEntity
  8
USP-GEO
100
AcDbLine
 10
0.25
 20
0.0630000000000033
 30
0.0
 11
0.0
 21
0.0630000000000095
 31
0.0
  0
LINE
  5
7E
100
AcDbEntity
  8
USP-GEO
100
AcDbLine
 10
0.0
 20
0.0
 30
0.0
 11
0.0
 21
0.0630000000000095
 31
0.0
  0
LINE
  5
7F
100
AcDbEntity
  8
USP-GEO
100
AcDbLine
 10
0.0
 20
0.0
 30
0.0
 11
0.25
 21
-0.0000000000000062
 31
0.0
  0
LINE
  5
80
100
AcDbEntity
  8
USP-GEO
100
AcDbLine
 10
1.500000000000053
 20
1.875999999999969
 30
0.0
 11
1.5
 21
0.0629999999999598
 31
0.0
  0
LINE
  5
81
100
AcDbEntity
  8
USP-GEO
100
AcDbLine
 10
1.562999999999995
 20
-0.0000000000000391
 30
0.0
 11
1.563000000000048
 21
1.875999999999969
 31
0.0
  0
LINE
  5
82
100
AcDbEntity
  8
USP-GEO
100
AcDbLine
 10
1.5
 20
0.4221192008767858
 30
0.0
 11
1.140880799123188
 21
0.0629999999999704
 31
0.0
  0
LINE
  5
83
100
AcDbEntity
  8
USP-HID
100
AcDbLine
 10
1.5
 20
0.3129999999999597
 30
0.0
 11
1.25
 21
0.0629999999999562
 31
0.0
  0
LINE
  5
84
100
AcDbEntity
  8
USP-HID
100
AcDbLine
 10
1.562999999999995
 20
0.0629999999999598
 30
0.0
 11
1.499999999999992
 21
0.0629999999999615
 31
0.0
  0
LINE
  5
85
100
AcDbEntity
  8
USP-GEO
100
AcDbLine
 10
1.5
 20
0.1357461339178423
 30
0.0
 11
1.427253866082118
 21
0.0629999999999624
 31
0.0
  0
LINE
  5
86
100
AcDbEntity
  8
USP-HID
100
AcDbLine
 10
1.499999999999992
 20
-0.0000000000000355
 30
0.0
 11
1.499999999999992
 21
0.0629999999999669
 31
0.0
  0
LINE
  5
87
100
AcDbEntity
  8
USP-HID
100
AcDbLine
 10
1.249999999999989
 20
-0.0000000000000355
 30
0.0
 11
1.249999999999989
 21
0.0629999999999669
 31
0.0
  0
LINE
  5
88
100
AcDbEntity
  8
USP-HID
100
AcDbLine
 10
1.563000000000002
 20
0.3129999999999597
 30
0.0
 11
1.5
 21
0.3129999999999615
 31
0.0
  0
LINE
  5
89
100
AcDbEntity
  8
USP-GEO
100
AcDbLine
 10
1.563000000000045
 20
1.875999999999969
 30
0.0
 11
1.500000000000046
 21
1.875999999999971
 31
0.0
  0
LINE
  5
8A
100
AcDbEntity
  8
USP-GEO
100
AcDbLine
 10
1.563000000000055
 20
2.249999999999953
 30
0.0
 11
1.500000000000053
 21
2.249999999999955
 31
0.0
  0
LINE
  5
8B
100
AcDbEntity
  8
USP-GEO
100
AcDbLine
 10
1.500000000000049
 20
1.907999999999965
 30
0.0
 11
1.500000000000049
 21
1.875999999999965
 31
0.0
  0
LINE
  5
8C
100
AcDbEntity
  8
USP-GEO
100
AcDbLine
 10
1.500000000000053
 20
2.21799999999996
 30
0.0
 11
1.500000000000046
 21
1.907999999999958
 31
0.0
  0
LINE
  5
8D
100
AcDbEntity
  8
USP-GEO
100
AcDbLine
 10
1.50000000000006
 20
2.249999999999953
 30
0.0
 11
1.50000000000006
 21
2.217999999999953
 31
0.0
  0
LINE
  5
8E
100
AcDbEntity
  8
USP-GEO
100
AcDbLine
 10
1.563000000000059
 20
2.24999999999995
 30
0.0
 11
1.563000000000059
 21
2.21799999999995
 31
0.0
  0
LINE
  5
8F
100
AcDbEntity
  8
USP-GEO
100
AcDbLine
 10
1.563000000000048
 20
1.907999999999958
 30
0.0
 11
1.563000000000055
 21
2.217999999999957
 31
0.0
  0
LINE
  5
90
100
AcDbEntity
  8
USP-GEO
100
AcDbLine
 10
1.563000000000048
 20
1.907999999999962
 30
0.0
 11
1.563000000000048
 21
1.875999999999962
 31
0.0
  0
LINE
  5
91
100
AcDbEntity
  8
USP-HID
100
AcDbLine
 10
1.563000000000165
 20
6.176999999999948
 30
0.0
 11
1.50000000000017
 21
6.17699999999995
 31
0.0
  0
LINE
  5
92
100
AcDbEntity
  8
USP-HID
100
AcDbLine
 10
1.563000000000158
 20
6.012999999999949
 30
0.0
 11
1.500000000000163
 21
6.012999999999951
 31
0.0
  0
LINE
  5
93
100
AcDbEntity
  8
USP-HID
100
AcDbLine
 10
1.56300000000019
 20
7.094999999999973
 30
0.0
 11
1.500000000000188
 21
7.094999999999975
 31
0.0
  0
LINE
  5
94
100
AcDbEntity
  8
USP-HID
100
AcDbLine
 10
1.563000000000183
 20
6.930999999999972
 30
0.0
 11
1.500000000000181
 21
6.930999999999974
 31
0.0
  0
LINE
  5
95
100
AcDbEntity
  8
USP-HID
100
AcDbLine
 10
1.563000000000204
 20
7.719999999999966
 30
0.0
 11
1.500000000000213
 21
7.719999999999968
 31
0.0
  0
LINE
  5
96
100
AcDbEntity
  8
USP-HID
100
AcDbLine
 10
1.563000000000197
 20
7.555999999999965
 30
0.0
 11
1.500000000000206
 21
7.555999999999967
 31
0.0
  0
LINE
  5
97
100
AcDbEntity
  8
USP-HID
100
AcDbLine
 10
1.563000000000226
 20
8.34499999999997
 30
0.0
 11
1.50000000000022
 21
8.344999999999972
 31
0.0
  0
LINE
  5
98
100
AcDbEntity
  8
USP-HID
100
AcDbLine
 10
1.563000000000219
 20
8.180999999999968
 30
0.0
 11
1.500000000000213
 21
8.18099999999997
 31
0.0
  0
LINE
  5
99
100
AcDbEntity
  8
USP-HID
100
AcDbLine
 10
1.56300000000024
 20
8.969999999999966
 30
0.0
 11
1.500000000000245
 21
8.969999999999966
 31
0.0
  0
LINE
  5
9A
100
AcDbEntity
  8
USP-HID
100
AcDbLine
 10
1.563000000000233
 20
8.805999999999965
 30
0.0
 11
1.500000000000238
 21
8.805999999999968
 31
0.0
  0
LINE
  5
9B
100
AcDbEntity
  8
USP-HID
100
AcDbLine
 10
1.563000000000268
 20
10.05599999999997
 30
0.0
 11
1.500000000000266
 21
10.05599999999997
 31
0.0
  0
LINE
  5
9C
100
AcDbEntity
  8
USP-HID
100
AcDbLine
 10
1.563000000000275
 20
10.21999999999997
 30
0.0
 11
1.500000000000273
 21
10.21999999999997
 31
0.0
  0
LINE
  5
9D
100
AcDbEntity
  8
USP-HID
100
AcDbLine
 10
1.563000000000297
 20
10.96999999999997
 30
0.0
 11
1.500000000000294
 21
10.96999999999997
 31
0.0
  0
LINE
  5
9E
100
AcDbEntity
  8
USP-HID
100
AcDbLine
 10
1.56300000000029
 20
10.80599999999997
 30
0.0
 11
1.500000000000287
 21
10.80599999999997
 31
0.0
  0
LINE
  5
9F
100
AcDbEntity
  8
USP-HID
100
AcDbLine
 10
1.563000000000318
 20
11.71999999999995
 30
0.0
 11
1.500000000000312
 21
11.71999999999995
 31
0.0
  0
LINE
  5
A0
100
AcDbEntity
  8
USP-HID
100
AcDbLine
 10
1.563000000000311
 20
11.55599999999995
 30
0.0
 11
1.500000000000305
 21
11.55599999999996
 31
0.0
  0
LINE
  5
A1
100
AcDbEntity
  8
USP-HID
100
AcDbLine
 10
1.563000000000339
 20
12.46999999999996
 30
0.0
 11
1.500000000000337
 21
12.46999999999996
 31
0.0
  0
LINE
  5
A2
100
AcDbEntity
  8
USP-HID
100
AcDbLine
 10
1.563000000000332
 20
12.30599999999996
 30
0.0
 11
1.50000000000033
 21
12.30599999999997
 31
0.0
  0
LINE
  5
A3
100
AcDbEntity
  8
USP-HID
100
AcDbLine
 10
1.563000000000354
 20
13.01999999999997
 30
0.0
 11
1.500000000000351
 21
13.01999999999997
 31
0.0
  0
LINE
  5
A4
100
AcDbEntity
  8
USP-HID
100
AcDbLine
 10
1.563000000000347
 20
12.85599999999996
 30
0.0
 11
1.500000000000344
 21
12.85599999999997
 31
0.0
  0
LINE
  5
A5
100
AcDbEntity
  8
USP-HID
100
AcDbLine
 10
1.563000000000371
 20
13.56999999999996
 30
0.0
 11
1.500000000000369
 21
13.56999999999996
 31
0.0
  0
LINE
  5
A6
100
AcDbEntity
  8
USP-HID
100
AcDbLine
 10
1.563000000000364
 20
13.40599999999996
 30
0.0
 11
1.500000000000362
 21
13.40599999999996
 31
0.0
  0
LINE
  5
A7
100
AcDbEntity
  8
USP-HID
100
AcDbLine
 10
1.563000000000386
 20
14.11999999999995
 30
0.0
 11
1.500000000000383
 21
14.11999999999995
 31
0.0
  0
LINE
  5
A8
100
AcDbEntity
  8
USP-HID
100
AcDbLine
 10
1.563000000000378
 20
13.95599999999995
 30
0.0
 11
1.500000000000376
 21
13.95599999999996
 31
0.0
  0
LINE
  5
A9
100
AcDbEntity
  8
USP-HID
100
AcDbLine
 10
1.5630000000004
 20
14.66999999999996
 30
0.0
 11
1.500000000000397
 21
14.66999999999996
 31
0.0
  0
LINE
  5
AA
100
AcDbEntity
  8
USP-HID
100
AcDbLine
 10
1.563000000000393
 20
14.50599999999996
 30
0.0
 11
1.50000000000039
 21
14.50599999999996
 31
0.0
  0
LINE
  5
AB
100
AcDbEntity
  8
USP-HID
100
AcDbLine
 10
1.563000000000414
 20
15.21999999999995
 30
0.0
 11
1.500000000000412
 21
15.21999999999995
 31
0.0
  0
LINE
  5
AC
100
AcDbEntity
  8
USP-HID
100
AcDbLine
 10
1.563000000000407
 20
15.05599999999995
 30
0.0
 11
1.500000000000405
 21
15.05599999999995
 31
0.0
  0
LINE
  5
AD
100
AcDbEntity
  8
USP-HID
100
AcDbLine
 10
1.563000000000432
 20
15.76999999999995
 30
0.0
 11
1.500000000000429
 21
15.76999999999995
 31
0.0
  0
LINE
  5
AE
100
AcDbEntity
  8
USP-HID
100
AcDbLine
 10
1.563000000000425
 20
15.60599999999995
 30
0.0
 11
1.500000000000422
 21
15.60599999999995
 31
0.0
  0
LINE
  5
AF
100
AcDbEntity
  8
USP-HID
100
AcDbLine
 10
1.563000000000453
 20
16.64499999999994
 30
0.0
 11
1.500000000000447
 21
16.64499999999994
 31
0.0
  0
LINE
  5
B0
100
AcDbEntity
  8
USP-HID
100
AcDbLine
 10
1.563000000000446
 20
16.48099999999994
 30
0.0
 11
1.50000000000044
 21
16.48099999999995
 31
0.0
  0
LINE
  5
B1
100
AcDbEntity
  8
USP-HID
100
AcDbLine
 10
1.563000000000485
 20
17.64499999999995
 30
0.0
 11
1.500000000000483
 21
17.64499999999995
 31
0.0
  0
LINE
  5
B2
100
AcDbEntity
  8
USP-HID
100
AcDbLine
 10
1.563000000000478
 20
17.48099999999995
 30
0.0
 11
1.500000000000476
 21
17.48099999999995
 31
0.0
  0
LINE
  5
B3
100
AcDbEntity
  8
USP-HID
100
AcDbLine
 10
1.563000000000503
 20
18.64499999999996
 30
0.0
 11
1.500000000000504
 21
18.64499999999996
 31
0.0
  0
LINE
  5
B4
100
AcDbEntity
  8
USP-HID
100
AcDbLine
 10
1.563000000000496
 20
18.48099999999996
 30
0.0
 11
1.500000000000497
 21
18.48099999999996
 31
0.0
  0
LINE
  5
B5
100
AcDbEntity
  8
USP-HID
100
AcDbLine
 10
1.563000000000538
 20
19.64499999999995
 30
0.0
 11
1.500000000000536
 21
19.64499999999995
 31
0.0
  0
LINE
  5
B6
100
AcDbEntity
  8
USP-HID
100
AcDbLine
 10
1.563000000000531
 20
19.48099999999995
 30
0.0
 11
1.500000000000529
 21
19.48099999999995
 31
0.0
  0
LINE
  5
B7
100
AcDbEntity
  8
USP-GEO
100
AcDbLine
 10
1.563000000000549
 20
20.06299999999994
 30
0.0
 11
1.50000000000055
 21
20.06299999999995
 31
0.0
  0
ENDBLK
  5
B9
100
AcDbEntity
  8
0
100
AcDbBlockEnd
  0
ENDSEC
  0
SECTION
  2
ENTITIES
  0
INSERT
  5
3
100
AcDbEntity
  8
USP
100
AcDbBlockReference
  2
HTA20-18_T
 10
1.940339731733946
 20
26.43338419594613
 30
0.0
  0
INSERT
  5
32
100
AcDbEntity
  8
USP
100
AcDbBlockReference
  2
HTA20-18_F
 10
1.940339731733942
 20
1.698516341208769
 30
0.0
  0
INSERT
  5
75
100
AcDbEntity
  8
USP
100
AcDbBlockReference
  2
HTA20-18_S
 10
9.614674929878066
 20
1.635516341208809
 30
0.0
  0
ENDSEC
  0
SECTION
  2
OBJECTS
  0
DICTIONARY
  5
CF
102
{ACAD_XDICTIONARY
360
D0
102
}
100
AcDbDictionary
  3
ACAD_GROUP
350
CD
  3
ACAD_MLINESTYLE
350
CE
1001
ACAD
1000
TREAT_AS_HARD
1070
     0
  0
DICTIONARY
  5
F
100
AcDbDictionary
280
     1
1001
ACAD
1000
TREAT_AS_HARD
1070
     1
  0
DICTIONARY
  5
A
100
AcDbDictionary
280
     1
1001
ACAD
1000
TREAT_AS_HARD
1070
     1
  0
DICTIONARY
  5
1D
100
AcDbDictionary
280
     1
1001
ACAD
1000
TREAT_AS_HARD
1070
     1
  0
DICTIONARY
  5
D3
100
AcDbDictionary
280
     1
  0
DICTIONARY
  5
BA
100
AcDbDictionary
280
     1
1001
ACAD
1000
TREAT_AS_HARD
1070
     1
  0
DICTIONARY
  5
BE
100
AcDbDictionary
280
     1
1001
ACAD
1000
TREAT_AS_HARD
1070
     1
  0
DICTIONARY
  5
D0
100
AcDbDictionary
280
     1
  0
DICTIONARY
  5
CD
102
{ACAD_REACTORS
330
CF
102
}
100
AcDbDictionary
1001
ACAD
1000
TREAT_AS_HARD
1070
     0
  0
DICTIONARY
  5
CE
102
{ACAD_REACTORS
330
CF
102
}
100
AcDbDictionary
  3
STANDARD
350
D1
1001
ACAD
1000
TREAT_AS_HARD
1070
     0
  0
MLINESTYLE
  5
D1
102
{ACAD_REACTORS
330
CE
102
}
100
AcDbMlineStyle
  2
STANDARD
 70
     0
  3

 62
   256
 51
90.0
 52
90.0
 71
     2
 49
0.5
 62
   256
  6
BYLAYER
 49
-0.5
 62
   256
  6
BYLAYER
  0
ENDSEC
  0
EOF
