  0
SECTION
  2
HEADER
  9
$ACADVER
  1
AC1014
  9
$ACADMAINTVER
 70
     9
  9
$DWGCODEPAGE
  3
ANSI_1252
  9
$INSBASE
 10
0.0
 20
0.0
 30
0.0
  9
$EXTMIN
 10
0.0007476952861034
 20
0.000128080981564
 30
0.0
  9
$EXTMAX
 10
12.13444434794078
 20
24.53977382993387
 30
0.0
  9
$LIMMIN
 10
0.0
 20
0.0
  9
$LIMMAX
 10
12.0
 20
9.0
  9
$ORTHOMODE
 70
     1
  9
$REGENMODE
 70
     1
  9
$FILLMODE
 70
     1
  9
$QTEXTMODE
 70
     0
  9
$MIRRTEXT
 70
     0
  9
$DRAGMODE
 70
     2
  9
$LTSCALE
 40
1.5
  9
$OSMODE
 70
     0
  9
$ATTMODE
 70
     1
  9
$TEXTSIZE
 40
0.25
  9
$TRACEWID
 40
0.05
  9
$TEXTSTYLE
  7
STANDARD
  9
$CLAYER
  8
USP
  9
$CELTYPE
  6
BYLAYER
  9
$CECOLOR
 62
   256
  9
$CELTSCALE
 40
1.0
  9
$DELOBJ
 70
     1
  9
$DISPSILH
 70
     1
  9
$DIMSCALE
 40
6.0
  9
$DIMASZ
 40
0.125
  9
$DIMEXO
 40
0.0625
  9
$DIMDLI
 40
0.37890625
  9
$DIMRND
 40
0.0
  9
$DIMDLE
 40
0.0
  9
$DIMEXE
 40
0.09375
  9
$DIMTP
 40
0.0
  9
$DIMTM
 40
0.0
  9
$DIMTXT
 40
0.109375
  9
$DIMCEN
 40
0.0
  9
$DIMTSZ
 40
0.0
  9
$DIMTOL
 70
     0
  9
$DIMLIM
 70
     0
  9
$DIMTIH
 70
     1
  9
$DIMTOH
 70
     1
  9
$DIMSE1
 70
     0
  9
$DIMSE2
 70
     0
  9
$DIMTAD
 70
     0
  9
$DIMZIN
 70
     8
  9
$DIMBLK
  1

  9
$DIMASO
 70
     1
  9
$DIMSHO
 70
     1
  9
$DIMPOST
  1

  9
$DIMAPOST
  1

  9
$DIMALT
 70
     0
  9
$DIMALTD
 70
     2
  9
$DIMALTF
 40
25.4
  9
$DIMLFAC
 40
1.0
  9
$DIMTOFL
 70
     0
  9
$DIMTVP
 40
0.0
  9
$DIMTIX
 70
     0
  9
$DIMSOXD
 70
     0
  9
$DIMSAH
 70
     0
  9
$DIMBLK1
  1

  9
$DIMBLK2
  1

  9
$DIMSTYLE
  2
STANDARD
  9
$DIMCLRD
 70
     0
  9
$DIMCLRE
 70
     0
  9
$DIMCLRT
 70
   256
  9
$DIMTFAC
 40
1.0
  9
$DIMGAP
 40
0.08984375
  9
$DIMJUST
 70
     0
  9
$DIMSD1
 70
     0
  9
$DIMSD2
 70
     0
  9
$DIMTOLJ
 70
     1
  9
$DIMTZIN
 70
     0
  9
$DIMALTZ
 70
     0
  9
$DIMALTTZ
 70
     0
  9
$DIMFIT
 70
     3
  9
$DIMUPT
 70
     1
  9
$DIMUNIT
 70
     7
  9
$DIMDEC
 70
     4
  9
$DIMTDEC
 70
     4
  9
$DIMALTU
 70
     2
  9
$DIMALTTD
 70
     2
  9
$DIMTXSTY
  7
STANDARD
  9
$DIMAUNIT
 70
     0
  9
$LUNITS
 70
     5
  9
$LUPREC
 70
     6
  9
$SKETCHINC
 40
0.1
  9
$FILLETRAD
 40
0.0
  9
$AUNITS
 70
     0
  9
$AUPREC
 70
     1
  9
$MENU
  1
CUSTOM
  9
$ELEVATION
 40
0.0
  9
$PELEVATION
 40
0.0
  9
$THICKNESS
 40
0.0
  9
$LIMCHECK
 70
     0
  9
$BLIPMODE
 70
     0
  9
$CHAMFERA
 40
0.0
  9
$CHAMFERB
 40
0.0
  9
$CHAMFERC
 40
0.0
  9
$CHAMFERD
 40
0.0
  9
$SKPOLY
 70
     0
  9
$TDCREATE
 40
2451263.663231366
  9
$TDUPDATE
 40
2452759.745003796
  9
$TDINDWG
 40
0.5708168056
  9
$TDUSRTIMER
 40
0.5708168056
  9
$USRTIMER
 70
     1
  9
$ANGBASE
 50
0.0
  9
$ANGDIR
 70
     0
  9
$PDMODE
 70
     0
  9
$PDSIZE
 40
0.0
  9
$PLINEWID
 40
0.0
  9
$COORDS
 70
     1
  9
$SPLFRAME
 70
     0
  9
$SPLINETYPE
 70
     6
  9
$SPLINESEGS
 70
     8
  9
$ATTDIA
 70
     0
  9
$ATTREQ
 70
     0
  9
$HANDLING
 70
     1
  9
$HANDSEED
  5
CE
  9
$SURFTAB1
 70
     6
  9
$SURFTAB2
 70
     6
  9
$SURFTYPE
 70
     6
  9
$SURFU
 70
     6
  9
$SURFV
 70
     6
  9
$UCSNAME
  2

  9
$UCSORG
 10
0.0
 20
0.0
 30
0.0
  9
$UCSXDIR
 10
1.0
 20
0.0
 30
0.0
  9
$UCSYDIR
 10
0.0
 20
1.0
 30
0.0
  9
$PUCSNAME
  2

  9
$PUCSORG
 10
0.0
 20
0.0
 30
0.0
  9
$PUCSXDIR
 10
1.0
 20
0.0
 30
0.0
  9
$PUCSYDIR
 10
0.0
 20
1.0
 30
0.0
  9
$USERI1
 70
     0
  9
$USERI2
 70
     0
  9
$USERI3
 70
     0
  9
$USERI4
 70
     0
  9
$USERI5
 70
     0
  9
$USERR1
 40
0.0
  9
$USERR2
 40
0.0
  9
$USERR3
 40
0.0
  9
$USERR4
 40
0.0
  9
$USERR5
 40
0.0
  9
$WORLDVIEW
 70
     1
  9
$SHADEDGE
 70
     3
  9
$SHADEDIF
 70
    70
  9
$TILEMODE
 70
     1
  9
$MAXACTVP
 70
    16
  9
$PINSBASE
 10
0.0
 20
0.0
 30
0.0
  9
$PLIMCHECK
 70
     0
  9
$PEXTMIN
 10
1.000000000000000E+20
 20
1.000000000000000E+20
 30
1.000000000000000E+20
  9
$PEXTMAX
 10
-1.000000000000000E+20
 20
-1.000000000000000E+20
 30
-1.000000000000000E+20
  9
$PLIMMIN
 10
0.0
 20
0.0
  9
$PLIMMAX
 10
12.0
 20
9.0
  9
$UNITMODE
 70
     0
  9
$VISRETAIN
 70
     0
  9
$PLINEGEN
 70
     0
  9
$PSLTSCALE
 70
     0
  9
$TREEDEPTH
 70
  3020
  9
$PICKSTYLE
 70
     1
  9
$CMLSTYLE
  2
STANDARD
  9
$CMLJUST
 70
     0
  9
$CMLSCALE
 40
1.0
  9
$PROXYGRAPHICS
 70
     1
  9
$MEASUREMENT
 70
     0
  0
ENDSEC
  0
SECTION
  2
CLASSES
  0
CLASS
  1
ACDBDICTIONARYWDFLT
  2
AcDbDictionaryWithDefault
  3
AutoCAD 2000
 90
        0
280
     1
281
     0
  0
CLASS
  1
ACDBPLACEHOLDER
  2
AcDbPlaceHolder
  3
AutoCAD 2000
 90
        0
280
     1
281
     0
  0
CLASS
  1
LAYOUT
  2
AcDbLayout
  3
AutoCAD 2000
 90
        0
280
     1
281
     0
  0
CLASS
  1
DICTIONARYVAR
  2
AcDbDictionaryVar
  3
"AutoCAD"
 90
        0
280
     1
281
     0
  0
CLASS
  1
LONG_TRANSACTION
  2
AcDbLongTransaction
  3
AutoCAD 2000
 90
        0
280
     1
281
     0
  0
CLASS
  1
LWPOLYLINE
  2
AcDbPolyline
  3
"AutoCAD"
 90
        0
280
     1
281
     1
  0
CLASS
  1
HATCH
  2
AcDbHatch
  3
"ACAD_SEDONA"
 90
        0
280
     1
281
     1
  0
CLASS
  1
XRECORD
  2
AcDbXrecord
  3
"<Built In>"
 90
        0
280
     0
281
     0
  0
CLASS
  1
LONG_TRANSACTION
  2
AcDbLongTransaction
  3
AutoCAD 2000
 90
        0
280
     1
281
     0
  0
CLASS
  1
LWPOLYLINE
  2
AcDbPolyline
  3
"AutoCAD"
 90
        0
280
     1
281
     1
  0
CLASS
  1
HATCH
  2
AcDbHatch
  3
"ACAD_SEDONA"
 90
        0
280
     1
281
     1
  0
CLASS
  1
XRECORD
  2
AcDbXrecord
  3
"<Built In>"
 90
        0
280
     0
281
     0
  0
CLASS
  1
LONG_TRANSACTION
  2
AcDbLongTransaction
  3
AutoCAD 2000
 90
        0
280
     1
281
     0
  0
CLASS
  1
LWPOLYLINE
  2
AcDbPolyline
  3
"AutoCAD"
 90
        0
280
     1
281
     1
  0
CLASS
  1
HATCH
  2
AcDbHatch
  3
"ACAD_SEDONA"
 90
        0
280
     1
281
     1
  0
CLASS
  1
XRECORD
  2
AcDbXrecord
  3
"<Built In>"
 90
        0
280
     0
281
     0
  0
CLASS
  1
LONG_TRANSACTION
  2
AcDbLongTransaction
  3
AutoCAD 2000
 90
        0
280
     1
281
     0
  0
CLASS
  1
LWPOLYLINE
  2
AcDbPolyline
  3
"AutoCAD"
 90
        0
280
     1
281
     1
  0
CLASS
  1
HATCH
  2
AcDbHatch
  3
"ACAD_SEDONA"
 90
        0
280
     1
281
     1
  0
CLASS
  1
XRECORD
  2
AcDbXrecord
  3
"<Built In>"
 90
        0
280
     0
281
     0
  0
ENDSEC
  0
SECTION
  2
TABLES
  0
TABLE
  2
VPORT
  5
BB
100
AcDbSymbolTable
 70
     1
  0
VPORT
  5
CA
100
AcDbSymbolTableRecord
100
AcDbViewportTableRecord
  2
*ACTIVE
 70
     0
 10
0.0
 20
0.0
 11
1.0
 21
1.0
 12
-17.02841326803475
 22
23.04188580851167
 13
0.0
 23
0.0
 14
1.0
 24
1.0
 15
0.0
 25
0.0
 16
0.0
 26
0.0
 36
1.0
 17
23.09603071721725
 27
-10.27010416511325
 37
-10.44050274849355
 40
25.72382202075458
 41
1.457627118644067
 42
50.0
 43
10.55307667737539
 44
10.55307667737539
 50
0.0
 51
0.0
 71
     0
 72
   100
 73
     1
 74
     1
 75
     0
 76
     0
 77
     0
 78
     0
  0
ENDTAB
  0
TABLE
  2
LTYPE
  5
B7
100
AcDbSymbolTable
 70
     2
  0
LTYPE
  5
B8
100
AcDbSymbolTableRecord
100
AcDbLinetypeTableRecord
  2
BYBLOCK
 70
     0
  3

 72
    65
 73
     0
 40
0.0
  0
LTYPE
  5
6
100
AcDbSymbolTableRecord
100
AcDbLinetypeTableRecord
  2
BYLAYER
 70
     0
  3

 72
    65
 73
     0
 40
0.0
  0
LTYPE
  5
5
100
AcDbSymbolTableRecord
100
AcDbLinetypeTableRecord
  2
CONTINUOUS
 70
     0
  3
Solid line
 72
    65
 73
     0
 40
0.0
  0
LTYPE
  5
16
100
AcDbSymbolTableRecord
100
AcDbLinetypeTableRecord
  2
HIDDEN
 70
     0
  3
Hidden __ __ __ __ __ __ __ __ __ __ __ __ __ _
 72
    65
 73
     2
 40
0.375
 49
0.25
 74
     0
 49
-0.125
 74
     0
  0
ENDTAB
  0
TABLE
  2
LAYER
  5
B5
100
AcDbSymbolTable
 70
     5
  0
LAYER
  5
30
100
AcDbSymbolTableRecord
100
AcDbLayerTableRecord
  2
0
 70
     0
 62
     7
  6
CONTINUOUS
  0
LAYER
  5
E
102
{ACAD_XDICTIONARY
360
F
102
}
100
AcDbSymbolTableRecord
100
AcDbLayerTableRecord
  2
USP-GEO
 70
     0
 62
     7
  6
CONTINUOUS
  0
LAYER
  5
9
102
{ACAD_XDICTIONARY
360
A
102
}
100
AcDbSymbolTableRecord
100
AcDbLayerTableRecord
  2
USP-TXT
 70
     0
 62
     7
  6
CONTINUOUS
  0
LAYER
  5
14
102
{ACAD_XDICTIONARY
360
15
102
}
100
AcDbSymbolTableRecord
100
AcDbLayerTableRecord
  2
USP-HID
 70
     0
 62
     7
  6
HIDDEN
  0
LAYER
  5
4
100
AcDbSymbolTableRecord
100
AcDbLayerTableRecord
  2
USP
 70
     0
 62
     7
  6
CONTINUOUS
  0
ENDTAB
  0
TABLE
  2
STYLE
  5
B6
100
AcDbSymbolTable
 70
     1
  0
STYLE
  5
C
100
AcDbSymbolTableRecord
100
AcDbTextStyleTableRecord
  2
STANDARD
 70
     0
 40
0.0
 41
1.0
 50
0.0
 71
     0
 42
0.25
  3
txt
  4

  0
ENDTAB
  0
TABLE
  2
VIEW
  5
B9
100
AcDbSymbolTable
 70
     0
  0
ENDTAB
  0
TABLE
  2
UCS
  5
BA
100
AcDbSymbolTable
 70
     0
  0
ENDTAB
  0
TABLE
  2
APPID
  5
BE
100
AcDbSymbolTable
 70
     1
  0
APPID
  5
B
100
AcDbSymbolTableRecord
100
AcDbRegAppTableRecord
  2
ACAD
 70
     0
  0
ENDTAB
  0
TABLE
  2
DIMSTYLE
  5
BF
100
AcDbSymbolTable
 70
     1
  0
DIMSTYLE
105
C6
100
AcDbSymbolTableRecord
100
AcDbDimStyleTableRecord
  2
STANDARD
 70
     0
  3

  4

  5

  6

  7

 40
1.0
 41
0.18
 42
0.0625
 43
0.38
 44
0.18
 45
0.0
 46
0.0
 47
0.0
 48
0.0
140
0.18
141
0.09
142
0.0
143
25.4
144
1.0
145
0.0
146
1.0
147
0.09
 71
     0
 72
     0
 73
     1
 74
     1
 75
     0
 76
     0
 77
     0
 78
     0
170
     0
171
     2
172
     0
173
     0
174
     0
175
     0
176
     0
177
     0
178
     0
270
     2
271
     4
272
     4
273
     2
274
     2
340
C
275
     0
280
     0
281
     0
282
     0
283
     1
284
     0
285
     0
286
     0
287
     3
288
     0
  0
ENDTAB
  0
TABLE
  2
BLOCK_RECORD
  5
1
100
AcDbSymbolTable
 70
     3
  0
BLOCK_RECORD
  5
2
102
{ACAD_XDICTIONARY
360
AE
102
}
100
AcDbSymbolTableRecord
100
AcDbBlockTableRecord
  2
*MODEL_SPACE
  0
BLOCK_RECORD
  5
B1
102
{ACAD_XDICTIONARY
360
B2
102
}
100
AcDbSymbolTableRecord
100
AcDbBlockTableRecord
  2
*PAPER_SPACE
  0
BLOCK_RECORD
  5
7
100
AcDbSymbolTableRecord
100
AcDbBlockTableRecord
  2
HTA16-18_T
  0
BLOCK_RECORD
  5
33
100
AcDbSymbolTableRecord
100
AcDbBlockTableRecord
  2
HTA16-18_F
  0
BLOCK_RECORD
  5
72
100
AcDbSymbolTableRecord
100
AcDbBlockTableRecord
  2
HTA16-18_S
  0
ENDTAB
  0
ENDSEC
  0
SECTION
  2
BLOCKS
  0
BLOCK
  5
AF
100
AcDbEntity
  8
0
100
AcDbBlockBegin
  2
*MODEL_SPACE
 70
     0
 10
0.0
 20
0.0
 30
0.0
  3
*MODEL_SPACE
  1

  0
ENDBLK
  5
B0
100
AcDbEntity
  8
0
100
AcDbBlockEnd
  0
BLOCK
  5
B3
100
AcDbEntity
 67
     1
  8
0
100
AcDbBlockBegin
  2
*PAPER_SPACE
 70
     0
 10
0.0
 20
0.0
 30
0.0
  3
*PAPER_SPACE
  1

  0
ENDBLK
  5
B4
100
AcDbEntity
 67
     1
  8
0
100
AcDbBlockEnd
  0
BLOCK
  5
2F
100
AcDbEntity
  8
0
100
AcDbBlockBegin
  2
HTA16-18_T
 70
     0
 10
0.0
 20
0.0
 30
0.0
  3
HTA16-18_T
  1

  0
TEXT
  5
8
100
AcDbEntity
  8
USP-TXT
100
AcDbText
 10
-1.666666666666662
 20
-1.091305009574689
 30
0.0
 40
0.25
  1
HTA16-18 - TOP VIEW
 72
     1
 11
0.6250000000000036
 21
-1.091305009574689
 31
0.0
100
AcDbText
  0
LINE
  5
D
100
AcDbEntity
  8
USP-GEO
100
AcDbLine
 10
0.0000000000000497
 20
1.56299999999987
 30
0.0
 11
1.250000000000049
 21
1.562999999999881
 31
0.0
  0
LINE
  5
10
100
AcDbEntity
  8
USP-GEO
100
AcDbLine
 10
1.250000000000053
 20
1.499999999999886
 30
0.0
 11
0.000000000000048
 21
1.499999999999879
 31
0.0
  0
LINE
  5
11
100
AcDbEntity
  8
USP-GEO
100
AcDbLine
 10
0.6249999999999929
 20
1.140880799123191
 30
0.0
 11
0.3386269330410396
 21
1.427253866082114
 31
0.0
  0
LINE
  5
12
100
AcDbEntity
  8
USP-GEO
100
AcDbLine
 10
1.000000000000003
 20
0.0000000000000071
 30
0.0
 11
0.2500000000000035
 21
0.0
 31
0.0
  0
LINE
  5
13
100
AcDbEntity
  8
USP-HID
100
AcDbLine
 10
0.375
 20
1.5
 30
0.0
 11
0.6250000000000027
 21
1.25
 31
0.0
  0
LINE
  5
17
100
AcDbEntity
  8
USP-GEO
100
AcDbLine
 10
0.0
 20
0.2499999999999929
 30
0.0
 11
-0.0000000000000142
 21
1.5
 31
0.0
  0
LINE
  5
18
100
AcDbEntity
  8
USP-GEO
100
AcDbLine
 10
0.2500000000000035
 20
0.0
 30
0.0
 11
0.059999999999997
 21
0.25
 31
0.0
  0
LINE
  5
19
100
AcDbEntity
  8
USP-GEO
100
AcDbLine
 10
0.0599999999999987
 20
0.25
 30
0.0
 11
0.0000000000000036
 21
0.2499999999999929
 31
0.0
  0
LINE
  5
1A
100
AcDbEntity
  8
USP-GEO
100
AcDbLine
 10
0.0000000000000355
 20
1.499999999999886
 30
0.0
 11
0.0000000000000355
 21
1.562999999999881
 31
0.0
  0
LINE
  5
1B
100
AcDbEntity
  8
USP-HID
100
AcDbLine
 10
0.0620000000000047
 20
1.562999999999973
 30
0.0
 11
0.0620000000000047
 21
1.499999999999985
 31
0.0
  0
LINE
  5
1C
100
AcDbEntity
  8
USP-HID
100
AcDbLine
 10
0.2300000000000431
 20
1.562999999999881
 30
0.0
 11
0.2300000000000439
 21
1.499999999999886
 31
0.0
  0
LINE
  5
1D
100
AcDbEntity
  8
USP-GEO
100
AcDbLine
 10
0.3386269330410361
 20
1.499999999999992
 30
0.0
 11
0.3386269330410361
 21
1.427253866082118
 31
0.0
  0
LINE
  5
1E
100
AcDbEntity
  8
USP-HID
100
AcDbLine
 10
0.3940000000000427
 20
1.562999999999888
 30
0.0
 11
0.3940000000000436
 21
1.499999999999879
 31
0.0
  0
LINE
  5
1F
100
AcDbEntity
  8
USP-HID
100
AcDbLine
 10
0.3749999999999929
 20
1.562999999999995
 30
0.0
 11
0.3749999999999938
 21
1.499999999999992
 31
0.0
  0
LINE
  5
20
100
AcDbEntity
  8
USP-HID
100
AcDbLine
 10
0.3386269330410299
 20
1.427253866082125
 30
0.0
 11
0.3749999999999698
 21
1.500000000000003
 31
0.0
  0
LINE
  5
21
100
AcDbEntity
  8
USP-GEO
100
AcDbLine
 10
0.9113730669589283
 20
1.427253866082125
 30
0.0
 11
0.6249999999999947
 21
1.140880799123198
 31
0.0
  0
LINE
  5
22
100
AcDbEntity
  8
USP-HID
100
AcDbLine
 10
0.8749999999999804
 20
1.499999999999992
 30
0.0
 11
0.9113730669589257
 21
1.427253866082114
 31
0.0
  0
LINE
  5
23
100
AcDbEntity
  8
USP-HID
100
AcDbLine
 10
0.6249999999999992
 20
1.250000000000003
 30
0.0
 11
0.8749999999999928
 21
1.5
 31
0.0
  0
LINE
  5
24
100
AcDbEntity
  8
USP-GEO
100
AcDbLine
 10
0.6249999999999947
 20
1.499999999999996
 30
0.0
 11
0.6249999999999912
 21
1.140880799123198
 31
0.0
  0
LINE
  5
25
100
AcDbEntity
  8
USP-HID
100
AcDbLine
 10
0.6249999999999965
 20
1.563000000000002
 30
0.0
 11
0.6249999999999965
 21
1.5
 31
0.0
  0
LINE
  5
26
100
AcDbEntity
  8
USP-HID
100
AcDbLine
 10
0.8560000000000478
 20
1.562999999999881
 30
0.0
 11
0.8560000000000487
 21
1.499999999999886
 31
0.0
  0
LINE
  5
27
100
AcDbEntity
  8
USP-HID
100
AcDbLine
 10
0.8750000000000017
 20
1.562999999999995
 30
0.0
 11
0.8750000000000026
 21
1.5
 31
0.0
  0
LINE
  5
28
100
AcDbEntity
  8
USP-GEO
100
AcDbLine
 10
1.249999999999988
 20
1.5
 30
0.0
 11
1.249999999999996
 21
0.25
 31
0.0
  0
LINE
  5
29
100
AcDbEntity
  8
USP-GEO
100
AcDbLine
 10
1.190000000000002
 20
0.2500000000000035
 30
0.0
 11
1.000000000000003
 21
0.0
 31
0.0
  0
LINE
  5
2A
100
AcDbEntity
  8
USP-GEO
100
AcDbLine
 10
1.249999999999996
 20
0.25
 30
0.0
 11
1.189999999999997
 21
0.25
 31
0.0
  0
LINE
  5
2B
100
AcDbEntity
  8
USP-GEO
100
AcDbLine
 10
0.9113730669589195
 20
1.50000000000001
 30
0.0
 11
0.9113730669589186
 21
1.427253866082129
 31
0.0
  0
LINE
  5
2C
100
AcDbEntity
  8
USP-HID
100
AcDbLine
 10
1.020000000000047
 20
1.562999999999888
 30
0.0
 11
1.020000000000048
 21
1.499999999999879
 31
0.0
  0
LINE
  5
2D
100
AcDbEntity
  8
USP-GEO
100
AcDbLine
 10
1.250000000000033
 20
1.562999999999888
 30
0.0
 11
1.250000000000033
 21
1.499999999999886
 31
0.0
  0
LINE
  5
2E
100
AcDbEntity
  8
USP-HID
100
AcDbLine
 10
1.187999999999989
 20
1.562999999999988
 30
0.0
 11
1.187999999999989
 21
1.499999999999985
 31
0.0
  0
ENDBLK
  5
31
100
AcDbEntity
  8
0
100
AcDbBlockEnd
  0
BLOCK
  5
6F
100
AcDbEntity
  8
0
100
AcDbBlockBegin
  2
HTA16-18_F
 70
     0
 10
0.0
 20
0.0
 30
0.0
  3
HTA16-18_F
  1

  0
LINE
  5
34
100
AcDbEntity
  8
USP-GEO
100
AcDbLine
 10
1.250000000000037
 20
16.06299999999999
 30
0.0
 11
1.249999999999998
 21
2.250000000000003
 31
0.0
  0
LINE
  5
35
100
AcDbEntity
  8
USP-GEO
100
AcDbLine
 10
-0.0000000000000018
 20
2.250000000000007
 30
0.0
 11
0.0000000000000373
 21
16.06299999999999
 31
0.0
  0
TEXT
  5
36
100
AcDbEntity
  8
USP-TXT
100
AcDbText
 10
-1.916666666666665
 20
-1.780726158497699
 30
0.0
 40
0.25
  1
HTA16-18 - FRONT VIEW
 72
     1
 11
0.625
 21
-1.780726158497699
 31
0.0
100
AcDbText
  0
LINE
  5
37
100
AcDbEntity
  8
USP-GEO
100
AcDbLine
 10
0.3386269330410307
 20
0.1357461339179
 30
0.0
 11
0.6249999999999814
 21
0.4221192008768345
 31
0.0
  0
LINE
  5
38
100
AcDbEntity
  8
USP-GEO
100
AcDbLine
 10
1.0
 20
0.0629999999999993
 30
0.0
 11
0.25
 21
0.0630000000000015
 31
0.0
  0
LINE
  5
39
100
AcDbEntity
  8
USP-GEO
100
AcDbLine
 10
0.2499999999999991
 20
-0.0000000000000027
 30
0.0
 11
1.0
 21
-0.0000000000000049
 31
0.0
  0
LINE
  5
3A
100
AcDbEntity
  8
USP-HID
100
AcDbLine
 10
0.6249999999999947
 20
0.3130000000000084
 30
0.0
 11
0.3749999999999911
 21
0.063000000000006
 31
0.0
  0
ARC
  5
3B
100
AcDbEntity
  8
USP-GEO
100
AcDbCircle
 10
0.0300000000000029
 20
1.908000000000001
 30
0.0
 40
0.032
100
AcDbArc
 50
270.0000000000001
 51
0.0000000000001654
  0
LINE
  5
3C
100
AcDbEntity
  8
USP-GEO
100
AcDbLine
 10
-0.0000000000000089
 20
0.063000000000006
 30
0.0
 11
-0.0000000000000036
 21
1.876000000000017
 31
0.0
  0
LINE
  5
3D
100
AcDbEntity
  8
USP-GEO
100
AcDbLine
 10
0.25
 20
0.0630000000000015
 30
0.0
 11
0.0599999999999934
 21
0.063000000000004
 31
0.0
  0
LINE
  5
3E
100
AcDbEntity
  8
USP-GEO
100
AcDbLine
 10
0.2499999999999991
 20
-0.0000000000000027
 30
0.0
 11
0.059999999999989
 21
-0.0000000000000002
 31
0.0
  0
LINE
  5
3F
100
AcDbEntity
  8
USP-GEO
100
AcDbLine
 10
0.0599999999999952
 20
0.063000000000004
 30
0.0
 11
0.0
 21
0.0630000000000042
 31
0.0
  0
LINE
  5
40
100
AcDbEntity
  8
USP-GEO
100
AcDbLine
 10
0.0
 20
0.0
 30
0.0
 11
0.0599999999999916
 21
-0.0000000000000002
 31
0.0
  0
LINE
  5
41
100
AcDbEntity
  8
USP-GEO
100
AcDbLine
 10
0.0
 20
0.0
 30
0.0
 11
0.0
 21
0.0630000000000042
 31
0.0
  0
LINE
  5
42
100
AcDbEntity
  8
USP-GEO
100
AcDbLine
 10
0.0599999999999916
 20
-0.0000000000000009
 30
0.0
 11
0.0599999999999916
 21
0.0630000000000015
 31
0.0
  0
LINE
  5
43
100
AcDbEntity
  8
USP-GEO
100
AcDbLine
 10
0.2499999999999991
 20
-0.0000000000000027
 30
0.0
 11
0.2499999999999991
 21
0.0630000000000015
 31
0.0
  0
LINE
  5
44
100
AcDbEntity
  8
USP-GEO
100
AcDbLine
 10
0.3386269330410325
 20
0.1357461339178854
 30
0.0
 11
0.3386269330410325
 21
0.0630000000000077
 31
0.0
  0
LINE
  5
45
100
AcDbEntity
  8
USP-HID
100
AcDbLine
 10
0.3749999999999911
 20
0.063000000000006
 30
0.0
 11
0.3749999999999911
 21
0.0000000000000071
 31
0.0
  0
LINE
  5
46
100
AcDbEntity
  8
USP-HID
100
AcDbLine
 10
0.3749999999999805
 20
0.0629999999999997
 30
0.0
 11
0.338626933041037
 21
0.1357461339178911
 31
0.0
  0
LINE
  5
47
100
AcDbEntity
  8
USP-GEO
100
AcDbLine
 10
0.0
 20
1.876000000000017
 30
0.0
 11
0.0299999999999958
 21
1.876000000000009
 31
0.0
  0
ARC
  5
48
100
AcDbEntity
  8
USP-GEO
100
AcDbCircle
 10
0.0300000000000038
 20
2.218000000000004
 30
0.0
 40
0.032
100
AcDbArc
 50
0.0000000000001654
 51
90.00000000000017
  0
LINE
  5
49
100
AcDbEntity
  8
USP-GEO
100
AcDbLine
 10
0.0299999999999958
 20
2.250000000000007
 30
0.0
 11
0.0000000000000009
 21
2.250000000000007
 31
0.0
  0
LINE
  5
4A
100
AcDbEntity
  8
USP-GEO
100
AcDbLine
 10
0.0619999999999923
 20
1.908000000000009
 30
0.0
 11
0.0619999999999941
 21
2.218000000000008
 31
0.0
  0
CIRCLE
  5
4B
100
AcDbEntity
  8
USP-GEO
100
AcDbCircle
 10
0.3120000000000171
 20
7.013000000000023
 30
0.0
 40
0.082
  0
CIRCLE
  5
4C
100
AcDbEntity
  8
USP-GEO
100
AcDbCircle
 10
0.3120000000000074
 20
8.263000000000026
 30
0.0
 40
0.082
  0
ARC
  5
4D
100
AcDbEntity
  8
USP-GEO
100
AcDbCircle
 10
1.219999999999999
 20
1.908000000000006
 30
0.0
 40
0.032
100
AcDbArc
 50
180.0000000000001
 51
270.0000000000001
  0
LINE
  5
4E
100
AcDbEntity
  8
USP-GEO
100
AcDbLine
 10
0.624999999999992
 20
0.4221192008768283
 30
0.0
 11
0.9113730669589177
 21
0.1357461339178867
 31
0.0
  0
LINE
  5
4F
100
AcDbEntity
  8
USP-HID
100
AcDbLine
 10
0.911373066958915
 20
0.1357461339178911
 30
0.0
 11
0.8749999999999742
 21
0.0630000000000175
 31
0.0
  0
LINE
  5
50
100
AcDbEntity
  8
USP-HID
100
AcDbLine
 10
0.8749999999999911
 20
0.0630000000000108
 30
0.0
 11
0.6249999999999965
 21
0.3130000000000066
 31
0.0
  0
LINE
  5
51
100
AcDbEntity
  8
USP-GEO
100
AcDbLine
 10
0.6249999999999912
 20
0.4221192008768336
 30
0.0
 11
0.6249999999999876
 21
0.0630000000000073
 31
0.0
  0
LINE
  5
52
100
AcDbEntity
  8
USP-HID
100
AcDbLine
 10
0.6249999999999983
 20
0.0000000000000018
 30
0.0
 11
0.6249999999999983
 21
0.0630000000000051
 31
0.0
  0
LINE
  5
53
100
AcDbEntity
  8
USP-HID
100
AcDbLine
 10
0.8749999999999893
 20
0.0000000000000089
 30
0.0
 11
0.8749999999999893
 21
0.0630000000000086
 31
0.0
  0
LINE
  5
54
100
AcDbEntity
  8
USP-GEO
100
AcDbLine
 10
1.250000000000003
 20
1.876000000000015
 30
0.0
 11
1.249999999999992
 21
0.0630000000000077
 31
0.0
  0
LINE
  5
55
100
AcDbEntity
  8
USP-GEO
100
AcDbLine
 10
1.189999999999998
 20
0.0629999999999993
 30
0.0
 11
1.0
 21
0.062999999999998
 31
0.0
  0
LINE
  5
56
100
AcDbEntity
  8
USP-GEO
100
AcDbLine
 10
1.0
 20
-0.0000000000000036
 30
0.0
 11
1.189999999999999
 21
-0.0000000000000022
 31
0.0
  0
LINE
  5
57
100
AcDbEntity
  8
USP-GEO
100
AcDbLine
 10
0.9113730669589159
 20
0.1357461339178829
 30
0.0
 11
0.911373066958915
 21
0.0629999999999975
 31
0.0
  0
LINE
  5
58
100
AcDbEntity
  8
USP-GEO
100
AcDbLine
 10
1.0
 20
-0.0000000000000036
 30
0.0
 11
1.0
 21
0.062999999999998
 31
0.0
  0
LINE
  5
59
100
AcDbEntity
  8
USP-GEO
100
AcDbLine
 10
1.249999999999992
 20
0.0630000000000006
 30
0.0
 11
1.189999999999994
 21
0.0630000000000008
 31
0.0
  0
LINE
  5
5A
100
AcDbEntity
  8
USP-GEO
100
AcDbLine
 10
1.189999999999993
 20
-0.0000000000000018
 30
0.0
 11
1.189999999999993
 21
0.0630000000000006
 31
0.0
  0
LINE
  5
5B
100
AcDbEntity
  8
USP-GEO
100
AcDbLine
 10
1.249999999999993
 20
-0.0000000000000009
 30
0.0
 11
1.189999999999993
 21
-0.0000000000000007
 31
0.0
  0
LINE
  5
5C
100
AcDbEntity
  8
USP-GEO
100
AcDbLine
 10
1.249999999999993
 20
-0.0000000000000009
 30
0.0
 11
1.249999999999993
 21
0.0630000000000006
 31
0.0
  0
LINE
  5
5D
100
AcDbEntity
  8
USP-GEO
100
AcDbLine
 10
1.220000000000002
 20
1.87600000000001
 30
0.0
 11
1.249999999999995
 21
1.876000000000003
 31
0.0
  0
LINE
  5
5E
100
AcDbEntity
  8
USP-GEO
100
AcDbLine
 10
1.187999999999993
 20
2.217999999999999
 30
0.0
 11
1.187999999999992
 21
1.908000000000009
 31
0.0
  0
ARC
  5
5F
100
AcDbEntity
  8
USP-GEO
100
AcDbCircle
 10
1.220000000000002
 20
2.217999999999994
 30
0.0
 40
0.032
100
AcDbArc
 50
90.00000000000017
 51
180.0000000000001
  0
LINE
  5
60
100
AcDbEntity
  8
USP-GEO
100
AcDbLine
 10
1.249999999999998
 20
2.250000000000001
 30
0.0
 11
1.220000000000002
 21
2.249999999999994
 31
0.0
  0
CIRCLE
  5
61
100
AcDbEntity
  8
USP-GEO
100
AcDbCircle
 10
0.9380000000000139
 20
7.63800000000002
 30
0.0
 40
0.082
  0
CIRCLE
  5
62
100
AcDbEntity
  8
USP-GEO
100
AcDbCircle
 10
0.9380000000000094
 20
6.095000000000004
 30
0.0
 40
0.082
  0
CIRCLE
  5
63
100
AcDbEntity
  8
USP-GEO
100
AcDbCircle
 10
0.9380000000000165
 20
8.888000000000015
 30
0.0
 40
0.082
  0
LINE
  5
64
100
AcDbEntity
  8
USP-GEO
100
AcDbLine
 10
1.250000000000049
 20
16.063
 30
0.0
 11
0.0000000000000444
 21
16.06299999999999
 31
0.0
  0
CIRCLE
  5
65
100
AcDbEntity
  8
USP-GEO
100
AcDbCircle
 10
0.312000000000018
 20
10.13800000000002
 30
0.0
 40
0.082
  0
CIRCLE
  5
66
100
AcDbEntity
  8
USP-GEO
100
AcDbCircle
 10
0.3120000000000296
 20
11.63800000000001
 30
0.0
 40
0.082
  0
CIRCLE
  5
67
100
AcDbEntity
  8
USP-GEO
100
AcDbCircle
 10
0.3120000000000189
 20
12.93800000000002
 30
0.0
 40
0.082
  0
CIRCLE
  5
68
100
AcDbEntity
  8
USP-GEO
100
AcDbCircle
 10
0.3120000000000243
 20
14.03800000000001
 30
0.0
 40
0.082
  0
CIRCLE
  5
69
100
AcDbEntity
  8
USP-GEO
100
AcDbCircle
 10
0.3120000000000278
 20
15.138
 30
0.0
 40
0.082
  0
CIRCLE
  5
6A
100
AcDbEntity
  8
USP-GEO
100
AcDbCircle
 10
0.938000000000029
 20
13.48800000000001
 30
0.0
 40
0.082
  0
CIRCLE
  5
6B
100
AcDbEntity
  8
USP-GEO
100
AcDbCircle
 10
0.9380000000000174
 20
10.88800000000002
 30
0.0
 40
0.082
  0
CIRCLE
  5
6C
100
AcDbEntity
  8
USP-GEO
100
AcDbCircle
 10
0.9380000000000201
 20
12.38800000000002
 30
0.0
 40
0.082
  0
CIRCLE
  5
6D
100
AcDbEntity
  8
USP-GEO
100
AcDbCircle
 10
0.9380000000000308
 20
14.58800000000001
 30
0.0
 40
0.082
  0
CIRCLE
  5
6E
100
AcDbEntity
  8
USP-GEO
100
AcDbCircle
 10
0.9380000000000343
 20
15.68800000000001
 30
0.0
 40
0.082
  0
ENDBLK
  5
70
100
AcDbEntity
  8
0
100
AcDbBlockEnd
  0
BLOCK
  5
AC
100
AcDbEntity
  8
0
100
AcDbBlockBegin
  2
HTA16-18_S
 70
     0
 10
0.0
 20
0.0
 30
0.0
  3
HTA16-18_S
  1

  0
LINE
  5
73
100
AcDbEntity
  8
USP-GEO
100
AcDbLine
 10
1.499999999999886
 20
16.063
 30
0.0
 11
1.499999999999989
 21
2.250000000000007
 31
0.0
  0
LINE
  5
74
100
AcDbEntity
  8
USP-GEO
100
AcDbLine
 10
1.562999999999981
 20
2.250000000000006
 30
0.0
 11
1.562999999999878
 21
16.063
 31
0.0
  0
TEXT
  5
75
100
AcDbEntity
  8
USP-TXT
100
AcDbText
 10
-1.4685
 20
-1.780726158497696
 30
0.0
 40
0.25
  1
HTA16-18 - SIDE VIEW
 72
     1
 11
0.9064999999999994
 21
-1.780726158497696
 31
0.0
100
AcDbText
  0
LINE
  5
76
100
AcDbEntity
  8
USP-GEO
100
AcDbLine
 10
1.499999999999994
 20
0.4221192008768372
 30
0.0
 11
1.140880799123195
 21
0.0630000000000108
 31
0.0
  0
LINE
  5
77
100
AcDbEntity
  8
USP-GEO
100
AcDbLine
 10
1.5
 20
0.0630000000000133
 30
0.0
 11
0.25
 21
0.0630000000000042
 31
0.0
  0
LINE
  5
78
100
AcDbEntity
  8
USP-GEO
100
AcDbLine
 10
1.562999999999998
 20
0.0000000000000098
 30
0.0
 11
0.25
 21
0.0000000000000002
 31
0.0
  0
LINE
  5
79
100
AcDbEntity
  8
USP-HID
100
AcDbLine
 10
1.5
 20
0.3130000000000066
 30
0.0
 11
1.250000000000008
 21
0.0629999999999966
 31
0.0
  0
LINE
  5
7A
100
AcDbEntity
  8
USP-GEO
100
AcDbLine
 10
0.2500000000000035
 20
0.0630000000000028
 30
0.0
 11
0.0
 21
0.0630000000000015
 31
0.0
  0
LINE
  5
7B
100
AcDbEntity
  8
USP-GEO
100
AcDbLine
 10
0.0
 20
0.0
 30
0.0
 11
0.2500000000000071
 21
0.0000000000000013
 31
0.0
  0
LINE
  5
7C
100
AcDbEntity
  8
USP-GEO
100
AcDbLine
 10
0.0
 20
0.0
 30
0.0
 11
0.0
 21
0.0630000000000015
 31
0.0
  0
LINE
  5
7D
100
AcDbEntity
  8
USP-GEO
100
AcDbLine
 10
0.25
 20
0.0000000000000027
 30
0.0
 11
0.25
 21
0.0630000000000042
 31
0.0
  0
LINE
  5
7E
100
AcDbEntity
  8
USP-HID
100
AcDbLine
 10
1.249999999999998
 20
0.0000000000000053
 30
0.0
 11
1.249999999999998
 21
0.0630000000000086
 31
0.0
  0
LINE
  5
7F
100
AcDbEntity
  8
USP-GEO
100
AcDbLine
 10
1.499999999999978
 20
1.908000000000009
 30
0.0
 11
1.499999999999978
 21
1.876000000000009
 31
0.0
  0
LINE
  5
80
100
AcDbEntity
  8
USP-GEO
100
AcDbLine
 10
1.562999999999986
 20
1.908000000000009
 30
0.0
 11
1.562999999999986
 21
1.876000000000009
 31
0.0
  0
LINE
  5
81
100
AcDbEntity
  8
USP-GEO
100
AcDbLine
 10
1.499999999999989
 20
1.876000000000018
 30
0.0
 11
1.500000000000003
 21
0.0630000000000113
 31
0.0
  0
LINE
  5
82
100
AcDbEntity
  8
USP-GEO
100
AcDbLine
 10
1.563
 20
0.0000000000000098
 30
0.0
 11
1.562999999999986
 21
1.876000000000017
 31
0.0
  0
LINE
  5
83
100
AcDbEntity
  8
USP-HID
100
AcDbLine
 10
1.562999999999995
 20
0.0630000000000095
 30
0.0
 11
1.500000000000001
 21
0.0630000000000091
 31
0.0
  0
LINE
  5
84
100
AcDbEntity
  8
USP-HID
100
AcDbLine
 10
1.562999999999998
 20
0.3130000000000093
 30
0.0
 11
1.499999999999996
 21
0.3130000000000093
 31
0.0
  0
LINE
  5
85
100
AcDbEntity
  8
USP-GEO
100
AcDbLine
 10
1.500000000000008
 20
0.135746133917886
 30
0.0
 11
1.427253866082129
 21
0.0630000000000011
 31
0.0
  0
LINE
  5
86
100
AcDbEntity
  8
USP-HID
100
AcDbLine
 10
1.500000000000001
 20
0.0000000000000124
 30
0.0
 11
1.500000000000001
 21
0.0630000000000122
 31
0.0
  0
LINE
  5
87
100
AcDbEntity
  8
USP-GEO
100
AcDbLine
 10
1.562999999999982
 20
1.876000000000017
 30
0.0
 11
1.499999999999991
 21
1.876000000000017
 31
0.0
  0
LINE
  5
88
100
AcDbEntity
  8
USP-GEO
100
AcDbLine
 10
1.562999999999981
 20
2.250000000000006
 30
0.0
 11
1.499999999999989
 21
2.250000000000006
 31
0.0
  0
LINE
  5
89
100
AcDbEntity
  8
USP-GEO
100
AcDbLine
 10
1.49999999999998
 20
2.218000000000003
 30
0.0
 11
1.499999999999982
 21
1.908000000000013
 31
0.0
  0
LINE
  5
8A
100
AcDbEntity
  8
USP-GEO
100
AcDbLine
 10
1.499999999999978
 20
2.249999999999998
 30
0.0
 11
1.499999999999978
 21
2.217999999999998
 31
0.0
  0
LINE
  5
8B
100
AcDbEntity
  8
USP-GEO
100
AcDbLine
 10
1.562999999999988
 20
2.249999999999995
 30
0.0
 11
1.562999999999988
 21
2.217999999999995
 31
0.0
  0
LINE
  5
8C
100
AcDbEntity
  8
USP-GEO
100
AcDbLine
 10
1.562999999999984
 20
1.908000000000009
 30
0.0
 11
1.562999999999982
 21
2.218000000000005
 31
0.0
  0
LINE
  5
8D
100
AcDbEntity
  8
USP-HID
100
AcDbLine
 10
1.562999999999952
 20
6.177000000000002
 30
0.0
 11
1.499999999999957
 21
6.177000000000002
 31
0.0
  0
LINE
  5
8E
100
AcDbEntity
  8
USP-HID
100
AcDbLine
 10
1.562999999999952
 20
6.013000000000002
 30
0.0
 11
1.499999999999957
 21
6.013000000000001
 31
0.0
  0
LINE
  5
8F
100
AcDbEntity
  8
USP-HID
100
AcDbLine
 10
1.56299999999994
 20
7.095000000000024
 30
0.0
 11
1.499999999999944
 21
7.095000000000024
 31
0.0
  0
LINE
  5
90
100
AcDbEntity
  8
USP-HID
100
AcDbLine
 10
1.56299999999994
 20
6.931000000000024
 30
0.0
 11
1.499999999999944
 21
6.931000000000024
 31
0.0
  0
LINE
  5
91
100
AcDbEntity
  8
USP-HID
100
AcDbLine
 10
1.562999999999938
 20
7.556000000000019
 30
0.0
 11
1.499999999999946
 21
7.556000000000019
 31
0.0
  0
LINE
  5
92
100
AcDbEntity
  8
USP-HID
100
AcDbLine
 10
1.562999999999938
 20
7.720000000000021
 30
0.0
 11
1.499999999999946
 21
7.720000000000021
 31
0.0
  0
LINE
  5
93
100
AcDbEntity
  8
USP-HID
100
AcDbLine
 10
1.562999999999931
 20
8.345000000000023
 30
0.0
 11
1.499999999999943
 21
8.345000000000023
 31
0.0
  0
LINE
  5
94
100
AcDbEntity
  8
USP-HID
100
AcDbLine
 10
1.562999999999931
 20
8.181000000000022
 30
0.0
 11
1.499999999999943
 21
8.181000000000022
 31
0.0
  0
LINE
  5
95
100
AcDbEntity
  8
USP-HID
100
AcDbLine
 10
1.562999999999931
 20
8.970000000000016
 30
0.0
 11
1.499999999999936
 21
8.970000000000016
 31
0.0
  0
LINE
  5
96
100
AcDbEntity
  8
USP-HID
100
AcDbLine
 10
1.562999999999931
 20
8.806000000000015
 30
0.0
 11
1.499999999999936
 21
8.806000000000015
 31
0.0
  0
LINE
  5
97
100
AcDbEntity
  8
USP-HID
100
AcDbLine
 10
1.562999999999915
 20
10.22000000000002
 30
0.0
 11
1.499999999999923
 21
10.22000000000002
 31
0.0
  0
LINE
  5
98
100
AcDbEntity
  8
USP-HID
100
AcDbLine
 10
1.562999999999915
 20
10.05600000000002
 30
0.0
 11
1.499999999999923
 21
10.05600000000002
 31
0.0
  0
LINE
  5
99
100
AcDbEntity
  8
USP-HID
100
AcDbLine
 10
1.562999999999915
 20
10.97000000000002
 30
0.0
 11
1.499999999999918
 21
10.97000000000002
 31
0.0
  0
LINE
  5
9A
100
AcDbEntity
  8
USP-HID
100
AcDbLine
 10
1.562999999999915
 20
10.80600000000002
 30
0.0
 11
1.499999999999918
 21
10.80600000000002
 31
0.0
  0
LINE
  5
9B
100
AcDbEntity
  8
USP-HID
100
AcDbLine
 10
1.562999999999906
 20
12.30600000000001
 30
0.0
 11
1.499999999999914
 21
12.30600000000001
 31
0.0
  0
LINE
  5
9C
100
AcDbEntity
  8
USP-HID
100
AcDbLine
 10
1.562999999999904
 20
11.72000000000001
 30
0.0
 11
1.499999999999912
 21
11.72000000000001
 31
0.0
  0
LINE
  5
9D
100
AcDbEntity
  8
USP-HID
100
AcDbLine
 10
1.562999999999904
 20
11.55600000000001
 30
0.0
 11
1.499999999999912
 21
11.55600000000001
 31
0.0
  0
LINE
  5
9E
100
AcDbEntity
  8
USP-HID
100
AcDbLine
 10
1.562999999999906
 20
12.47000000000002
 30
0.0
 11
1.499999999999914
 21
12.47000000000002
 31
0.0
  0
LINE
  5
9F
100
AcDbEntity
  8
USP-HID
100
AcDbLine
 10
1.562999999999901
 20
13.02000000000002
 30
0.0
 11
1.499999999999907
 21
13.02000000000002
 31
0.0
  0
LINE
  5
A0
100
AcDbEntity
  8
USP-HID
100
AcDbLine
 10
1.562999999999901
 20
12.85600000000002
 30
0.0
 11
1.499999999999907
 21
12.85600000000002
 31
0.0
  0
LINE
  5
A1
100
AcDbEntity
  8
USP-HID
100
AcDbLine
 10
1.562999999999897
 20
13.40600000000001
 30
0.0
 11
1.499999999999902
 21
13.40600000000001
 31
0.0
  0
LINE
  5
A2
100
AcDbEntity
  8
USP-HID
100
AcDbLine
 10
1.562999999999897
 20
13.57000000000001
 30
0.0
 11
1.499999999999902
 21
13.57000000000001
 31
0.0
  0
LINE
  5
A3
100
AcDbEntity
  8
USP-HID
100
AcDbLine
 10
1.56299999999989
 20
14.12000000000001
 30
0.0
 11
1.499999999999893
 21
14.12000000000001
 31
0.0
  0
LINE
  5
A4
100
AcDbEntity
  8
USP-HID
100
AcDbLine
 10
1.56299999999989
 20
13.95600000000001
 30
0.0
 11
1.499999999999893
 21
13.95600000000001
 31
0.0
  0
LINE
  5
A5
100
AcDbEntity
  8
USP-HID
100
AcDbLine
 10
1.562999999999881
 20
15.22
 30
0.0
 11
1.499999999999893
 21
15.22
 31
0.0
  0
LINE
  5
A6
100
AcDbEntity
  8
USP-HID
100
AcDbLine
 10
1.562999999999881
 20
15.056
 30
0.0
 11
1.499999999999893
 21
15.056
 31
0.0
  0
LINE
  5
A7
100
AcDbEntity
  8
USP-HID
100
AcDbLine
 10
1.56299999999989
 20
14.67000000000001
 30
0.0
 11
1.499999999999893
 21
14.67000000000001
 31
0.0
  0
LINE
  5
A8
100
AcDbEntity
  8
USP-HID
100
AcDbLine
 10
1.56299999999989
 20
14.50600000000001
 30
0.0
 11
1.499999999999893
 21
14.50600000000001
 31
0.0
  0
LINE
  5
A9
100
AcDbEntity
  8
USP-GEO
100
AcDbLine
 10
1.562999999999892
 20
16.063
 30
0.0
 11
1.499999999999889
 21
16.063
 31
0.0
  0
LINE
  5
AA
100
AcDbEntity
  8
USP-HID
100
AcDbLine
 10
1.562999999999879
 20
15.77000000000001
 30
0.0
 11
1.499999999999888
 21
15.77000000000001
 31
0.0
  0
LINE
  5
AB
100
AcDbEntity
  8
USP-HID
100
AcDbLine
 10
1.562999999999879
 20
15.606
 30
0.0
 11
1.499999999999888
 21
15.606
 31
0.0
  0
ENDBLK
  5
AD
100
AcDbEntity
  8
0
100
AcDbBlockEnd
  0
ENDSEC
  0
SECTION
  2
ENTITIES
  0
INSERT
  5
3
100
AcDbEntity
  8
USP
100
AcDbBlockReference
  2
HTA16-18_T
 10
1.917414361952765
 20
22.97677382993387
 30
0.0
  0
INSERT
  5
32
100
AcDbEntity
  8
USP
100
AcDbBlockReference
  2
HTA16-18_F
 10
1.917414361952769
 20
1.780854239479263
 30
0.0
  0
INSERT
  5
71
100
AcDbEntity
  8
USP
100
AcDbBlockReference
  2
HTA16-18_S
 10
8.852944347940768
 20
1.78085423947926
 30
0.0
  0
ENDSEC
  0
SECTION
  2
OBJECTS
  0
DICTIONARY
  5
C3
102
{ACAD_XDICTIONARY
360
C4
102
}
100
AcDbDictionary
  3
ACAD_GROUP
350
C1
  3
ACAD_MLINESTYLE
350
C2
1001
ACAD
1000
TREAT_AS_HARD
1070
     0
  0
DICTIONARY
  5
F
100
AcDbDictionary
280
     1
1001
ACAD
1000
TREAT_AS_HARD
1070
     1
  0
DICTIONARY
  5
A
100
AcDbDictionary
280
     1
1001
ACAD
1000
TREAT_AS_HARD
1070
     1
  0
DICTIONARY
  5
15
100
AcDbDictionary
280
     1
1001
ACAD
1000
TREAT_AS_HARD
1070
     1
  0
DICTIONARY
  5
AE
100
AcDbDictionary
280
     1
1001
ACAD
1000
TREAT_AS_HARD
1070
     1
  0
DICTIONARY
  5
B2
100
AcDbDictionary
280
     1
1001
ACAD
1000
TREAT_AS_HARD
1070
     1
  0
DICTIONARY
  5
C4
100
AcDbDictionary
280
     1
  0
DICTIONARY
  5
C1
102
{ACAD_REACTORS
330
C3
102
}
100
AcDbDictionary
1001
ACAD
1000
TREAT_AS_HARD
1070
     0
  0
DICTIONARY
  5
C2
102
{ACAD_REACTORS
330
C3
102
}
100
AcDbDictionary
  3
STANDARD
350
C5
1001
ACAD
1000
TREAT_AS_HARD
1070
     0
  0
MLINESTYLE
  5
C5
102
{ACAD_REACTORS
330
C2
102
}
100
AcDbMlineStyle
  2
STANDARD
 70
     0
  3

 62
     0
 51
90.0
 52
90.0
 71
     2
 49
0.5
 62
   256
  6
BYLAYER
 49
-0.5
 62
   256
  6
BYLAYER
  0
ENDSEC
  0
EOF
