  0
SECTION
  2
HEADER
  9
$ACADVER
  1
AC1014
  9
$ACADMAINTVER
 70
     9
  9
$DWGCODEPAGE
  3
ANSI_1252
  9
$INSBASE
 10
0.0
 20
0.0
 30
0.0
  9
$EXTMIN
 10
0.0004540882737722
 20
0.0001280228658018
 30
0.0
  9
$EXTMAX
 10
15.03945101789434
 20
17.79607354928035
 30
0.0
  9
$LIMMIN
 10
0.0
 20
0.0
  9
$LIMMAX
 10
12.0
 20
9.0
  9
$ORTHOMODE
 70
     1
  9
$REGENMODE
 70
     1
  9
$FILLMODE
 70
     1
  9
$QTEXTMODE
 70
     0
  9
$MIRRTEXT
 70
     0
  9
$DRAGMODE
 70
     2
  9
$LTSCALE
 40
1.5
  9
$OSMODE
 70
     0
  9
$ATTMODE
 70
     1
  9
$TEXTSIZE
 40
0.75
  9
$TRACEWID
 40
0.05
  9
$TEXTSTYLE
  7
STANDARD
  9
$CLAYER
  8
USP
  9
$CELTYPE
  6
BYLAYER
  9
$CECOLOR
 62
   256
  9
$CELTSCALE
 40
1.0
  9
$DELOBJ
 70
     1
  9
$DISPSILH
 70
     1
  9
$DIMSCALE
 40
7.0
  9
$DIMASZ
 40
0.125
  9
$DIMEXO
 40
0.0625
  9
$DIMDLI
 40
0.37890625
  9
$DIMRND
 40
0.0
  9
$DIMDLE
 40
0.0
  9
$DIMEXE
 40
0.09375
  9
$DIMTP
 40
0.0
  9
$DIMTM
 40
0.0
  9
$DIMTXT
 40
0.109375
  9
$DIMCEN
 40
0.0
  9
$DIMTSZ
 40
0.0
  9
$DIMTOL
 70
     0
  9
$DIMLIM
 70
     0
  9
$DIMTIH
 70
     1
  9
$DIMTOH
 70
     1
  9
$DIMSE1
 70
     0
  9
$DIMSE2
 70
     0
  9
$DIMTAD
 70
     0
  9
$DIMZIN
 70
     8
  9
$DIMBLK
  1

  9
$DIMASO
 70
     1
  9
$DIMSHO
 70
     1
  9
$DIMPOST
  1

  9
$DIMAPOST
  1

  9
$DIMALT
 70
     0
  9
$DIMALTD
 70
     2
  9
$DIMALTF
 40
25.4
  9
$DIMLFAC
 40
1.0
  9
$DIMTOFL
 70
     0
  9
$DIMTVP
 40
0.0
  9
$DIMTIX
 70
     0
  9
$DIMSOXD
 70
     0
  9
$DIMSAH
 70
     0
  9
$DIMBLK1
  1

  9
$DIMBLK2
  1

  9
$DIMSTYLE
  2
STANDARD
  9
$DIMCLRD
 70
     0
  9
$DIMCLRE
 70
     0
  9
$DIMCLRT
 70
   256
  9
$DIMTFAC
 40
1.0
  9
$DIMGAP
 40
0.08984375
  9
$DIMJUST
 70
     0
  9
$DIMSD1
 70
     0
  9
$DIMSD2
 70
     0
  9
$DIMTOLJ
 70
     1
  9
$DIMTZIN
 70
     0
  9
$DIMALTZ
 70
     0
  9
$DIMALTTZ
 70
     0
  9
$DIMFIT
 70
     3
  9
$DIMUPT
 70
     1
  9
$DIMUNIT
 70
     7
  9
$DIMDEC
 70
     4
  9
$DIMTDEC
 70
     4
  9
$DIMALTU
 70
     2
  9
$DIMALTTD
 70
     2
  9
$DIMTXSTY
  7
STANDARD
  9
$DIMAUNIT
 70
     0
  9
$LUNITS
 70
     5
  9
$LUPREC
 70
     6
  9
$SKETCHINC
 40
0.1
  9
$FILLETRAD
 40
0.0
  9
$AUNITS
 70
     0
  9
$AUPREC
 70
     1
  9
$MENU
  1
CUSTOM
  9
$ELEVATION
 40
0.0
  9
$PELEVATION
 40
0.0
  9
$THICKNESS
 40
0.0
  9
$LIMCHECK
 70
     0
  9
$BLIPMODE
 70
     0
  9
$CHAMFERA
 40
0.0
  9
$CHAMFERB
 40
0.0
  9
$CHAMFERC
 40
0.0
  9
$CHAMFERD
 40
0.0
  9
$SKPOLY
 70
     0
  9
$TDCREATE
 40
2451263.663231366
  9
$TDUPDATE
 40
2452759.744743194
  9
$TDINDWG
 40
0.4804969676
  9
$TDUSRTIMER
 40
0.4804969676
  9
$USRTIMER
 70
     1
  9
$ANGBASE
 50
0.0
  9
$ANGDIR
 70
     0
  9
$PDMODE
 70
     0
  9
$PDSIZE
 40
0.0
  9
$PLINEWID
 40
0.0
  9
$COORDS
 70
     2
  9
$SPLFRAME
 70
     0
  9
$SPLINETYPE
 70
     6
  9
$SPLINESEGS
 70
     8
  9
$ATTDIA
 70
     0
  9
$ATTREQ
 70
     0
  9
$HANDLING
 70
     1
  9
$HANDSEED
  5
155
  9
$SURFTAB1
 70
     6
  9
$SURFTAB2
 70
     6
  9
$SURFTYPE
 70
     6
  9
$SURFU
 70
     6
  9
$SURFV
 70
     6
  9
$UCSNAME
  2

  9
$UCSORG
 10
0.0
 20
0.0
 30
0.0
  9
$UCSXDIR
 10
1.0
 20
0.0
 30
0.0
  9
$UCSYDIR
 10
0.0
 20
1.0
 30
0.0
  9
$PUCSNAME
  2

  9
$PUCSORG
 10
0.0
 20
0.0
 30
0.0
  9
$PUCSXDIR
 10
1.0
 20
0.0
 30
0.0
  9
$PUCSYDIR
 10
0.0
 20
1.0
 30
0.0
  9
$USERI1
 70
     0
  9
$USERI2
 70
     0
  9
$USERI3
 70
     0
  9
$USERI4
 70
     0
  9
$USERI5
 70
     0
  9
$USERR1
 40
0.0
  9
$USERR2
 40
0.0
  9
$USERR3
 40
0.0
  9
$USERR4
 40
0.0
  9
$USERR5
 40
0.0
  9
$WORLDVIEW
 70
     1
  9
$SHADEDGE
 70
     3
  9
$SHADEDIF
 70
    70
  9
$TILEMODE
 70
     1
  9
$MAXACTVP
 70
    16
  9
$PINSBASE
 10
0.0
 20
0.0
 30
0.0
  9
$PLIMCHECK
 70
     0
  9
$PEXTMIN
 10
1.000000000000000E+20
 20
1.000000000000000E+20
 30
1.000000000000000E+20
  9
$PEXTMAX
 10
-1.000000000000000E+20
 20
-1.000000000000000E+20
 30
-1.000000000000000E+20
  9
$PLIMMIN
 10
0.0
 20
0.0
  9
$PLIMMAX
 10
12.0
 20
9.0
  9
$UNITMODE
 70
     0
  9
$VISRETAIN
 70
     0
  9
$PLINEGEN
 70
     0
  9
$PSLTSCALE
 70
     0
  9
$TREEDEPTH
 70
  3020
  9
$PICKSTYLE
 70
     1
  9
$CMLSTYLE
  2
STANDARD
  9
$CMLJUST
 70
     0
  9
$CMLSCALE
 40
1.0
  9
$PROXYGRAPHICS
 70
     1
  9
$MEASUREMENT
 70
     0
  0
ENDSEC
  0
SECTION
  2
CLASSES
  0
CLASS
  1
ACDBDICTIONARYWDFLT
  2
AcDbDictionaryWithDefault
  3
AutoCAD 2000
 90
        0
280
     1
281
     0
  0
CLASS
  1
ACDBPLACEHOLDER
  2
AcDbPlaceHolder
  3
AutoCAD 2000
 90
        0
280
     1
281
     0
  0
CLASS
  1
LAYOUT
  2
AcDbLayout
  3
AutoCAD 2000
 90
        0
280
     1
281
     0
  0
CLASS
  1
DICTIONARYVAR
  2
AcDbDictionaryVar
  3
"AutoCAD"
 90
        0
280
     1
281
     0
  0
CLASS
  1
LONG_TRANSACTION
  2
AcDbLongTransaction
  3
AutoCAD 2000
 90
        0
280
     1
281
     0
  0
CLASS
  1
LWPOLYLINE
  2
AcDbPolyline
  3
"AutoCAD"
 90
        0
280
     1
281
     1
  0
CLASS
  1
HATCH
  2
AcDbHatch
  3
"ACAD_SEDONA"
 90
        0
280
     1
281
     1
  0
CLASS
  1
XRECORD
  2
AcDbXrecord
  3
"<Built In>"
 90
        0
280
     0
281
     0
  0
CLASS
  1
LONG_TRANSACTION
  2
AcDbLongTransaction
  3
AutoCAD 2000
 90
        0
280
     1
281
     0
  0
CLASS
  1
LWPOLYLINE
  2
AcDbPolyline
  3
"AutoCAD"
 90
        0
280
     1
281
     1
  0
CLASS
  1
HATCH
  2
AcDbHatch
  3
"ACAD_SEDONA"
 90
        0
280
     1
281
     1
  0
CLASS
  1
XRECORD
  2
AcDbXrecord
  3
"<Built In>"
 90
        0
280
     0
281
     0
  0
CLASS
  1
LONG_TRANSACTION
  2
AcDbLongTransaction
  3
AutoCAD 2000
 90
        0
280
     1
281
     0
  0
CLASS
  1
LWPOLYLINE
  2
AcDbPolyline
  3
"AutoCAD"
 90
        0
280
     1
281
     1
  0
CLASS
  1
HATCH
  2
AcDbHatch
  3
"ACAD_SEDONA"
 90
        0
280
     1
281
     1
  0
CLASS
  1
XRECORD
  2
AcDbXrecord
  3
"<Built In>"
 90
        0
280
     0
281
     0
  0
ENDSEC
  0
SECTION
  2
TABLES
  0
TABLE
  2
VPORT
  5
13E
100
AcDbSymbolTable
 70
     1
  0
VPORT
  5
151
100
AcDbSymbolTableRecord
100
AcDbViewportTableRecord
  2
*ACTIVE
 70
     0
 10
0.0
 20
0.0
 11
1.0
 21
1.0
 12
-9.588197302103589
 22
19.53692265639246
 13
0.0
 23
0.0
 14
1.0
 24
1.0
 15
0.0
 25
0.0
 16
0.0
 26
0.0
 36
1.0
 17
23.09603071721725
 27
-10.27010416511325
 37
-10.44050274849355
 40
18.53338093682682
 41
1.457627118644067
 42
50.0
 43
10.55307667737539
 44
10.55307667737539
 50
0.0
 51
0.0
 71
     0
 72
   100
 73
     1
 74
     1
 75
     0
 76
     0
 77
     0
 78
     0
  0
ENDTAB
  0
TABLE
  2
LTYPE
  5
13A
100
AcDbSymbolTable
 70
     1
  0
LTYPE
  5
13B
100
AcDbSymbolTableRecord
100
AcDbLinetypeTableRecord
  2
BYBLOCK
 70
     0
  3

 72
    65
 73
     0
 40
0.0
  0
LTYPE
  5
6
100
AcDbSymbolTableRecord
100
AcDbLinetypeTableRecord
  2
BYLAYER
 70
     0
  3

 72
    65
 73
     0
 40
0.0
  0
LTYPE
  5
5
100
AcDbSymbolTableRecord
100
AcDbLinetypeTableRecord
  2
CONTINUOUS
 70
     0
  3
Solid line
 72
    65
 73
     0
 40
0.0
  0
ENDTAB
  0
TABLE
  2
LAYER
  5
138
100
AcDbSymbolTable
 70
     5
  0
LAYER
  5
64
100
AcDbSymbolTableRecord
100
AcDbLayerTableRecord
  2
0
 70
     0
 62
     7
  6
CONTINUOUS
  0
LAYER
  5
F
100
AcDbSymbolTableRecord
100
AcDbLayerTableRecord
  2
USP-TXT
 70
     0
 62
     7
  6
CONTINUOUS
  0
LAYER
  5
9
102
{ACAD_XDICTIONARY
360
A
102
}
100
AcDbSymbolTableRecord
100
AcDbLayerTableRecord
  2
USP-GEO
 70
     0
 62
     7
  6
CONTINUOUS
  0
LAYER
  5
12
102
{ACAD_XDICTIONARY
360
13
102
}
100
AcDbSymbolTableRecord
100
AcDbLayerTableRecord
  2
USP-HID
 70
     0
 62
     7
  6
CONTINUOUS
  0
LAYER
  5
4
100
AcDbSymbolTableRecord
100
AcDbLayerTableRecord
  2
USP
 70
     0
 62
     7
  6
CONTINUOUS
  0
ENDTAB
  0
TABLE
  2
STYLE
  5
139
100
AcDbSymbolTable
 70
     1
  0
STYLE
  5
10
100
AcDbSymbolTableRecord
100
AcDbTextStyleTableRecord
  2
STANDARD
 70
     0
 40
0.0
 41
1.0
 50
0.0
 71
     0
 42
0.75
  3
txt
  4

  0
ENDTAB
  0
TABLE
  2
VIEW
  5
13C
100
AcDbSymbolTable
 70
     0
  0
ENDTAB
  0
TABLE
  2
UCS
  5
13D
100
AcDbSymbolTable
 70
     0
  0
ENDTAB
  0
TABLE
  2
APPID
  5
141
100
AcDbSymbolTable
 70
     1
  0
APPID
  5
B
100
AcDbSymbolTableRecord
100
AcDbRegAppTableRecord
  2
ACAD
 70
     0
  0
ENDTAB
  0
TABLE
  2
DIMSTYLE
  5
142
100
AcDbSymbolTable
 70
     1
  0
DIMSTYLE
105
149
100
AcDbSymbolTableRecord
100
AcDbDimStyleTableRecord
  2
STANDARD
 70
     0
  3

  4

  5

  6

  7

 40
1.0
 41
0.18
 42
0.0625
 43
0.38
 44
0.18
 45
0.0
 46
0.0
 47
0.0
 48
0.0
140
0.18
141
0.09
142
0.0
143
25.4
144
1.0
145
0.0
146
1.0
147
0.09
 71
     0
 72
     0
 73
     1
 74
     1
 75
     0
 76
     0
 77
     0
 78
     0
170
     0
171
     2
172
     0
173
     0
174
     0
175
     0
176
     0
177
     0
178
     0
270
     2
271
     4
272
     4
273
     2
274
     2
340
10
275
     0
280
     0
281
     0
282
     0
283
     1
284
     0
285
     0
286
     0
287
     3
288
     0
  0
ENDTAB
  0
TABLE
  2
BLOCK_RECORD
  5
1
100
AcDbSymbolTable
 70
     3
  0
BLOCK_RECORD
  5
2
102
{ACAD_XDICTIONARY
360
131
102
}
100
AcDbSymbolTableRecord
100
AcDbBlockTableRecord
  2
*MODEL_SPACE
  0
BLOCK_RECORD
  5
134
102
{ACAD_XDICTIONARY
360
135
102
}
100
AcDbSymbolTableRecord
100
AcDbBlockTableRecord
  2
*PAPER_SPACE
  0
BLOCK_RECORD
  5
7
100
AcDbSymbolTableRecord
100
AcDbBlockTableRecord
  2
HD5212_S
  0
BLOCK_RECORD
  5
67
100
AcDbSymbolTableRecord
100
AcDbBlockTableRecord
  2
HD5212_F
  0
BLOCK_RECORD
  5
D8
100
AcDbSymbolTableRecord
100
AcDbBlockTableRecord
  2
HD5212_T
  0
ENDTAB
  0
ENDSEC
  0
SECTION
  2
BLOCKS
  0
BLOCK
  5
132
100
AcDbEntity
  8
0
100
AcDbBlockBegin
  2
*MODEL_SPACE
 70
     0
 10
0.0
 20
0.0
 30
0.0
  3
*MODEL_SPACE
  1

  0
ENDBLK
  5
133
100
AcDbEntity
  8
0
100
AcDbBlockEnd
  0
BLOCK
  5
136
100
AcDbEntity
 67
     1
  8
0
100
AcDbBlockBegin
  2
*PAPER_SPACE
 70
     0
 10
0.0
 20
0.0
 30
0.0
  3
*PAPER_SPACE
  1

  0
ENDBLK
  5
137
100
AcDbEntity
 67
     1
  8
0
100
AcDbBlockEnd
  0
BLOCK
  5
63
100
AcDbEntity
  8
0
100
AcDbBlockBegin
  2
HD5212_S
 70
     0
 10
0.0
 20
0.0
 30
0.0
  3
HD5212_S
  1

  0
LINE
  5
8
100
AcDbEntity
  8
USP-GEO
100
AcDbLine
 10
0.0746999999996267
 20
10.32469999999996
 30
0.0
 11
0.0746999999999076
 21
3.145963277456746
 31
0.0
  0
LINE
  5
C
100
AcDbEntity
  8
USP-GEO
100
AcDbLine
 10
-0.0000000000000915
 20
3.145963277456741
 30
0.0
 11
-0.0000000000003724
 21
10.32469999999996
 31
0.0
  0
LINE
  5
D
100
AcDbEntity
  8
USP-GEO
100
AcDbLine
 10
1.449973256841086
 20
3.18469194900531
 30
0.0
 11
1.449973256840798
 21
10.32469999999999
 31
0.0
  0
TEXT
  5
E
100
AcDbEntity
  8
USP-TXT
100
AcDbText
 10
-1.191816666666587
 20
-1.546349264564265
 30
0.0
 40
0.296875
  1
HD5212 - SIDE VIEW
 72
     1
 11
1.381100000000079
 21
-1.546349264564265
 31
0.0
100
AcDbText
  0
LINE
  5
11
100
AcDbEntity
  8
USP-HID
100
AcDbLine
 10
2.74346354456832
 20
0.0747000000000979
 30
0.0
 11
0.243490287727091
 21
0.0746999999999996
 31
0.0
  0
LINE
  5
14
100
AcDbEntity
  8
USP-GEO
100
AcDbLine
 10
2.743463544568324
 20
0.0000000000000981
 30
0.0
 11
0.2434902877270955
 21
0.0
 31
0.0
  0
ARC
  5
15
100
AcDbEntity
  8
USP-GEO
100
AcDbCircle
 10
3.949673256841104
 20
3.145963277456954
 30
0.0
 40
2.5
100
AcDbArc
 50
179.1123687241172
 51
222.4815666460741
  0
LINE
  5
16
100
AcDbEntity
  8
USP-GEO
100
AcDbLine
 10
0.0746999999999087
 20
3.145963277456802
 30
0.0
 11
0.0746999999999745
 21
1.457580842988741
 31
0.0
  0
LINE
  5
17
100
AcDbEntity
  8
USP-GEO
100
AcDbLine
 10
-0.0000000000000921
 20
3.145963277456799
 30
0.0
 11
-0.0000000000000264
 21
1.457580842988739
 31
0.0
  0
ARC
  5
18
100
AcDbEntity
  8
USP-GEO
100
AcDbCircle
 10
-2.237773256841193
 20
-0.2308015914793675
 30
0.0
 40
2.5
100
AcDbArc
 50
7.019124642895244
 51
22.33325800951214
  0
LINE
  5
19
100
AcDbEntity
  8
USP-HID
100
AcDbLine
 10
0.2622267431587932
 20
0.0746999999999993
 30
0.0
 11
0.2622267431587961
 21
-0.0000000000000011
 31
0.0
  0
LINE
  5
1A
100
AcDbEntity
  8
USP-HID
100
AcDbLine
 10
0.3247267431587915
 20
0.0747000000000011
 30
0.0
 11
0.3247267431587943
 21
0.0000000000000024
 31
0.0
  0
LINE
  5
1B
100
AcDbEntity
  8
USP-GEO
100
AcDbLine
 10
0.2434902877270924
 20
0.0747000000000002
 30
0.0
 11
0.2434902877270952
 21
-0.0000000000000011
 31
0.0
  0
LINE
  5
1C
100
AcDbEntity
  8
USP-GEO
100
AcDbLine
 10
0.0746999999999731
 20
1.457580842988743
 30
0.0
 11
0.0747000000000018
 21
0.7191812696260416
 31
0.0
  0
LINE
  5
1D
100
AcDbEntity
  8
USP-GEO
100
AcDbLine
 10
0.0
 20
0.7191812696260389
 30
0.0
 11
-0.0000000000000286
 21
1.457580842988742
 31
0.0
  0
LINE
  5
1E
100
AcDbEntity
  8
USP-GEO
100
AcDbLine
 10
0.0000000000000608
 20
0.7191812696260211
 30
0.0
 11
0.0747000000000613
 21
0.7191812696260243
 31
0.0
  0
LINE
  5
1F
100
AcDbEntity
  8
USP-HID
100
AcDbLine
 10
0.0746999999999629
 20
1.659353208069687
 30
0.0
 11
-0.0000000000000375
 21
1.659353208069684
 31
0.0
  0
LINE
  5
20
100
AcDbEntity
  8
USP-HID
100
AcDbLine
 10
0.0746999999999654
 20
1.753534965323778
 30
0.0
 11
-0.0000000000000351
 21
1.753534965323775
 31
0.0
  0
LINE
  5
21
100
AcDbEntity
  8
USP-HID
100
AcDbLine
 10
1.608713371579437
 20
0.0000000000000517
 30
0.0
 11
1.608713371579434
 21
0.0747000000000526
 31
0.0
  0
CIRCLE
  5
22
100
AcDbEntity
  8
USP-GEO
100
AcDbCircle
 10
1.074973256841163
 20
1.512199999999978
 30
0.0
 40
0.082
  0
LINE
  5
23
100
AcDbEntity
  8
USP-HID
100
AcDbLine
 10
0.0746999999999578
 20
1.831353208069686
 30
0.0
 11
-0.0000000000000431
 21
1.831353208069683
 31
0.0
  0
LINE
  5
24
100
AcDbEntity
  8
USP-HID
100
AcDbLine
 10
0.0746999999999585
 20
1.925534965323777
 30
0.0
 11
-0.0000000000000424
 21
1.925534965323774
 31
0.0
  0
LINE
  5
25
100
AcDbEntity
  8
USP-HID
100
AcDbLine
 10
0.0746999999999438
 20
2.217195044271419
 30
0.0
 11
-0.0000000000000571
 21
2.217195044271416
 31
0.0
  0
LINE
  5
26
100
AcDbEntity
  8
USP-HID
100
AcDbLine
 10
0.0746999999999361
 20
2.389195044271419
 30
0.0
 11
-0.0000000000000648
 21
2.389195044271415
 31
0.0
  0
LINE
  5
27
100
AcDbEntity
  8
USP-HID
100
AcDbLine
 10
0.0746999999999423
 20
2.363699999999994
 30
0.0
 11
-0.0000000000000586
 21
2.36369999999999
 31
0.0
  0
LINE
  5
28
100
AcDbEntity
  8
USP-HID
100
AcDbLine
 10
0.0746999999999349
 20
2.535699999999994
 30
0.0
 11
-0.0000000000000659
 21
2.535699999999991
 31
0.0
  0
LINE
  5
29
100
AcDbEntity
  8
USP-HID
100
AcDbLine
 10
0.0746999999999145
 20
2.988699999999964
 30
0.0
 11
-0.0000000000000864
 21
2.988699999999961
 31
0.0
  0
LINE
  5
2A
100
AcDbEntity
  8
USP-HID
100
AcDbLine
 10
0.0746999999999076
 20
3.160699999999964
 30
0.0
 11
-0.0000000000000915
 21
3.160699999999962
 31
0.0
  0
ARC
  5
2B
100
AcDbEntity
  8
USP-HID
100
AcDbCircle
 10
0.0746999999998828
 20
3.561260080790488
 30
0.0
 40
0.095
100
AcDbArc
 50
297.2395087344023
 51
90.00000000000222
  0
ARC
  5
2C
100
AcDbEntity
  8
USP-GEO
100
AcDbCircle
 10
0.0746999999998921
 20
3.392330897144276
 30
0.0
 40
0.095
100
AcDbArc
 50
270.0000000000022
 51
90.0000000000023
  0
LINE
  5
2D
100
AcDbEntity
  8
USP-HID
100
AcDbLine
 10
0.0746999999998836
 20
3.297330897144277
 30
0.0
 11
-0.0000000000000879
 21
3.297330897144274
 31
0.0
  0
LINE
  5
2E
100
AcDbEntity
  8
USP-HID
100
AcDbLine
 10
-0.0000000000001101
 20
3.487330897144272
 30
0.0
 11
0.074699999999889
 21
3.487330897144275
 31
0.0
  0
LINE
  5
2F
100
AcDbEntity
  8
USP-HID
100
AcDbLine
 10
-0.0000000000000715
 20
3.466260080790485
 30
0.0
 11
0.0746999999998437
 21
3.466260080790488
 31
0.0
  0
ARC
  5
30
100
AcDbEntity
  8
USP-GEO
100
AcDbCircle
 10
0.0746999999998828
 20
3.561260080790488
 30
0.0
 40
0.095
100
AcDbArc
 50
270.0000000000022
 51
297.2395087344023
  0
LINE
  5
31
100
AcDbEntity
  8
USP-HID
100
AcDbLine
 10
-0.0000000000001208
 20
3.656260080790485
 30
0.0
 11
0.0746999999998797
 21
3.656260080790487
 31
0.0
  0
LINE
  5
32
100
AcDbEntity
  8
USP-HID
100
AcDbLine
 10
0.0746999999998772
 20
3.863699999999963
 30
0.0
 11
-0.0000000000001223
 21
3.86369999999996
 31
0.0
  0
LINE
  5
33
100
AcDbEntity
  8
USP-HID
100
AcDbLine
 10
0.0746999999998703
 20
4.035699999999963
 30
0.0
 11
-0.0000000000001306
 21
4.035699999999961
 31
0.0
  0
LINE
  5
34
100
AcDbEntity
  8
USP-HID
100
AcDbLine
 10
0.0746999999998788
 20
3.988700000000021
 30
0.0
 11
-0.0000000000001217
 21
3.988700000000018
 31
0.0
  0
LINE
  5
35
100
AcDbEntity
  8
USP-HID
100
AcDbLine
 10
0.0746999999998714
 20
4.160700000000021
 30
0.0
 11
-0.000000000000129
 21
4.160700000000018
 31
0.0
  0
CIRCLE
  5
36
100
AcDbEntity
  8
USP-HID
100
AcDbCircle
 10
1.074973256841096
 20
3.121037232443623
 30
0.0
 40
0.082
  0
CIRCLE
  5
37
100
AcDbEntity
  8
USP-HID
100
AcDbCircle
 10
1.074973256841065
 20
3.920401308014671
 30
0.0
 40
0.082
  0
CIRCLE
  5
38
100
AcDbEntity
  8
USP-GEO
100
AcDbCircle
 10
1.074973256841094
 20
3.308537232443566
 30
0.0
 40
0.082
  0
CIRCLE
  5
39
100
AcDbEntity
  8
USP-GEO
100
AcDbCircle
 10
1.074973256841063
 20
4.107901308014617
 30
0.0
 40
0.082
  0
CIRCLE
  5
3A
100
AcDbEntity
  8
USP-GEO
100
AcDbCircle
 10
0.5121999999998104
 20
5.829269385878519
 30
0.0
 40
0.1535
  0
LINE
  5
3B
100
AcDbEntity
  8
USP-HID
100
AcDbLine
 10
0.0746999999998426
 20
4.863699999999965
 30
0.0
 11
-0.0000000000001574
 21
4.863699999999962
 31
0.0
  0
LINE
  5
3C
100
AcDbEntity
  8
USP-HID
100
AcDbLine
 10
0.0746999999998375
 20
5.035699999999965
 30
0.0
 11
-0.0000000000001661
 21
5.035699999999962
 31
0.0
  0
LINE
  5
3D
100
AcDbEntity
  8
USP-HID
100
AcDbLine
 10
0.0746999999998384
 20
4.988700000000021
 30
0.0
 11
-0.0000000000001621
 21
4.988700000000018
 31
0.0
  0
LINE
  5
3E
100
AcDbEntity
  8
USP-HID
100
AcDbLine
 10
0.0746999999998324
 20
5.160700000000021
 30
0.0
 11
-0.0000000000001681
 21
5.160700000000018
 31
0.0
  0
LINE
  5
3F
100
AcDbEntity
  8
USP-HID
100
AcDbLine
 10
0.074699999999807
 20
5.863699999999964
 30
0.0
 11
-0.0000000000001965
 21
5.863699999999961
 31
0.0
  0
LINE
  5
40
100
AcDbEntity
  8
USP-HID
100
AcDbLine
 10
0.0746999999997975
 20
6.035699999999964
 30
0.0
 11
-0.0000000000002025
 21
6.035699999999962
 31
0.0
  0
LINE
  5
41
100
AcDbEntity
  8
USP-HID
100
AcDbLine
 10
0.074699999999801
 20
5.988700000000021
 30
0.0
 11
-0.0000000000001998
 21
5.988700000000018
 31
0.0
  0
LINE
  5
42
100
AcDbEntity
  8
USP-HID
100
AcDbLine
 10
0.0746999999997942
 20
6.160700000000021
 30
0.0
 11
-0.0000000000002067
 21
6.160700000000018
 31
0.0
  0
LINE
  5
43
100
AcDbEntity
  8
USP-HID
100
AcDbLine
 10
0.0746999999997653
 20
6.863699999999965
 30
0.0
 11
-0.0000000000002383
 21
6.863699999999962
 31
0.0
  0
LINE
  5
44
100
AcDbEntity
  8
USP-HID
100
AcDbLine
 10
0.0746999999997611
 20
6.988700000000021
 30
0.0
 11
-0.0000000000002407
 21
6.988700000000017
 31
0.0
  0
LINE
  5
45
100
AcDbEntity
  8
USP-HID
100
AcDbLine
 10
0.0746999999997558
 20
7.035699999999966
 30
0.0
 11
-0.0000000000002451
 21
7.035699999999962
 31
0.0
  0
LINE
  5
46
100
AcDbEntity
  8
USP-HID
100
AcDbLine
 10
0.0746999999997542
 20
7.160700000000021
 30
0.0
 11
-0.0000000000002467
 21
7.160700000000018
 31
0.0
  0
CIRCLE
  5
47
100
AcDbEntity
  8
USP-HID
100
AcDbCircle
 10
1.074973256840954
 20
6.740921005441689
 30
0.0
 40
0.082
  0
CIRCLE
  5
48
100
AcDbEntity
  8
USP-GEO
100
AcDbCircle
 10
1.074973256840951
 20
6.928421005441629
 30
0.0
 40
0.082
  0
ARC
  5
49
100
AcDbEntity
  8
USP-GEO
100
AcDbCircle
 10
0.2622000000000364
 20
-0.2308015914792703
 30
0.0
 40
2.5
100
AcDbArc
 50
7.019124642895281
 51
42.48156664607517
  0
LINE
  5
4A
100
AcDbEntity
  8
USP-HID
100
AcDbLine
 10
1.915713371579437
 20
0.0000000000000637
 30
0.0
 11
1.915713371579434
 21
0.0747000000000646
 31
0.0
  0
LINE
  5
4B
100
AcDbEntity
  8
USP-HID
100
AcDbLine
 10
2.462200000000008
 20
0.0747000000000859
 30
0.0
 11
2.462200000000011
 21
0.0000000000000853
 31
0.0
  0
LINE
  5
4C
100
AcDbEntity
  8
USP-HID
100
AcDbLine
 10
2.33492077938645
 20
0.0747000000000808
 30
0.0
 11
2.334920779386453
 21
0.0000000000000802
 31
0.0
  0
LINE
  5
4D
100
AcDbEntity
  8
USP-HID
100
AcDbLine
 10
2.589479220613597
 20
0.0747000000000924
 30
0.0
 11
2.589479220613601
 21
0.0000000000000917
 31
0.0
  0
LINE
  5
4E
100
AcDbEntity
  8
USP-HID
100
AcDbLine
 10
2.699700000000078
 20
0.0747000000000973
 30
0.0
 11
2.699700000000081
 21
0.0000000000000944
 31
0.0
  0
LINE
  5
4F
100
AcDbEntity
  8
USP-GEO
100
AcDbLine
 10
2.743463544568321
 20
0.0747000000000988
 30
0.0
 11
2.743463544568324
 21
0.0000000000000981
 31
0.0
  0
LINE
  5
50
100
AcDbEntity
  8
USP-GEO
100
AcDbLine
 10
2.762200000000022
 20
0.0747000000000999
 30
0.0
 11
2.762200000000025
 21
0.0000000000000993
 31
0.0
  0
LINE
  5
51
100
AcDbEntity
  8
USP-GEO
100
AcDbLine
 10
2.762200000000025
 20
0.000000000000099
 30
0.0
 11
2.743463544568323
 21
0.0000000000000981
 31
0.0
  0
LINE
  5
52
100
AcDbEntity
  8
USP-GEO
100
AcDbLine
 10
2.762200000000022
 20
0.0747000000000999
 30
0.0
 11
2.74346354456832
 21
0.074700000000099
 31
0.0
  0
LINE
  5
53
100
AcDbEntity
  8
USP-HID
100
AcDbLine
 10
0.0746999999997253
 20
7.863699999999962
 30
0.0
 11
-0.0000000000002751
 21
7.863699999999958
 31
0.0
  0
LINE
  5
54
100
AcDbEntity
  8
USP-HID
100
AcDbLine
 10
0.0746999999997198
 20
8.035699999999962
 30
0.0
 11
-0.0000000000002833
 21
8.035699999999959
 31
0.0
  0
LINE
  5
55
100
AcDbEntity
  8
USP-HID
100
AcDbLine
 10
0.0746999999997167
 20
7.988700000000019
 30
0.0
 11
-0.0000000000002833
 21
7.988700000000015
 31
0.0
  0
LINE
  5
56
100
AcDbEntity
  8
USP-HID
100
AcDbLine
 10
0.0746999999997125
 20
8.160700000000019
 30
0.0
 11
-0.0000000000002875
 21
8.160700000000016
 31
0.0
  0
LINE
  5
57
100
AcDbEntity
  8
USP-HID
100
AcDbLine
 10
0.0746999999996898
 20
8.863699999999965
 30
0.0
 11
-0.0000000000003129
 21
8.863699999999962
 31
0.0
  0
LINE
  5
58
100
AcDbEntity
  8
USP-HID
100
AcDbLine
 10
0.0746999999996834
 20
9.035699999999966
 30
0.0
 11
-0.0000000000003197
 21
9.035699999999962
 31
0.0
  0
LINE
  5
59
100
AcDbEntity
  8
USP-HID
100
AcDbLine
 10
0.0746999999996803
 20
8.988700000000022
 30
0.0
 11
-0.0000000000003202
 21
8.988700000000019
 31
0.0
  0
LINE
  5
5A
100
AcDbEntity
  8
USP-HID
100
AcDbLine
 10
0.0746999999996725
 20
9.160700000000023
 30
0.0
 11
-0.0000000000003262
 21
9.160700000000019
 31
0.0
  0
LINE
  5
5B
100
AcDbEntity
  8
USP-HID
100
AcDbLine
 10
0.0746999999996476
 20
9.863699999999965
 30
0.0
 11
-0.000000000000355
 21
9.863699999999962
 31
0.0
  0
LINE
  5
5C
100
AcDbEntity
  8
USP-HID
100
AcDbLine
 10
0.0746999999996421
 20
10.03569999999996
 30
0.0
 11
-0.0000000000003619
 21
10.03569999999996
 31
0.0
  0
LINE
  5
5D
100
AcDbEntity
  8
USP-HID
100
AcDbLine
 10
0.0746999999996403
 20
9.988700000000019
 30
0.0
 11
-0.0000000000003597
 21
9.988700000000015
 31
0.0
  0
CIRCLE
  5
5E
100
AcDbEntity
  8
USP-HID
100
AcDbCircle
 10
1.074973256840922
 20
7.612848615981215
 30
0.0
 40
0.082
  0
CIRCLE
  5
5F
100
AcDbEntity
  8
USP-GEO
100
AcDbCircle
 10
1.074973256840915
 20
7.800348615981162
 30
0.0
 40
0.082
  0
LINE
  5
60
100
AcDbEntity
  8
USP-GEO
100
AcDbLine
 10
1.449973256840795
 20
10.32469999999998
 30
0.0
 11
0.0746999999996292
 21
10.32469999999994
 31
0.0
  0
LINE
  5
61
100
AcDbEntity
  8
USP-HID
100
AcDbLine
 10
0.0746999999996316
 20
10.16070000000002
 30
0.0
 11
-0.000000000000367
 21
10.16070000000001
 31
0.0
  0
LINE
  5
62
100
AcDbEntity
  8
USP-GEO
100
AcDbLine
 10
-0.0000000000003735
 20
10.32469999999996
 30
0.0
 11
0.0746999999996305
 21
10.32469999999997
 31
0.0
  0
ENDBLK
  5
65
100
AcDbEntity
  8
0
100
AcDbBlockEnd
  0
BLOCK
  5
D5
100
AcDbEntity
  8
0
100
AcDbBlockBegin
  2
HD5212_F
 70
     0
 10
0.0
 20
0.0
 30
0.0
  3
HD5212_F
  1

  0
LINE
  5
68
100
AcDbEntity
  8
USP-GEO
100
AcDbLine
 10
7.024400000000046
 20
10.32469999999987
 30
0.0
 11
7.024400000000021
 21
3.145963277456649
 31
0.0
  0
LINE
  5
69
100
AcDbEntity
  8
USP-GEO
100
AcDbLine
 10
5.899400000000037
 20
3.184691949005213
 30
0.0
 11
5.899400000000035
 21
10.32469999999989
 31
0.0
  0
LINE
  5
6A
100
AcDbEntity
  8
USP-GEO
100
AcDbLine
 10
0.0000000000000577
 20
3.145963277456703
 30
0.0
 11
0.0000000000000284
 21
10.32469999999992
 31
0.0
  0
LINE
  5
6B
100
AcDbEntity
  8
USP-GEO
100
AcDbLine
 10
1.125000000000033
 20
10.32469999999995
 30
0.0
 11
1.125000000000035
 21
3.184691949005208
 31
0.0
  0
LINE
  5
6C
100
AcDbEntity
  8
USP-GEO
100
AcDbLine
 10
5.824700000000037
 20
3.184691949005212
 30
0.0
 11
5.824700000000035
 21
10.3246999999999
 31
0.0
  0
LINE
  5
6D
100
AcDbEntity
  8
USP-GEO
100
AcDbLine
 10
1.199700000000035
 20
3.184691949005208
 30
0.0
 11
1.199700000000033
 21
10.32469999999995
 31
0.0
  0
TEXT
  5
6E
100
AcDbEntity
  8
USP-TXT
100
AcDbText
 10
0.7413666666667194
 20
-1.546349264564365
 30
0.0
 40
0.296875
  1
HD5212 - FRONT VIEW
 72
     1
 11
3.512200000000051
 21
-1.546349264564365
 31
0.0
100
AcDbText
  0
LINE
  5
6F
100
AcDbEntity
  8
USP-GEO
100
AcDbLine
 10
2.137200000000033
 20
0.0000000000000007
 30
0.0
 11
4.887200000000065
 21
0.0000000000000016
 31
0.0
  0
LINE
  5
70
100
AcDbEntity
  8
USP-GEO
100
AcDbLine
 10
2.137200000000033
 20
0.0747000000000016
 30
0.0
 11
4.887200000000062
 21
0.0747000000000024
 31
0.0
  0
CIRCLE
  5
71
100
AcDbEntity
  8
USP-GEO
100
AcDbCircle
 10
0.7499999999999716
 20
1.839534965323681
 30
0.0
 40
0.086
  0
ARC
  5
72
100
AcDbEntity
  8
USP-GEO
100
AcDbCircle
 10
2.5
 20
3.145963277456705
 30
0.0
 40
2.5
100
AcDbArc
 50
180.0
 51
222.4815666460719
  0
LINE
  5
73
100
AcDbEntity
  8
USP-GEO
100
AcDbLine
 10
1.125000000000035
 20
3.184691949005208
 30
0.0
 11
1.125000000000033
 21
1.457580842988761
 31
0.0
  0
LINE
  5
74
100
AcDbEntity
  8
USP-GEO
100
AcDbLine
 10
1.199700000000033
 20
1.45758084298876
 30
0.0
 11
1.199700000000035
 21
3.184691949005208
 31
0.0
  0
LINE
  5
75
100
AcDbEntity
  8
USP-GEO
100
AcDbLine
 10
1.637199999999978
 20
-0.0000000000000027
 30
0.0
 11
2.137200000000037
 21
-0.0000000000000024
 31
0.0
  0
LINE
  5
76
100
AcDbEntity
  8
USP-GEO
100
AcDbLine
 10
2.137200000000035
 20
0.0746999999999982
 30
0.0
 11
1.637199999999978
 21
0.074699999999998
 31
0.0
  0
ARC
  5
77
100
AcDbEntity
  8
USP-GEO
100
AcDbCircle
 10
-1.187473256841199
 20
-0.2308015914793744
 30
0.0
 40
2.5
100
AcDbArc
 50
22.33325800948283
 51
42.48156664607292
  0
LINE
  5
78
100
AcDbEntity
  8
USP-GEO
100
AcDbLine
 10
1.125000000000037
 20
1.457580842988764
 30
0.0
 11
1.125000000000035
 21
0.0746999999999991
 31
0.0
  0
LINE
  5
79
100
AcDbEntity
  8
USP-GEO
100
AcDbLine
 10
1.199700000000037
 20
1.457580842988764
 30
0.0
 11
1.199700000000035
 21
0.0746999999999993
 31
0.0
  0
LINE
  5
7A
100
AcDbEntity
  8
USP-GEO
100
AcDbLine
 10
1.199700000000035
 20
0.0000000000000007
 30
0.0
 11
1.505201591479305
 21
0.0000000000000016
 31
0.0
  0
LINE
  5
7B
100
AcDbEntity
  8
USP-GEO
100
AcDbLine
 10
1.199700000000033
 20
0.0746999999999998
 30
0.0
 11
1.505201591479304
 21
0.0747000000000007
 31
0.0
  0
LINE
  5
7C
100
AcDbEntity
  8
USP-GEO
100
AcDbLine
 10
1.125000000000035
 20
0.0
 30
0.0
 11
1.199700000000035
 21
0.0
 31
0.0
  0
LINE
  5
7D
100
AcDbEntity
  8
USP-GEO
100
AcDbLine
 10
1.125000000000035
 20
0.0746999999999993
 30
0.0
 11
1.199700000000035
 21
0.0746999999999993
 31
0.0
  0
LINE
  5
7E
100
AcDbEntity
  8
USP-GEO
100
AcDbLine
 10
1.125000000000035
 20
0.0746999999999993
 30
0.0
 11
1.125000000000035
 21
0.0
 31
0.0
  0
LINE
  5
7F
100
AcDbEntity
  8
USP-GEO
100
AcDbLine
 10
1.199700000000035
 20
0.0746999999999993
 30
0.0
 11
1.199700000000035
 21
0.0
 31
0.0
  0
LINE
  5
80
100
AcDbEntity
  8
USP-GEO
100
AcDbLine
 10
1.637200000000007
 20
0.0746999999999998
 30
0.0
 11
1.637200000000007
 21
0.0000000000000004
 31
0.0
  0
LINE
  5
81
100
AcDbEntity
  8
USP-GEO
100
AcDbLine
 10
1.505201591479393
 20
0.0000000000000011
 30
0.0
 11
1.637200000000008
 21
0.0000000000000011
 31
0.0
  0
LINE
  5
82
100
AcDbEntity
  8
USP-GEO
100
AcDbLine
 10
1.637200000000007
 20
0.0747000000000004
 30
0.0
 11
1.505201591479393
 21
0.0747000000000004
 31
0.0
  0
LINE
  5
83
100
AcDbEntity
  8
USP-HID
100
AcDbLine
 10
1.199700000000037
 20
0.7191812696246267
 30
0.0
 11
1.125000000000037
 21
0.7191812696246267
 31
0.0
  0
LINE
  5
84
100
AcDbEntity
  8
USP-HID
100
AcDbLine
 10
1.199700000000035
 20
1.430199999999933
 30
0.0
 11
1.125000000000035
 21
1.430199999999933
 31
0.0
  0
LINE
  5
85
100
AcDbEntity
  8
USP-HID
100
AcDbLine
 10
1.199700000000035
 20
1.594199999999933
 30
0.0
 11
1.125000000000035
 21
1.594199999999933
 31
0.0
  0
LINE
  5
86
100
AcDbEntity
  8
USP-GEO
100
AcDbLine
 10
2.137200000000033
 20
0.0747000000000002
 30
0.0
 11
2.137200000000033
 21
0.0000000000000009
 31
0.0
  0
LINE
  5
87
100
AcDbEntity
  8
USP-HID
100
AcDbLine
 10
2.884920779386392
 20
0.0746999999999889
 30
0.0
 11
2.884920779386392
 21
-0.0000000000000118
 31
0.0
  0
LINE
  5
88
100
AcDbEntity
  8
USP-HID
100
AcDbLine
 10
3.012200000000007
 20
0.0746999999999958
 30
0.0
 11
3.012200000000007
 21
-0.0000000000000049
 31
0.0
  0
LINE
  5
89
100
AcDbEntity
  8
USP-HID
100
AcDbLine
 10
3.139479220613567
 20
0.0746999999999893
 30
0.0
 11
3.139479220613567
 21
-0.0000000000000113
 31
0.0
  0
LINE
  5
8A
100
AcDbEntity
  8
USP-HID
100
AcDbLine
 10
3.358700000000037
 20
0.074699999999962
 30
0.0
 11
3.358700000000037
 21
-0.0000000000000389
 31
0.0
  0
LINE
  5
8B
100
AcDbEntity
  8
USP-HID
100
AcDbLine
 10
3.665700000000036
 20
0.0746999999999631
 30
0.0
 11
3.665700000000036
 21
-0.0000000000000377
 31
0.0
  0
LINE
  5
8C
100
AcDbEntity
  8
USP-HID
100
AcDbLine
 10
3.884920779386392
 20
0.0746999999999891
 30
0.0
 11
3.884920779386392
 21
-0.0000000000000115
 31
0.0
  0
LINE
  5
8D
100
AcDbEntity
  8
USP-HID
100
AcDbLine
 10
4.012200000000008
 20
0.0746999999999962
 30
0.0
 11
4.012200000000008
 21
-0.0000000000000047
 31
0.0
  0
LINE
  5
8E
100
AcDbEntity
  8
USP-HID
100
AcDbLine
 10
4.139479220613567
 20
0.0746999999999896
 30
0.0
 11
4.139479220613567
 21
-0.0000000000000111
 31
0.0
  0
CIRCLE
  5
8F
100
AcDbEntity
  8
USP-GEO
100
AcDbCircle
 10
0.5624999999999734
 20
2.449699999999896
 30
0.0
 40
0.086
  0
CIRCLE
  5
90
100
AcDbEntity
  8
USP-GEO
100
AcDbCircle
 10
0.3749999999999716
 20
3.074699999999924
 30
0.0
 40
0.086
  0
CIRCLE
  5
91
100
AcDbEntity
  8
USP-GEO
100
AcDbCircle
 10
0.7499999999999698
 20
4.074699999999924
 30
0.0
 40
0.086
  0
LINE
  5
92
100
AcDbEntity
  8
USP-HID
100
AcDbLine
 10
1.199700000000035
 20
3.039037232443527
 30
0.0
 11
1.125000000000035
 21
3.039037232443527
 31
0.0
  0
LINE
  5
93
100
AcDbEntity
  8
USP-HID
100
AcDbLine
 10
1.199700000000035
 20
3.466260080790389
 30
0.0
 11
1.125000000000035
 21
3.466260080790389
 31
0.0
  0
LINE
  5
94
100
AcDbEntity
  8
USP-HID
100
AcDbLine
 10
1.199700000000033
 20
3.65626008079039
 30
0.0
 11
1.125000000000035
 21
3.65626008079039
 31
0.0
  0
LINE
  5
95
100
AcDbEntity
  8
USP-HID
100
AcDbLine
 10
1.199700000000033
 20
3.838401308014574
 30
0.0
 11
1.125000000000035
 21
3.838401308014574
 31
0.0
  0
LINE
  5
96
100
AcDbEntity
  8
USP-HID
100
AcDbLine
 10
1.199700000000035
 20
3.203037232443526
 30
0.0
 11
1.125000000000035
 21
3.203037232443526
 31
0.0
  0
ARC
  5
97
100
AcDbEntity
  8
USP-GEO
100
AcDbCircle
 10
1.125000000000028
 20
3.561260080790392
 30
0.0
 40
0.095
100
AcDbArc
 50
90.0
 51
270.0
  0
LINE
  5
98
100
AcDbEntity
  8
USP-HID
100
AcDbLine
 10
1.199700000000033
 20
4.002401308014574
 30
0.0
 11
1.125000000000033
 21
4.002401308014574
 31
0.0
  0
CIRCLE
  5
99
100
AcDbEntity
  8
USP-GEO
100
AcDbCircle
 10
0.5624999999999716
 20
5.074699999999925
 30
0.0
 40
0.086
  0
CIRCLE
  5
9A
100
AcDbEntity
  8
USP-GEO
100
AcDbCircle
 10
0.3749999999999716
 20
6.074699999999924
 30
0.0
 40
0.086
  0
CIRCLE
  5
9B
100
AcDbEntity
  8
USP-GEO
100
AcDbCircle
 10
0.7499999999999698
 20
7.074699999999922
 30
0.0
 40
0.086
  0
LINE
  5
9C
100
AcDbEntity
  8
USP-HID
100
AcDbLine
 10
1.199700000000031
 20
5.675769385878424
 30
0.0
 11
1.125000000000033
 21
5.675769385878424
 31
0.0
  0
LINE
  5
9D
100
AcDbEntity
  8
USP-HID
100
AcDbLine
 10
1.199700000000033
 20
5.982769385878424
 30
0.0
 11
1.125000000000033
 21
5.982769385878424
 31
0.0
  0
LINE
  5
9E
100
AcDbEntity
  8
USP-HID
100
AcDbLine
 10
1.199700000000033
 20
6.658921005441592
 30
0.0
 11
1.125000000000035
 21
6.658921005441592
 31
0.0
  0
LINE
  5
9F
100
AcDbEntity
  8
USP-HID
100
AcDbLine
 10
1.199700000000033
 20
6.822921005441593
 30
0.0
 11
1.125000000000033
 21
6.822921005441593
 31
0.0
  0
CIRCLE
  5
A0
100
AcDbEntity
  8
USP-GEO
100
AcDbCircle
 10
6.274400000000108
 20
1.74535320806959
 30
0.0
 40
0.086
  0
ARC
  5
A1
100
AcDbEntity
  8
USP-GEO
100
AcDbCircle
 10
4.524400000000078
 20
3.145963277456703
 30
0.0
 40
2.5
100
AcDbArc
 50
317.518433353927
 51
0.0000000000000254
  0
LINE
  5
A2
100
AcDbEntity
  8
USP-GEO
100
AcDbLine
 10
5.899400000000033
 20
1.45758084298876
 30
0.0
 11
5.899400000000035
 21
3.184691949005213
 31
0.0
  0
LINE
  5
A3
100
AcDbEntity
  8
USP-GEO
100
AcDbLine
 10
5.824700000000033
 20
3.184691949005212
 30
0.0
 11
5.824700000000031
 21
1.457580842988761
 31
0.0
  0
LINE
  5
A4
100
AcDbEntity
  8
USP-GEO
100
AcDbLine
 10
5.519198408520763
 20
0.0000000000000033
 30
0.0
 11
5.824700000000037
 21
0.0000000000000029
 31
0.0
  0
LINE
  5
A5
100
AcDbEntity
  8
USP-GEO
100
AcDbLine
 10
5.519198408520763
 20
0.0747000000000042
 30
0.0
 11
5.824700000000037
 21
0.0747000000000038
 31
0.0
  0
LINE
  5
A6
100
AcDbEntity
  8
USP-GEO
100
AcDbLine
 10
4.887200000000065
 20
-0.0000000000000016
 30
0.0
 11
5.387200000000092
 21
-0.0000000000000013
 31
0.0
  0
LINE
  5
A7
100
AcDbEntity
  8
USP-GEO
100
AcDbLine
 10
4.887200000000065
 20
0.0746999999999991
 30
0.0
 11
5.38720000000009
 21
0.0746999999999993
 31
0.0
  0
LINE
  5
A8
100
AcDbEntity
  8
USP-GEO
100
AcDbLine
 10
4.887200000000062
 20
0.074700000000002
 30
0.0
 11
4.887200000000062
 21
-0.0000000000000009
 31
0.0
  0
LINE
  5
A9
100
AcDbEntity
  8
USP-GEO
100
AcDbLine
 10
5.387200000000033
 20
0.0747000000000022
 30
0.0
 11
5.387200000000033
 21
0.0000000000000016
 31
0.0
  0
LINE
  5
AA
100
AcDbEntity
  8
USP-GEO
100
AcDbLine
 10
5.387200000000035
 20
0.0000000000000016
 30
0.0
 11
5.519198408520765
 21
0.0000000000000016
 31
0.0
  0
LINE
  5
AB
100
AcDbEntity
  8
USP-GEO
100
AcDbLine
 10
5.387200000000033
 20
0.0747000000000022
 30
0.0
 11
5.519198408520763
 21
0.0747000000000022
 31
0.0
  0
LINE
  5
AC
100
AcDbEntity
  8
USP-GEO
100
AcDbLine
 10
5.899400000000035
 20
0.0747000000000022
 30
0.0
 11
5.899400000000037
 21
1.457580842988764
 31
0.0
  0
LINE
  5
AD
100
AcDbEntity
  8
USP-GEO
100
AcDbLine
 10
5.824700000000033
 20
0.0747000000000027
 30
0.0
 11
5.824700000000035
 21
1.457580842988765
 31
0.0
  0
LINE
  5
AE
100
AcDbEntity
  8
USP-GEO
100
AcDbLine
 10
5.899400000000039
 20
0.0747000000000027
 30
0.0
 11
5.824700000000037
 21
0.0747000000000027
 31
0.0
  0
LINE
  5
AF
100
AcDbEntity
  8
USP-GEO
100
AcDbLine
 10
5.824700000000037
 20
0.000000000000002
 30
0.0
 11
5.899400000000037
 21
0.000000000000002
 31
0.0
  0
LINE
  5
B0
100
AcDbEntity
  8
USP-GEO
100
AcDbLine
 10
5.824700000000037
 20
0.0747000000000027
 30
0.0
 11
5.824700000000037
 21
0.000000000000002
 31
0.0
  0
LINE
  5
B1
100
AcDbEntity
  8
USP-GEO
100
AcDbLine
 10
5.899400000000039
 20
0.0747000000000027
 30
0.0
 11
5.899400000000039
 21
0.000000000000002
 31
0.0
  0
ARC
  5
B2
100
AcDbEntity
  8
USP-GEO
100
AcDbCircle
 10
8.211873256841281
 20
-0.2308015914793737
 30
0.0
 40
2.5
100
AcDbArc
 50
137.5184333539282
 51
157.6667419904897
  0
LINE
  5
B3
100
AcDbEntity
  8
USP-HID
100
AcDbLine
 10
5.824700000000037
 20
0.7191812696259275
 30
0.0
 11
5.899400000000037
 21
0.7191812696259275
 31
0.0
  0
LINE
  5
B4
100
AcDbEntity
  8
USP-HID
100
AcDbLine
 10
5.824700000000035
 20
1.59419999999988
 30
0.0
 11
5.899400000000037
 21
1.59419999999988
 31
0.0
  0
LINE
  5
B5
100
AcDbEntity
  8
USP-HID
100
AcDbLine
 10
5.824700000000037
 20
1.43019999999988
 30
0.0
 11
5.899400000000037
 21
1.43019999999988
 31
0.0
  0
CIRCLE
  5
B6
100
AcDbEntity
  8
USP-GEO
100
AcDbCircle
 10
6.649400000000108
 20
3.074699999999868
 30
0.0
 40
0.086
  0
CIRCLE
  5
B7
100
AcDbEntity
  8
USP-GEO
100
AcDbCircle
 10
6.649400000000106
 20
5.949699999999864
 30
0.0
 40
0.086
  0
CIRCLE
  5
B8
100
AcDbEntity
  8
USP-GEO
100
AcDbCircle
 10
6.461900000000108
 20
2.303195044271323
 30
0.0
 40
0.086
  0
LINE
  5
B9
100
AcDbEntity
  8
USP-HID
100
AcDbLine
 10
5.824700000000033
 20
3.487330897144178
 30
0.0
 11
5.899400000000037
 21
3.487330897144178
 31
0.0
  0
LINE
  5
BA
100
AcDbEntity
  8
USP-HID
100
AcDbLine
 10
5.824700000000033
 20
3.29733089714418
 30
0.0
 11
5.899400000000037
 21
3.29733089714418
 31
0.0
  0
LINE
  5
BB
100
AcDbEntity
  8
USP-HID
100
AcDbLine
 10
5.824700000000031
 20
3.390537232443469
 30
0.0
 11
5.899400000000037
 21
3.390537232443469
 31
0.0
  0
LINE
  5
BC
100
AcDbEntity
  8
USP-HID
100
AcDbLine
 10
5.824700000000033
 20
3.226537232443469
 30
0.0
 11
5.899400000000033
 21
3.226537232443469
 31
0.0
  0
ARC
  5
BD
100
AcDbEntity
  8
USP-GEO
100
AcDbCircle
 10
5.899400000000051
 20
3.392330897144178
 30
0.0
 40
0.095
100
AcDbArc
 50
270.0
 51
90.0
  0
LINE
  5
BE
100
AcDbEntity
  8
USP-HID
100
AcDbLine
 10
5.824700000000033
 20
4.189901308014518
 30
0.0
 11
5.899400000000039
 21
4.189901308014518
 31
0.0
  0
LINE
  5
BF
100
AcDbEntity
  8
USP-HID
100
AcDbLine
 10
5.824700000000035
 20
4.025901308014518
 30
0.0
 11
5.899400000000035
 21
4.025901308014518
 31
0.0
  0
CIRCLE
  5
C0
100
AcDbEntity
  8
USP-GEO
100
AcDbCircle
 10
6.274400000000108
 20
3.949699999999869
 30
0.0
 40
0.086
  0
LINE
  5
C1
100
AcDbEntity
  8
USP-HID
100
AcDbLine
 10
5.824700000000037
 20
5.675769385878425
 30
0.0
 11
5.899400000000037
 21
5.675769385878425
 31
0.0
  0
CIRCLE
  5
C2
100
AcDbEntity
  8
USP-GEO
100
AcDbCircle
 10
6.461900000000108
 20
4.949699999999866
 30
0.0
 40
0.086
  0
LINE
  5
C3
100
AcDbEntity
  8
USP-HID
100
AcDbLine
 10
5.824700000000037
 20
5.982769385878426
 30
0.0
 11
5.899400000000035
 21
5.982769385878426
 31
0.0
  0
LINE
  5
C4
100
AcDbEntity
  8
USP-HID
100
AcDbLine
 10
5.824700000000037
 20
7.010421005441537
 30
0.0
 11
5.899400000000035
 21
7.010421005441537
 31
0.0
  0
LINE
  5
C5
100
AcDbEntity
  8
USP-HID
100
AcDbLine
 10
5.824700000000037
 20
6.846421005441535
 30
0.0
 11
5.899400000000037
 21
6.846421005441535
 31
0.0
  0
CIRCLE
  5
C6
100
AcDbEntity
  8
USP-GEO
100
AcDbCircle
 10
6.274400000000104
 20
6.949699999999865
 30
0.0
 40
0.086
  0
CIRCLE
  5
C7
100
AcDbEntity
  8
USP-GEO
100
AcDbCircle
 10
0.7499999999999698
 20
10.07469999999992
 30
0.0
 40
0.086
  0
CIRCLE
  5
C8
100
AcDbEntity
  8
USP-GEO
100
AcDbCircle
 10
0.5624999999999698
 20
8.074699999999923
 30
0.0
 40
0.086
  0
CIRCLE
  5
C9
100
AcDbEntity
  8
USP-GEO
100
AcDbCircle
 10
0.3749999999999698
 20
9.074699999999927
 30
0.0
 40
0.086
  0
LINE
  5
CA
100
AcDbEntity
  8
USP-HID
100
AcDbLine
 10
1.199700000000033
 20
7.530848615981118
 30
0.0
 11
1.125000000000033
 21
7.530848615981118
 31
0.0
  0
LINE
  5
CB
100
AcDbEntity
  8
USP-HID
100
AcDbLine
 10
1.199700000000037
 20
7.694848615981119
 30
0.0
 11
1.125000000000033
 21
7.694848615981119
 31
0.0
  0
LINE
  5
CC
100
AcDbEntity
  8
USP-GEO
100
AcDbLine
 10
0.0000000000000284
 20
10.32469999999992
 30
0.0
 11
1.125000000000031
 21
10.32469999999991
 31
0.0
  0
LINE
  5
CD
100
AcDbEntity
  8
USP-GEO
100
AcDbLine
 10
1.199700000000037
 20
10.32469999999995
 30
0.0
 11
1.125000000000037
 21
10.32469999999995
 31
0.0
  0
CIRCLE
  5
CE
100
AcDbEntity
  8
USP-GEO
100
AcDbCircle
 10
6.649400000000104
 20
8.949699999999866
 30
0.0
 40
0.086
  0
LINE
  5
CF
100
AcDbEntity
  8
USP-GEO
100
AcDbLine
 10
5.899400000000037
 20
10.32469999999985
 30
0.0
 11
7.024400000000035
 21
10.32469999999986
 31
0.0
  0
LINE
  5
D0
100
AcDbEntity
  8
USP-HID
100
AcDbLine
 10
5.824700000000037
 20
7.882348615981066
 30
0.0
 11
5.899400000000037
 21
7.882348615981066
 31
0.0
  0
LINE
  5
D1
100
AcDbEntity
  8
USP-HID
100
AcDbLine
 10
5.824700000000037
 20
7.718348615981065
 30
0.0
 11
5.899400000000037
 21
7.718348615981065
 31
0.0
  0
CIRCLE
  5
D2
100
AcDbEntity
  8
USP-GEO
100
AcDbCircle
 10
6.461900000000108
 20
7.949699999999867
 30
0.0
 40
0.086
  0
CIRCLE
  5
D3
100
AcDbEntity
  8
USP-GEO
100
AcDbCircle
 10
6.274400000000104
 20
9.949699999999866
 30
0.0
 40
0.086
  0
LINE
  5
D4
100
AcDbEntity
  8
USP-GEO
100
AcDbLine
 10
5.824700000000037
 20
10.3246999999999
 30
0.0
 11
5.899400000000035
 21
10.3246999999999
 31
0.0
  0
ENDBLK
  5
D6
100
AcDbEntity
  8
0
100
AcDbBlockEnd
  0
BLOCK
  5
12F
100
AcDbEntity
  8
0
100
AcDbBlockBegin
  2
HD5212_T
 70
     0
 10
0.0
 20
0.0
 30
0.0
  3
HD5212_T
  1

  0
TEXT
  5
D9
100
AcDbEntity
  8
USP-TXT
100
AcDbText
 10
1.038241666666695
 20
-1.009194957890338
 30
0.0
 40
0.296875
  1
HD5212 - TOP VIEW
 72
     1
 11
3.512200000000027
 21
-1.009194957890338
 31
0.0
100
AcDbText
  0
LINE
  5
DA
100
AcDbEntity
  8
USP-GEO
100
AcDbLine
 10
2.137200000000011
 20
0.0
 30
0.0
 11
4.887200000000039
 21
-0.0000000000000568
 31
0.0
  0
LINE
  5
DB
100
AcDbEntity
  8
USP-GEO
100
AcDbLine
 10
2.137199999999984
 20
2.499973256841103
 30
0.0
 11
4.88720000000007
 21
2.499973256841188
 31
0.0
  0
LINE
  5
DC
100
AcDbEntity
  8
USP-GEO
100
AcDbLine
 10
2.137199999999986
 20
2.437473256841188
 30
0.0
 11
1.637199999999956
 21
2.437473256841203
 31
0.0
  0
LINE
  5
DD
100
AcDbEntity
  8
USP-GEO
100
AcDbLine
 10
2.137200000000013
 20
0.0624999999999307
 30
0.0
 11
1.637199999999956
 21
0.0624999999999165
 31
0.0
  0
LINE
  5
DE
100
AcDbEntity
  8
USP-GEO
100
AcDbLine
 10
1.125000000000007
 20
2.687500000000371
 30
0.0
 11
1.125000000000007
 21
1.312226743159206
 31
0.0
  0
LINE
  5
DF
100
AcDbEntity
  8
USP-GEO
100
AcDbLine
 10
1.199700000000007
 20
2.762200000000371
 30
0.0
 11
1.199700000000007
 21
1.312226743159206
 31
0.0
  0
LINE
  5
E0
100
AcDbEntity
  8
USP-GEO
100
AcDbLine
 10
1.125000000000011
 20
1.312226743159131
 30
0.0
 11
1.125000000000013
 21
0.6562633715794455
 31
0.0
  0
LINE
  5
E1
100
AcDbEntity
  8
USP-GEO
100
AcDbLine
 10
1.199700000000011
 20
0.6562633715794455
 30
0.0
 11
1.199700000000009
 21
1.312226743159131
 31
0.0
  0
ARC
  5
E2
100
AcDbEntity
  8
USP-GEO
100
AcDbCircle
 10
1.505201591479283
 20
2.499999999999973
 30
0.0
 40
2.5
100
AcDbArc
 50
262.980875357107
 51
270.0
  0
LINE
  5
E3
100
AcDbEntity
  8
USP-GEO
100
AcDbLine
 10
1.125000000000011
 20
0.6562633715794402
 30
0.0
 11
1.125000000000013
 21
0.0187364554316716
 31
0.0
  0
LINE
  5
E4
100
AcDbEntity
  8
USP-GEO
100
AcDbLine
 10
1.199700000000011
 20
0.6562633715794437
 30
0.0
 11
1.199700000000013
 21
0.0187364554316751
 31
0.0
  0
LINE
  5
E5
100
AcDbEntity
  8
USP-GEO
100
AcDbLine
 10
1.125000000000013
 20
0.0187364554316734
 30
0.0
 11
1.199700000000013
 21
0.0187364554316734
 31
0.0
  0
LINE
  5
E6
100
AcDbEntity
  8
USP-GEO
100
AcDbLine
 10
1.637199999999984
 20
-0.0000000000000853
 30
0.0
 11
1.50520159147937
 21
-0.0000000000000853
 31
0.0
  0
LINE
  5
E7
100
AcDbEntity
  8
USP-GEO
100
AcDbLine
 10
1.637199999999956
 20
0.0624999999999147
 30
0.0
 11
1.637199999999984
 21
-0.0000000000000977
 31
0.0
  0
LINE
  5
E8
100
AcDbEntity
  8
USP-HID
100
AcDbLine
 10
1.199700000000009
 20
1.312526743158892
 30
0.0
 11
1.125000000000011
 21
1.312526743158892
 31
0.0
  0
LINE
  5
E9
100
AcDbEntity
  8
USP-GEO
100
AcDbLine
 10
1.199700000000007
 20
1.312226743159206
 30
0.0
 11
1.125000000000007
 21
1.312226743159206
 31
0.0
  0
LINE
  5
EA
100
AcDbEntity
  8
USP-HID
100
AcDbLine
 10
1.199700000000009
 20
1.605226743159073
 30
0.0
 11
1.125000000000007
 21
1.605226743159073
 31
0.0
  0
LINE
  5
EB
100
AcDbEntity
  8
USP-HID
100
AcDbLine
 10
1.199700000000009
 20
1.769226743159075
 30
0.0
 11
1.125000000000007
 21
1.769226743159075
 31
0.0
  0
LINE
  5
EC
100
AcDbEntity
  8
USP-HID
100
AcDbLine
 10
1.199700000000007
 20
2.096500000000188
 30
0.0
 11
1.125000000000007
 21
2.096500000000188
 31
0.0
  0
LINE
  5
ED
100
AcDbEntity
  8
USP-GEO
100
AcDbLine
 10
0.0
 20
2.687500000000371
 30
0.0
 11
1.125000000000004
 21
2.687500000000371
 31
0.0
  0
LINE
  5
EE
100
AcDbEntity
  8
USP-GEO
100
AcDbLine
 10
1.199700000000007
 20
2.762200000000371
 30
0.0
 11
0.0000000000000009
 21
2.762200000000371
 31
0.0
  0
LINE
  5
EF
100
AcDbEntity
  8
USP-GEO
100
AcDbLine
 10
0.0000000000000009
 20
2.762200000000371
 30
0.0
 11
0.0000000000000009
 21
2.687500000000371
 31
0.0
  0
LINE
  5
F0
100
AcDbEntity
  8
USP-HID
100
AcDbLine
 10
0.288999999999942
 20
2.762200000000321
 30
0.0
 11
0.288999999999942
 21
2.687500000000321
 31
0.0
  0
LINE
  5
F1
100
AcDbEntity
  8
USP-HID
100
AcDbLine
 10
0.4609999999999426
 20
2.762200000000321
 30
0.0
 11
0.4609999999999426
 21
2.687500000000321
 31
0.0
  0
LINE
  5
F2
100
AcDbEntity
  8
USP-HID
100
AcDbLine
 10
0.476499999999942
 20
2.762200000000282
 30
0.0
 11
0.476499999999942
 21
2.687500000000282
 31
0.0
  0
LINE
  5
F3
100
AcDbEntity
  8
USP-HID
100
AcDbLine
 10
0.6639999999999402
 20
2.76220000000036
 30
0.0
 11
0.6639999999999402
 21
2.687500000000367
 31
0.0
  0
LINE
  5
F4
100
AcDbEntity
  8
USP-HID
100
AcDbLine
 10
0.6484999999999426
 20
2.762200000000282
 30
0.0
 11
0.6484999999999426
 21
2.687500000000282
 31
0.0
  0
LINE
  5
F5
100
AcDbEntity
  8
USP-HID
100
AcDbLine
 10
0.8359999999999407
 20
2.76220000000036
 30
0.0
 11
0.8359999999999407
 21
2.687500000000367
 31
0.0
  0
ARC
  5
F6
100
AcDbEntity
  8
USP-GEO
100
AcDbCircle
 10
1.505201591479283
 20
4.999973256841203
 30
0.0
 40
2.5
100
AcDbArc
 50
262.9808753571069
 51
270.0
  0
LINE
  5
F7
100
AcDbEntity
  8
USP-HID
100
AcDbLine
 10
1.199700000000013
 20
2.687499999999401
 30
0.0
 11
1.125000000000013
 21
2.687499999999401
 31
0.0
  0
LINE
  5
F8
100
AcDbEntity
  8
USP-HID
100
AcDbLine
 10
1.199700000000013
 20
2.518709712272906
 30
0.0
 11
1.125000000000013
 21
2.518709712272906
 31
0.0
  0
LINE
  5
F9
100
AcDbEntity
  8
USP-HID
100
AcDbLine
 10
1.199700000000007
 20
2.403500000000191
 30
0.0
 11
1.125000000000007
 21
2.403500000000191
 31
0.0
  0
LINE
  5
FA
100
AcDbEntity
  8
USP-HID
100
AcDbLine
 10
1.199700000000009
 20
2.592500000000113
 30
0.0
 11
1.125000000000011
 21
2.592500000000113
 31
0.0
  0
LINE
  5
FB
100
AcDbEntity
  8
USP-HID
100
AcDbLine
 10
1.125000000000011
 20
2.687499999999397
 30
0.0
 11
1.125000000000011
 21
2.762199999999984
 31
0.0
  0
LINE
  5
FC
100
AcDbEntity
  8
USP-HID
100
AcDbLine
 10
1.030000000000002
 20
2.762200000000097
 30
0.0
 11
1.030000000000002
 21
2.687500000000097
 31
0.0
  0
LINE
  5
FD
100
AcDbEntity
  8
USP-GEO
100
AcDbLine
 10
1.637199999999986
 20
2.499973256841174
 30
0.0
 11
1.505201591479283
 21
2.499973256841174
 31
0.0
  0
LINE
  5
FE
100
AcDbEntity
  8
USP-GEO
100
AcDbLine
 10
1.637199999999956
 20
2.437473256841203
 30
0.0
 11
1.637199999999984
 21
2.499973256841174
 31
0.0
  0
LINE
  5
FF
100
AcDbEntity
  8
USP-GEO
100
AcDbLine
 10
2.137200000000013
 20
0.0624999999999307
 30
0.0
 11
2.137199999999984
 21
-0.0000000000000693
 31
0.0
  0
LINE
  5
100
100
AcDbEntity
  8
USP-GEO
100
AcDbLine
 10
2.88492077938637
 20
0.2999999999999865
 30
0.0
 11
3.012199999999984
 21
0.4272792206135457
 31
0.0
  0
LINE
  5
101
100
AcDbEntity
  8
USP-GEO
100
AcDbLine
 10
3.012199999999983
 20
0.172720779386399
 30
0.0
 11
2.884920779386368
 21
0.2999999999999847
 31
0.0
  0
LINE
  5
102
100
AcDbEntity
  8
USP-GEO
100
AcDbLine
 10
3.139479220613544
 20
0.2999999999999865
 30
0.0
 11
3.012199999999984
 21
0.1727207793863972
 31
0.0
  0
LINE
  5
103
100
AcDbEntity
  8
USP-GEO
100
AcDbLine
 10
3.012199999999983
 20
0.4272792206135439
 30
0.0
 11
3.139479220613542
 21
0.2999999999999812
 31
0.0
  0
LINE
  5
104
100
AcDbEntity
  8
USP-GEO
100
AcDbLine
 10
4.139479220613547
 20
0.2999999999999847
 30
0.0
 11
4.012199999999986
 21
0.1727207793863972
 31
0.0
  0
LINE
  5
105
100
AcDbEntity
  8
USP-GEO
100
AcDbLine
 10
4.012199999999983
 20
0.4272792206135403
 30
0.0
 11
4.139479220613542
 21
0.2999999999999829
 31
0.0
  0
LINE
  5
106
100
AcDbEntity
  8
USP-GEO
100
AcDbLine
 10
4.012199999999986
 20
0.1727207793863972
 30
0.0
 11
3.884920779386368
 21
0.2999999999999847
 31
0.0
  0
LINE
  5
107
100
AcDbEntity
  8
USP-GEO
100
AcDbLine
 10
3.88492077938637
 20
0.2999999999999865
 30
0.0
 11
4.012199999999984
 21
0.4272792206135457
 31
0.0
  0
CIRCLE
  5
108
100
AcDbEntity
  8
USP-GEO
100
AcDbCircle
 10
3.512200000000013
 20
0.9999866284205598
 30
0.0
 40
0.1535
  0
LINE
  5
109
100
AcDbEntity
  8
USP-GEO
100
AcDbLine
 10
2.137200000000011
 20
2.437473256841188
 30
0.0
 11
2.137199999999983
 21
2.499973256841103
 31
0.0
  0
LINE
  5
10A
100
AcDbEntity
  8
USP-GEO
100
AcDbLine
 10
5.899400000000007
 20
2.687500000000371
 30
0.0
 11
7.024400000000006
 21
2.687500000000371
 31
0.0
  0
LINE
  5
10B
100
AcDbEntity
  8
USP-GEO
100
AcDbLine
 10
5.824700000000007
 20
2.762200000000374
 30
0.0
 11
7.024400000000006
 21
2.762200000000374
 31
0.0
  0
LINE
  5
10C
100
AcDbEntity
  8
USP-GEO
100
AcDbLine
 10
5.824700000000007
 20
2.762200000000374
 30
0.0
 11
5.824700000000007
 21
1.312226743159206
 31
0.0
  0
LINE
  5
10D
100
AcDbEntity
  8
USP-GEO
100
AcDbLine
 10
5.899400000000006
 20
1.312226743159206
 30
0.0
 11
5.899400000000006
 21
2.687500000000374
 31
0.0
  0
ARC
  5
10E
100
AcDbEntity
  8
USP-GEO
100
AcDbCircle
 10
5.519198408520741
 20
2.499999999999973
 30
0.0
 40
2.5
100
AcDbArc
 50
270.0
 51
277.019124642893
  0
LINE
  5
10F
100
AcDbEntity
  8
USP-GEO
100
AcDbLine
 10
4.887200000000043
 20
0.0624999999999307
 30
0.0
 11
5.387200000000068
 21
0.0624999999999165
 31
0.0
  0
LINE
  5
110
100
AcDbEntity
  8
USP-GEO
100
AcDbLine
 10
4.887200000000015
 20
0.0624999999999307
 30
0.0
 11
4.887200000000043
 21
-0.0000000000000568
 31
0.0
  0
LINE
  5
111
100
AcDbEntity
  8
USP-GEO
100
AcDbLine
 10
5.387200000000011
 20
-0.0000000000000995
 30
0.0
 11
5.519198408520741
 21
-0.0000000000000853
 31
0.0
  0
LINE
  5
112
100
AcDbEntity
  8
USP-GEO
100
AcDbLine
 10
5.387200000000068
 20
0.0624999999999183
 30
0.0
 11
5.387200000000039
 21
-0.0000000000000995
 31
0.0
  0
LINE
  5
113
100
AcDbEntity
  8
USP-GEO
100
AcDbLine
 10
5.899400000000013
 20
0.6562633715794437
 30
0.0
 11
5.899400000000011
 21
1.312226743159131
 31
0.0
  0
LINE
  5
114
100
AcDbEntity
  8
USP-GEO
100
AcDbLine
 10
5.824700000000007
 20
1.312226743159131
 30
0.0
 11
5.824700000000009
 21
0.6562633715794437
 31
0.0
  0
LINE
  5
115
100
AcDbEntity
  8
USP-GEO
100
AcDbLine
 10
5.899400000000015
 20
0.0187364554316734
 30
0.0
 11
5.899400000000013
 21
0.6562633715794402
 31
0.0
  0
LINE
  5
116
100
AcDbEntity
  8
USP-GEO
100
AcDbLine
 10
5.824700000000011
 20
0.0187364554316751
 30
0.0
 11
5.824700000000009
 21
0.656263371579442
 31
0.0
  0
LINE
  5
117
100
AcDbEntity
  8
USP-GEO
100
AcDbLine
 10
5.899400000000015
 20
0.0187364554316751
 30
0.0
 11
5.824700000000015
 21
0.0187364554316751
 31
0.0
  0
LINE
  5
118
100
AcDbEntity
  8
USP-HID
100
AcDbLine
 10
5.824700000000007
 20
1.312526743158896
 30
0.0
 11
5.899400000000011
 21
1.312526743158896
 31
0.0
  0
LINE
  5
119
100
AcDbEntity
  8
USP-GEO
100
AcDbLine
 10
5.824700000000007
 20
1.312226743159206
 30
0.0
 11
5.899400000000007
 21
1.312226743159206
 31
0.0
  0
LINE
  5
11A
100
AcDbEntity
  8
USP-HID
100
AcDbLine
 10
5.824700000000011
 20
2.096500000000188
 30
0.0
 11
5.899400000000011
 21
2.096500000000188
 31
0.0
  0
LINE
  5
11B
100
AcDbEntity
  8
USP-HID
100
AcDbLine
 10
5.824700000000011
 20
1.769226743159086
 30
0.0
 11
5.899400000000011
 21
1.769226743159086
 31
0.0
  0
LINE
  5
11C
100
AcDbEntity
  8
USP-HID
100
AcDbLine
 10
5.824700000000011
 20
1.605226743159084
 30
0.0
 11
5.899400000000011
 21
1.605226743159084
 31
0.0
  0
ARC
  5
11D
100
AcDbEntity
  8
USP-GEO
100
AcDbCircle
 10
5.519198408520741
 20
4.999973256841203
 30
0.0
 40
2.5
100
AcDbArc
 50
270.0
 51
277.019124642893
  0
LINE
  5
11E
100
AcDbEntity
  8
USP-GEO
100
AcDbLine
 10
4.887200000000015
 20
2.437473256841188
 30
0.0
 11
5.387200000000071
 21
2.437473256841203
 31
0.0
  0
LINE
  5
11F
100
AcDbEntity
  8
USP-GEO
100
AcDbLine
 10
4.887200000000015
 20
2.437473256841188
 30
0.0
 11
4.887200000000043
 21
2.499973256841188
 31
0.0
  0
LINE
  5
120
100
AcDbEntity
  8
USP-GEO
100
AcDbLine
 10
5.387200000000043
 20
2.499973256841203
 30
0.0
 11
5.519198408520826
 21
2.499973256841203
 31
0.0
  0
LINE
  5
121
100
AcDbEntity
  8
USP-GEO
100
AcDbLine
 10
5.387200000000071
 20
2.437473256841203
 30
0.0
 11
5.387200000000043
 21
2.499973256841217
 31
0.0
  0
LINE
  5
122
100
AcDbEntity
  8
USP-HID
100
AcDbLine
 10
5.824700000000013
 20
2.687499999999934
 30
0.0
 11
5.899400000000015
 21
2.687499999999934
 31
0.0
  0
LINE
  5
123
100
AcDbEntity
  8
USP-HID
100
AcDbLine
 10
5.824700000000013
 20
2.518709712272906
 30
0.0
 11
5.899400000000015
 21
2.518709712272906
 31
0.0
  0
LINE
  5
124
100
AcDbEntity
  8
USP-HID
100
AcDbLine
 10
5.824700000000011
 20
2.403500000000191
 30
0.0
 11
5.899400000000011
 21
2.403500000000191
 31
0.0
  0
LINE
  5
125
100
AcDbEntity
  8
USP-HID
100
AcDbLine
 10
5.824700000000007
 20
2.592500000000105
 30
0.0
 11
5.899400000000011
 21
2.592500000000105
 31
0.0
  0
LINE
  5
126
100
AcDbEntity
  8
USP-HID
100
AcDbLine
 10
5.899400000000015
 20
2.762199999999934
 30
0.0
 11
5.899400000000015
 21
2.687499999999934
 31
0.0
  0
LINE
  5
127
100
AcDbEntity
  8
USP-HID
100
AcDbLine
 10
5.994400000000022
 20
2.762200000000104
 30
0.0
 11
5.994400000000022
 21
2.687500000000104
 31
0.0
  0
LINE
  5
128
100
AcDbEntity
  8
USP-HID
100
AcDbLine
 10
6.188400000000075
 20
2.76220000000036
 30
0.0
 11
6.188400000000075
 21
2.687500000000353
 31
0.0
  0
LINE
  5
129
100
AcDbEntity
  8
USP-HID
100
AcDbLine
 10
6.375900000000076
 20
2.762200000000278
 30
0.0
 11
6.375900000000076
 21
2.687500000000278
 31
0.0
  0
LINE
  5
12A
100
AcDbEntity
  8
USP-HID
100
AcDbLine
 10
6.360400000000075
 20
2.76220000000036
 30
0.0
 11
6.360400000000075
 21
2.687500000000353
 31
0.0
  0
LINE
  5
12B
100
AcDbEntity
  8
USP-HID
100
AcDbLine
 10
6.547900000000077
 20
2.762200000000278
 30
0.0
 11
6.547900000000077
 21
2.687500000000278
 31
0.0
  0
LINE
  5
12C
100
AcDbEntity
  8
USP-HID
100
AcDbLine
 10
6.563400000000076
 20
2.762200000000317
 30
0.0
 11
6.563400000000076
 21
2.68750000000031
 31
0.0
  0
LINE
  5
12D
100
AcDbEntity
  8
USP-HID
100
AcDbLine
 10
6.735400000000077
 20
2.762200000000317
 30
0.0
 11
6.735400000000077
 21
2.68750000000031
 31
0.0
  0
LINE
  5
12E
100
AcDbEntity
  8
USP-GEO
100
AcDbLine
 10
7.024400000000006
 20
2.762200000000374
 30
0.0
 11
7.024400000000006
 21
2.687500000000374
 31
0.0
  0
ENDBLK
  5
130
100
AcDbEntity
  8
0
100
AcDbBlockEnd
  0
ENDSEC
  0
SECTION
  2
ENTITIES
  0
INSERT
  5
3
100
AcDbEntity
  8
USP
100
AcDbBlockReference
  2
HD5212_S
 10
1.192270754940359
 20
1.546477287430066
 30
0.0
  0
INSERT
  5
66
100
AcDbEntity
  8
USP
100
AcDbBlockReference
  2
HD5212_F
 10
7.856753933355852
 20
1.546477287430166
 30
0.0
  0
INSERT
  5
D7
100
AcDbEntity
  8
USP
100
AcDbBlockReference
  2
HD5212_T
 10
7.856753933355871
 20
15.03387354927997
 30
0.0
  0
ENDSEC
  0
SECTION
  2
OBJECTS
  0
DICTIONARY
  5
146
102
{ACAD_XDICTIONARY
360
147
102
}
100
AcDbDictionary
  3
ACAD_GROUP
350
144
  3
ACAD_MLINESTYLE
350
145
1001
ACAD
1000
TREAT_AS_HARD
1070
     0
  0
DICTIONARY
  5
A
100
AcDbDictionary
280
     1
1001
ACAD
1000
TREAT_AS_HARD
1070
     1
  0
DICTIONARY
  5
13
100
AcDbDictionary
280
     1
1001
ACAD
1000
TREAT_AS_HARD
1070
     1
  0
DICTIONARY
  5
131
100
AcDbDictionary
280
     1
1001
ACAD
1000
TREAT_AS_HARD
1070
     1
  0
DICTIONARY
  5
135
100
AcDbDictionary
280
     1
1001
ACAD
1000
TREAT_AS_HARD
1070
     1
  0
DICTIONARY
  5
147
100
AcDbDictionary
280
     1
1001
ACAD
1000
TREAT_AS_HARD
1070
     1
  0
DICTIONARY
  5
144
102
{ACAD_REACTORS
330
146
102
}
100
AcDbDictionary
1001
ACAD
1000
TREAT_AS_HARD
1070
     0
  0
DICTIONARY
  5
145
102
{ACAD_REACTORS
330
146
102
}
100
AcDbDictionary
  3
STANDARD
350
148
1001
ACAD
1000
TREAT_AS_HARD
1070
     0
  0
MLINESTYLE
  5
148
102
{ACAD_REACTORS
330
145
102
}
100
AcDbMlineStyle
  2
STANDARD
 70
     0
  3

 62
     0
 51
90.0
 52
90.0
 71
     2
 49
0.5
 62
   256
  6
BYLAYER
 49
-0.5
 62
   256
  6
BYLAYER
  0
ENDSEC
  0
EOF
