  0
SECTION
  2
HEADER
  9
$ACADVER
  1
AC1014
  9
$ACADMAINTVER
 70
     9
  9
$DWGCODEPAGE
  3
ANSI_1252
  9
$INSBASE
 10
0.0
 20
0.0
 30
0.0
  9
$EXTMIN
 10
-0.034203853646873
 20
0.0030091321400505
 30
0.0
  9
$EXTMAX
 10
15.21348027846302
 20
15.95984133745835
 30
0.0
  9
$LIMMIN
 10
0.0
 20
0.0
  9
$LIMMAX
 10
12.0
 20
9.0
  9
$ORTHOMODE
 70
     1
  9
$REGENMODE
 70
     1
  9
$FILLMODE
 70
     1
  9
$QTEXTMODE
 70
     0
  9
$MIRRTEXT
 70
     0
  9
$DRAGMODE
 70
     2
  9
$LTSCALE
 40
1.5
  9
$OSMODE
 70
     0
  9
$ATTMODE
 70
     1
  9
$TEXTSIZE
 40
0.75
  9
$TRACEWID
 40
0.05
  9
$TEXTSTYLE
  7
STANDARD
  9
$CLAYER
  8
USP
  9
$CELTYPE
  6
BYLAYER
  9
$CECOLOR
 62
   256
  9
$CELTSCALE
 40
1.0
  9
$DELOBJ
 70
     1
  9
$DISPSILH
 70
     1
  9
$DIMSCALE
 40
7.0
  9
$DIMASZ
 40
0.125
  9
$DIMEXO
 40
0.0625
  9
$DIMDLI
 40
0.37890625
  9
$DIMRND
 40
0.0
  9
$DIMDLE
 40
0.0
  9
$DIMEXE
 40
0.09375
  9
$DIMTP
 40
0.0
  9
$DIMTM
 40
0.0
  9
$DIMTXT
 40
0.109375
  9
$DIMCEN
 40
0.0
  9
$DIMTSZ
 40
0.0
  9
$DIMTOL
 70
     0
  9
$DIMLIM
 70
     0
  9
$DIMTIH
 70
     1
  9
$DIMTOH
 70
     1
  9
$DIMSE1
 70
     0
  9
$DIMSE2
 70
     0
  9
$DIMTAD
 70
     0
  9
$DIMZIN
 70
     8
  9
$DIMBLK
  1

  9
$DIMASO
 70
     1
  9
$DIMSHO
 70
     1
  9
$DIMPOST
  1

  9
$DIMAPOST
  1

  9
$DIMALT
 70
     0
  9
$DIMALTD
 70
     2
  9
$DIMALTF
 40
25.4
  9
$DIMLFAC
 40
1.0
  9
$DIMTOFL
 70
     0
  9
$DIMTVP
 40
0.0
  9
$DIMTIX
 70
     0
  9
$DIMSOXD
 70
     0
  9
$DIMSAH
 70
     0
  9
$DIMBLK1
  1

  9
$DIMBLK2
  1

  9
$DIMSTYLE
  2
STANDARD
  9
$DIMCLRD
 70
     0
  9
$DIMCLRE
 70
     0
  9
$DIMCLRT
 70
   256
  9
$DIMTFAC
 40
1.0
  9
$DIMGAP
 40
0.08984375
  9
$DIMJUST
 70
     0
  9
$DIMSD1
 70
     0
  9
$DIMSD2
 70
     0
  9
$DIMTOLJ
 70
     1
  9
$DIMTZIN
 70
     0
  9
$DIMALTZ
 70
     0
  9
$DIMALTTZ
 70
     0
  9
$DIMFIT
 70
     3
  9
$DIMUPT
 70
     1
  9
$DIMUNIT
 70
     7
  9
$DIMDEC
 70
     4
  9
$DIMTDEC
 70
     4
  9
$DIMALTU
 70
     2
  9
$DIMALTTD
 70
     2
  9
$DIMTXSTY
  7
STANDARD
  9
$DIMAUNIT
 70
     0
  9
$LUNITS
 70
     5
  9
$LUPREC
 70
     6
  9
$SKETCHINC
 40
0.1
  9
$FILLETRAD
 40
0.0
  9
$AUNITS
 70
     0
  9
$AUPREC
 70
     1
  9
$MENU
  1
CUSTOM
  9
$ELEVATION
 40
0.0
  9
$PELEVATION
 40
0.0
  9
$THICKNESS
 40
0.0
  9
$LIMCHECK
 70
     0
  9
$BLIPMODE
 70
     0
  9
$CHAMFERA
 40
0.0
  9
$CHAMFERB
 40
0.0
  9
$CHAMFERC
 40
0.0
  9
$CHAMFERD
 40
0.0
  9
$SKPOLY
 70
     0
  9
$TDCREATE
 40
2451263.663231366
  9
$TDUPDATE
 40
2452759.744733425
  9
$TDINDWG
 40
0.4895547685
  9
$TDUSRTIMER
 40
0.4895547685
  9
$USRTIMER
 70
     1
  9
$ANGBASE
 50
0.0
  9
$ANGDIR
 70
     0
  9
$PDMODE
 70
     0
  9
$PDSIZE
 40
0.0
  9
$PLINEWID
 40
0.0
  9
$COORDS
 70
     2
  9
$SPLFRAME
 70
     0
  9
$SPLINETYPE
 70
     6
  9
$SPLINESEGS
 70
     8
  9
$ATTDIA
 70
     0
  9
$ATTREQ
 70
     0
  9
$HANDLING
 70
     1
  9
$HANDSEED
  5
145
  9
$SURFTAB1
 70
     6
  9
$SURFTAB2
 70
     6
  9
$SURFTYPE
 70
     6
  9
$SURFU
 70
     6
  9
$SURFV
 70
     6
  9
$UCSNAME
  2

  9
$UCSORG
 10
0.0
 20
0.0
 30
0.0
  9
$UCSXDIR
 10
1.0
 20
0.0
 30
0.0
  9
$UCSYDIR
 10
0.0
 20
1.0
 30
0.0
  9
$PUCSNAME
  2

  9
$PUCSORG
 10
0.0
 20
0.0
 30
0.0
  9
$PUCSXDIR
 10
1.0
 20
0.0
 30
0.0
  9
$PUCSYDIR
 10
0.0
 20
1.0
 30
0.0
  9
$USERI1
 70
     0
  9
$USERI2
 70
     0
  9
$USERI3
 70
     0
  9
$USERI4
 70
     0
  9
$USERI5
 70
     0
  9
$USERR1
 40
0.0
  9
$USERR2
 40
0.0
  9
$USERR3
 40
0.0
  9
$USERR4
 40
0.0
  9
$USERR5
 40
0.0
  9
$WORLDVIEW
 70
     1
  9
$SHADEDGE
 70
     3
  9
$SHADEDIF
 70
    70
  9
$TILEMODE
 70
     1
  9
$MAXACTVP
 70
    16
  9
$PINSBASE
 10
0.0
 20
0.0
 30
0.0
  9
$PLIMCHECK
 70
     0
  9
$PEXTMIN
 10
1.000000000000000E+20
 20
1.000000000000000E+20
 30
1.000000000000000E+20
  9
$PEXTMAX
 10
-1.000000000000000E+20
 20
-1.000000000000000E+20
 30
-1.000000000000000E+20
  9
$PLIMMIN
 10
0.0
 20
0.0
  9
$PLIMMAX
 10
12.0
 20
9.0
  9
$UNITMODE
 70
     0
  9
$VISRETAIN
 70
     0
  9
$PLINEGEN
 70
     0
  9
$PSLTSCALE
 70
     0
  9
$TREEDEPTH
 70
  3020
  9
$PICKSTYLE
 70
     1
  9
$CMLSTYLE
  2
STANDARD
  9
$CMLJUST
 70
     0
  9
$CMLSCALE
 40
1.0
  9
$PROXYGRAPHICS
 70
     1
  9
$MEASUREMENT
 70
     0
  0
ENDSEC
  0
SECTION
  2
CLASSES
  0
CLASS
  1
ACDBDICTIONARYWDFLT
  2
AcDbDictionaryWithDefault
  3
AutoCAD 2000
 90
        0
280
     1
281
     0
  0
CLASS
  1
ACDBPLACEHOLDER
  2
AcDbPlaceHolder
  3
AutoCAD 2000
 90
        0
280
     1
281
     0
  0
CLASS
  1
LAYOUT
  2
AcDbLayout
  3
AutoCAD 2000
 90
        0
280
     1
281
     0
  0
CLASS
  1
DICTIONARYVAR
  2
AcDbDictionaryVar
  3
"AutoCAD"
 90
        0
280
     1
281
     0
  0
CLASS
  1
LONG_TRANSACTION
  2
AcDbLongTransaction
  3
AutoCAD 2000
 90
        0
280
     1
281
     0
  0
CLASS
  1
LWPOLYLINE
  2
AcDbPolyline
  3
"AutoCAD"
 90
        0
280
     1
281
     1
  0
CLASS
  1
HATCH
  2
AcDbHatch
  3
"ACAD_SEDONA"
 90
        0
280
     1
281
     1
  0
CLASS
  1
XRECORD
  2
AcDbXrecord
  3
"<Built In>"
 90
        0
280
     0
281
     0
  0
ENDSEC
  0
SECTION
  2
TABLES
  0
TABLE
  2
VPORT
  5
12F
100
AcDbSymbolTable
 70
     1
  0
VPORT
  5
141
100
AcDbSymbolTableRecord
100
AcDbViewportTableRecord
  2
*ACTIVE
 70
     0
 10
0.0
 20
0.0
 11
1.0
 21
1.0
 12
-11.01876878040918
 22
18.58214215349565
 13
0.0
 23
0.0
 14
1.0
 24
1.0
 15
0.0
 25
0.0
 16
0.0
 26
0.0
 36
1.0
 17
23.09603071721725
 27
-10.27010416511325
 37
-10.44050274849355
 40
16.61805771248469
 41
1.457627118644067
 42
50.0
 43
10.55307667737539
 44
10.55307667737539
 50
0.0
 51
0.0
 71
     0
 72
   100
 73
     1
 74
     1
 75
     0
 76
     0
 77
     0
 78
     0
  0
ENDTAB
  0
TABLE
  2
LTYPE
  5
12B
100
AcDbSymbolTable
 70
     1
  0
LTYPE
  5
12C
100
AcDbSymbolTableRecord
100
AcDbLinetypeTableRecord
  2
BYBLOCK
 70
     0
  3

 72
    65
 73
     0
 40
0.0
  0
LTYPE
  5
6
100
AcDbSymbolTableRecord
100
AcDbLinetypeTableRecord
  2
BYLAYER
 70
     0
  3

 72
    65
 73
     0
 40
0.0
  0
LTYPE
  5
5
100
AcDbSymbolTableRecord
100
AcDbLinetypeTableRecord
  2
CONTINUOUS
 70
     0
  3
Solid line
 72
    65
 73
     0
 40
0.0
  0
ENDTAB
  0
TABLE
  2
LAYER
  5
129
100
AcDbSymbolTable
 70
     5
  0
LAYER
  5
5B
100
AcDbSymbolTableRecord
100
AcDbLayerTableRecord
  2
0
 70
     0
 62
     7
  6
CONTINUOUS
  0
LAYER
  5
9
100
AcDbSymbolTableRecord
100
AcDbLayerTableRecord
  2
USP-GEO
 70
     0
 62
     7
  6
CONTINUOUS
  0
LAYER
  5
D
100
AcDbSymbolTableRecord
100
AcDbLayerTableRecord
  2
USP-TXT
 70
     0
 62
     7
  6
CONTINUOUS
  0
LAYER
  5
12
102
{ACAD_XDICTIONARY
360
13
102
}
100
AcDbSymbolTableRecord
100
AcDbLayerTableRecord
  2
USP-HID
 70
     0
 62
     7
  6
CONTINUOUS
  0
LAYER
  5
4
100
AcDbSymbolTableRecord
100
AcDbLayerTableRecord
  2
USP
 70
     0
 62
     7
  6
CONTINUOUS
  0
ENDTAB
  0
TABLE
  2
STYLE
  5
12A
100
AcDbSymbolTable
 70
     1
  0
STYLE
  5
E
100
AcDbSymbolTableRecord
100
AcDbTextStyleTableRecord
  2
STANDARD
 70
     0
 40
0.0
 41
1.0
 50
0.0
 71
     0
 42
0.75
  3
txt
  4

  0
ENDTAB
  0
TABLE
  2
VIEW
  5
12D
100
AcDbSymbolTable
 70
     0
  0
ENDTAB
  0
TABLE
  2
UCS
  5
12E
100
AcDbSymbolTable
 70
     0
  0
ENDTAB
  0
TABLE
  2
APPID
  5
131
100
AcDbSymbolTable
 70
     1
  0
APPID
  5
14
100
AcDbSymbolTableRecord
100
AcDbRegAppTableRecord
  2
ACAD
 70
     0
  0
ENDTAB
  0
TABLE
  2
DIMSTYLE
  5
132
100
AcDbSymbolTable
 70
     1
  0
DIMSTYLE
105
139
100
AcDbSymbolTableRecord
100
AcDbDimStyleTableRecord
  2
STANDARD
 70
     0
  3

  4

  5

  6

  7

 40
1.0
 41
0.18
 42
0.0625
 43
0.38
 44
0.18
 45
0.0
 46
0.0
 47
0.0
 48
0.0
140
0.18
141
0.09
142
0.0
143
25.4
144
1.0
145
0.0
146
1.0
147
0.09
 71
     0
 72
     0
 73
     1
 74
     1
 75
     0
 76
     0
 77
     0
 78
     0
170
     0
171
     2
172
     0
173
     0
174
     0
175
     0
176
     0
177
     0
178
     0
270
     2
271
     4
272
     4
273
     2
274
     2
340
E
275
     0
280
     0
281
     0
282
     0
283
     1
284
     0
285
     0
286
     0
287
     3
288
     0
  0
ENDTAB
  0
TABLE
  2
BLOCK_RECORD
  5
1
100
AcDbSymbolTable
 70
     3
  0
BLOCK_RECORD
  5
2
102
{ACAD_XDICTIONARY
360
122
102
}
100
AcDbSymbolTableRecord
100
AcDbBlockTableRecord
  2
*MODEL_SPACE
  0
BLOCK_RECORD
  5
125
102
{ACAD_XDICTIONARY
360
126
102
}
100
AcDbSymbolTableRecord
100
AcDbBlockTableRecord
  2
*PAPER_SPACE
  0
BLOCK_RECORD
  5
7
100
AcDbSymbolTableRecord
100
AcDbBlockTableRecord
  2
HD5210_S
  0
BLOCK_RECORD
  5
5E
100
AcDbSymbolTableRecord
100
AcDbBlockTableRecord
  2
HD5210_T
  0
BLOCK_RECORD
  5
B8
100
AcDbSymbolTableRecord
100
AcDbBlockTableRecord
  2
HD5210_F
  0
ENDTAB
  0
ENDSEC
  0
SECTION
  2
BLOCKS
  0
BLOCK
  5
123
100
AcDbEntity
  8
0
100
AcDbBlockBegin
  2
*MODEL_SPACE
 70
     0
 10
0.0
 20
0.0
 30
0.0
  3
*MODEL_SPACE
  1

  0
ENDBLK
  5
124
100
AcDbEntity
  8
0
100
AcDbBlockEnd
  0
BLOCK
  5
127
100
AcDbEntity
 67
     1
  8
0
100
AcDbBlockBegin
  2
*PAPER_SPACE
 70
     0
 10
0.0
 20
0.0
 30
0.0
  3
*PAPER_SPACE
  1

  0
ENDBLK
  5
128
100
AcDbEntity
 67
     1
  8
0
100
AcDbBlockEnd
  0
BLOCK
  5
5A
100
AcDbEntity
  8
0
100
AcDbBlockBegin
  2
HD5210_S
 70
     0
 10
0.0
 20
0.0
 30
0.0
  3
HD5210_S
  1

  0
LINE
  5
8
100
AcDbEntity
  8
USP-GEO
100
AcDbLine
 10
-0.0000000000000355
 20
2.7709632774568
 30
0.0
 11
-0.0000000000000431
 21
7.949700000000021
 31
0.0
  0
LINE
  5
A
100
AcDbEntity
  8
USP-GEO
100
AcDbLine
 10
0.0746999999999574
 20
2.770963277456807
 30
0.0
 11
0.0746999999999498
 21
7.949700000000021
 31
0.0
  0
LINE
  5
B
100
AcDbEntity
  8
USP-GEO
100
AcDbLine
 10
1.449973256841127
 20
7.949700000000028
 30
0.0
 11
1.44997325684114
 21
2.809691949005255
 31
0.0
  0
TEXT
  5
C
100
AcDbEntity
  8
USP-TXT
100
AcDbText
 10
-1.16707708333334
 20
-1.286378701441584
 30
0.0
 40
0.296875
  1
HD5210 - SIDE VIEW
 72
     1
 11
1.381099999999992
 21
-1.286378701441584
 31
0.0
100
AcDbText
  0
LINE
  5
F
100
AcDbEntity
  8
USP-GEO
100
AcDbLine
 10
2.667801293646554
 20
0.0000000000000031
 30
0.0
 11
0.167828036805318
 21
0.0
 31
0.0
  0
ARC
  5
10
100
AcDbEntity
  8
USP-GEO
100
AcDbCircle
 10
3.949673256841151
 20
2.770963277456807
 30
0.0
 40
2.5
100
AcDbArc
 50
179.1123687241151
 51
222.4815666460718
  0
LINE
  5
11
100
AcDbEntity
  8
USP-HID
100
AcDbLine
 10
2.667801293646554
 20
0.0747000000000022
 30
0.0
 11
0.1678280368053251
 21
0.0746999999999993
 31
0.0
  0
LINE
  5
15
100
AcDbEntity
  8
USP-GEO
100
AcDbLine
 10
-0.000000000000014
 20
1.082580842988778
 30
0.0
 11
-0.0000000000000397
 21
2.770963277456801
 31
0.0
  0
LINE
  5
16
100
AcDbEntity
  8
USP-GEO
100
AcDbLine
 10
0.074699999999986
 20
1.082580842988778
 30
0.0
 11
0.0746999999999603
 21
2.770963277456801
 31
0.0
  0
LINE
  5
17
100
AcDbEntity
  8
USP-GEO
100
AcDbLine
 10
-0.0000000000000144
 20
1.082580842988782
 30
0.0
 11
0.0000000000000033
 21
0.3441812696260691
 31
0.0
  0
LINE
  5
18
100
AcDbEntity
  8
USP-GEO
100
AcDbLine
 10
0.0747000000000033
 20
0.3441812696260698
 30
0.0
 11
0.0746999999999856
 21
1.082580842988783
 31
0.0
  0
ARC
  5
19
100
AcDbEntity
  8
USP-GEO
100
AcDbCircle
 10
-2.237773256841272
 20
-0.6058015914792776
 30
0.0
 40
2.5
100
AcDbArc
 50
15.79525960918737
 51
22.33325800951099
  0
LINE
  5
1A
100
AcDbEntity
  8
USP-GEO
100
AcDbLine
 10
0.167828036805318
 20
0.0
 30
0.0
 11
0.167828036805318
 21
0.0747
 31
0.0
  0
LINE
  5
1B
100
AcDbEntity
  8
USP-GEO
100
AcDbLine
 10
0.0
 20
0.3441812696260698
 30
0.0
 11
0.0747000000000071
 21
0.3441812696260698
 31
0.0
  0
LINE
  5
1C
100
AcDbEntity
  8
USP-HID
100
AcDbLine
 10
0.2622267431588838
 20
0.0747
 30
0.0
 11
0.2622267431588838
 21
0.0
 31
0.0
  0
LINE
  5
1D
100
AcDbEntity
  8
USP-HID
100
AcDbLine
 10
0.324726743158763
 20
0.0746999999999929
 30
0.0
 11
0.324726743158763
 21
-0.0000000000000036
 31
0.0
  0
LINE
  5
1E
100
AcDbEntity
  8
USP-HID
100
AcDbLine
 10
0.0000000000002274
 20
1.284353208069673
 30
0.0
 11
0.0747000000002345
 21
1.284353208069673
 31
0.0
  0
LINE
  5
1F
100
AcDbEntity
  8
USP-HID
100
AcDbLine
 10
-0.0000000000000142
 20
1.378534965323778
 30
0.0
 11
0.0746999999999858
 21
1.378534965323778
 31
0.0
  0
LINE
  5
20
100
AcDbEntity
  8
USP-HID
100
AcDbLine
 10
0.0000000000002345
 20
1.456353208069673
 30
0.0
 11
0.0747000000002345
 21
1.456353208069673
 31
0.0
  0
LINE
  5
21
100
AcDbEntity
  8
USP-HID
100
AcDbLine
 10
-0.0000000000000144
 20
1.550534965323778
 30
0.0
 11
0.0746999999999856
 21
1.550534965323778
 31
0.0
  0
LINE
  5
22
100
AcDbEntity
  8
USP-HID
100
AcDbLine
 10
1.60871337157947
 20
0.0746999999999927
 30
0.0
 11
1.60871337157947
 21
-0.0000000000000073
 31
0.0
  0
CIRCLE
  5
23
100
AcDbEntity
  8
USP-HID
100
AcDbCircle
 10
1.074973256841346
 20
1.137199999999921
 30
0.0
 40
0.082
  0
ARC
  5
24
100
AcDbEntity
  8
USP-HID
100
AcDbCircle
 10
0.0747000000001776
 20
3.017330897144262
 30
0.0
 40
0.095
100
AcDbArc
 50
270.0000000000001
 51
62.7604912656832
  0
LINE
  5
25
100
AcDbEntity
  8
USP-HID
100
AcDbLine
 10
0.0000000000002345
 20
1.842195044271404
 30
0.0
 11
0.0747000000002345
 21
1.842195044271404
 31
0.0
  0
LINE
  5
26
100
AcDbEntity
  8
USP-HID
100
AcDbLine
 10
0.0000000000002345
 20
2.014195044271404
 30
0.0
 11
0.0747000000002345
 21
2.014195044271404
 31
0.0
  0
LINE
  5
27
100
AcDbEntity
  8
USP-HID
100
AcDbLine
 10
-0.0000000000000213
 20
1.988699999999992
 30
0.0
 11
0.0746999999999787
 21
1.988699999999992
 31
0.0
  0
LINE
  5
28
100
AcDbEntity
  8
USP-HID
100
AcDbLine
 10
-0.0000000000000215
 20
2.160699999999992
 30
0.0
 11
0.0746999999999785
 21
2.160699999999992
 31
0.0
  0
LINE
  5
29
100
AcDbEntity
  8
USP-HID
100
AcDbLine
 10
-0.0000000000000213
 20
2.613700000000021
 30
0.0
 11
0.0746999999999716
 21
2.613700000000021
 31
0.0
  0
LINE
  5
2A
100
AcDbEntity
  8
USP-HID
100
AcDbLine
 10
-0.0000000000000286
 20
2.785700000000021
 30
0.0
 11
0.0746999999999714
 21
2.785700000000021
 31
0.0
  0
LINE
  5
2B
100
AcDbEntity
  8
USP-HID
100
AcDbLine
 10
0.0000000000002132
 20
2.922330897144263
 30
0.0
 11
0.0747000000002132
 21
2.922330897144263
 31
0.0
  0
ARC
  5
2C
100
AcDbEntity
  8
USP-GEO
100
AcDbCircle
 10
0.0746999999999787
 20
3.186260080790496
 30
0.0
 40
0.095
100
AcDbArc
 50
270.0000000000001
 51
90.00000000000007
  0
ARC
  5
2D
100
AcDbEntity
  8
USP-GEO
100
AcDbCircle
 10
0.0747000000001776
 20
3.017330897144262
 30
0.0
 40
0.095
100
AcDbArc
 50
62.7604912656832
 51
90.00000000000012
  0
LINE
  5
2E
100
AcDbEntity
  8
USP-HID
100
AcDbLine
 10
0.0000000000002132
 20
3.112330897144261
 30
0.0
 11
0.0747000000002132
 21
3.112330897144261
 31
0.0
  0
LINE
  5
2F
100
AcDbEntity
  8
USP-HID
100
AcDbLine
 10
0.0
 20
3.09126008079049
 30
0.0
 11
0.0747
 21
3.09126008079049
 31
0.0
  0
LINE
  5
30
100
AcDbEntity
  8
USP-HID
100
AcDbLine
 10
0.0000000000002274
 20
3.488699999999949
 30
0.0
 11
0.0747000000002274
 21
3.488699999999949
 31
0.0
  0
LINE
  5
31
100
AcDbEntity
  8
USP-HID
100
AcDbLine
 10
0.0
 20
3.281260080790488
 30
0.0
 11
0.0747
 21
3.281260080790488
 31
0.0
  0
LINE
  5
32
100
AcDbEntity
  8
USP-HID
100
AcDbLine
 10
0.0000000000002274
 20
3.66069999999995
 30
0.0
 11
0.0747000000002274
 21
3.66069999999995
 31
0.0
  0
LINE
  5
33
100
AcDbEntity
  8
USP-HID
100
AcDbLine
 10
-0.0000000000000142
 20
3.613700000000021
 30
0.0
 11
0.0746999999999858
 21
3.613700000000021
 31
0.0
  0
LINE
  5
34
100
AcDbEntity
  8
USP-HID
100
AcDbLine
 10
-0.0000000000000144
 20
3.785700000000021
 30
0.0
 11
0.0746999999999856
 21
3.785700000000021
 31
0.0
  0
CIRCLE
  5
35
100
AcDbEntity
  8
USP-HID
100
AcDbCircle
 10
1.074973256841346
 20
2.933537232443512
 30
0.0
 40
0.082
  0
CIRCLE
  5
36
100
AcDbEntity
  8
USP-GEO
100
AcDbCircle
 10
1.074973256841147
 20
2.74603723244359
 30
0.0
 40
0.082
  0
CIRCLE
  5
37
100
AcDbEntity
  8
USP-GEO
100
AcDbCircle
 10
1.074973256841147
 20
3.545401308014639
 30
0.0
 40
0.082
  0
CIRCLE
  5
38
100
AcDbEntity
  8
USP-HID
100
AcDbCircle
 10
1.074973256841346
 20
3.732901308014568
 30
0.0
 40
0.082
  0
CIRCLE
  5
39
100
AcDbEntity
  8
USP-GEO
100
AcDbCircle
 10
0.5121999999999645
 20
5.454269385878511
 30
0.0
 40
0.1535
  0
LINE
  5
3A
100
AcDbEntity
  8
USP-HID
100
AcDbLine
 10
0.0000000000002345
 20
4.488699999999949
 30
0.0
 11
0.0747000000002345
 21
4.488699999999949
 31
0.0
  0
LINE
  5
3B
100
AcDbEntity
  8
USP-HID
100
AcDbLine
 10
0.0000000000002345
 20
4.66069999999995
 30
0.0
 11
0.0747000000002345
 21
4.66069999999995
 31
0.0
  0
LINE
  5
3C
100
AcDbEntity
  8
USP-HID
100
AcDbLine
 10
-0.0000000000000213
 20
4.613700000000021
 30
0.0
 11
0.0746999999999787
 21
4.613700000000021
 31
0.0
  0
LINE
  5
3D
100
AcDbEntity
  8
USP-HID
100
AcDbLine
 10
-0.0000000000000215
 20
4.785700000000021
 30
0.0
 11
0.0746999999999785
 21
4.785700000000021
 31
0.0
  0
LINE
  5
3E
100
AcDbEntity
  8
USP-HID
100
AcDbLine
 10
0.0000000000002416
 20
5.488699999999942
 30
0.0
 11
0.0747000000002345
 21
5.488699999999942
 31
0.0
  0
LINE
  5
3F
100
AcDbEntity
  8
USP-HID
100
AcDbLine
 10
0.0000000000002416
 20
5.660699999999943
 30
0.0
 11
0.0747000000002416
 21
5.660699999999943
 31
0.0
  0
LINE
  5
40
100
AcDbEntity
  8
USP-HID
100
AcDbLine
 10
-0.0000000000000284
 20
5.613700000000028
 30
0.0
 11
0.0746999999999716
 21
5.613700000000028
 31
0.0
  0
LINE
  5
41
100
AcDbEntity
  8
USP-HID
100
AcDbLine
 10
-0.0000000000000286
 20
5.785700000000028
 30
0.0
 11
0.0746999999999714
 21
5.785700000000028
 31
0.0
  0
LINE
  5
42
100
AcDbEntity
  8
USP-HID
100
AcDbLine
 10
0.0000000000002274
 20
6.488699999999949
 30
0.0
 11
0.0747000000002274
 21
6.488699999999949
 31
0.0
  0
LINE
  5
43
100
AcDbEntity
  8
USP-HID
100
AcDbLine
 10
0.0000000000002274
 20
6.66069999999995
 30
0.0
 11
0.0747000000002274
 21
6.66069999999995
 31
0.0
  0
LINE
  5
44
100
AcDbEntity
  8
USP-HID
100
AcDbLine
 10
-0.0000000000000213
 20
6.613700000000021
 30
0.0
 11
0.0746999999999787
 21
6.613700000000021
 31
0.0
  0
CIRCLE
  5
45
100
AcDbEntity
  8
USP-GEO
100
AcDbCircle
 10
1.07497325684114
 20
6.365921005441656
 30
0.0
 40
0.082
  0
CIRCLE
  5
46
100
AcDbEntity
  8
USP-HID
100
AcDbCircle
 10
1.074973256841346
 20
6.553421005441578
 30
0.0
 40
0.082
  0
ARC
  5
47
100
AcDbEntity
  8
USP-GEO
100
AcDbCircle
 10
0.2621999999999574
 20
-0.6058015914792741
 30
0.0
 40
2.5
100
AcDbArc
 50
15.79525960918737
 51
42.48156664607303
  0
LINE
  5
48
100
AcDbEntity
  8
USP-HID
100
AcDbLine
 10
1.91571337157947
 20
0.0746999999999931
 30
0.0
 11
1.91571337157947
 21
-0.0000000000000069
 31
0.0
  0
LINE
  5
49
100
AcDbEntity
  8
USP-HID
100
AcDbLine
 10
2.334920779386465
 20
0.0746999999999929
 30
0.0
 11
2.334920779386465
 21
-0.0000000000000071
 31
0.0
  0
LINE
  5
4A
100
AcDbEntity
  8
USP-HID
100
AcDbLine
 10
2.462200000000024
 20
0.0746999999999929
 30
0.0
 11
2.462200000000024
 21
-0.0000000000000071
 31
0.0
  0
LINE
  5
4B
100
AcDbEntity
  8
USP-HID
100
AcDbLine
 10
2.589479220613611
 20
0.0746999999999964
 30
0.0
 11
2.589479220613611
 21
-0.0000000000000036
 31
0.0
  0
LINE
  5
4C
100
AcDbEntity
  8
USP-GEO
100
AcDbLine
 10
2.667801293646556
 20
-0.000000000000002
 30
0.0
 11
2.762199999999985
 21
-0.000000000000004
 31
0.0
  0
LINE
  5
4D
100
AcDbEntity
  8
USP-GEO
100
AcDbLine
 10
2.667801293646549
 20
0.0747000000000016
 30
0.0
 11
2.762199999999978
 21
0.0746999999999996
 31
0.0
  0
LINE
  5
4E
100
AcDbEntity
  8
USP-GEO
100
AcDbLine
 10
2.667801293646547
 20
0.0747000000000036
 30
0.0
 11
2.667801293646547
 21
0.0
 31
0.0
  0
LINE
  5
4F
100
AcDbEntity
  8
USP-HID
100
AcDbLine
 10
2.699700000000049
 20
0.0747
 30
0.0
 11
2.699700000000049
 21
-0.0000000000000036
 31
0.0
  0
LINE
  5
50
100
AcDbEntity
  8
USP-GEO
100
AcDbLine
 10
2.762199999999985
 20
0.0746999999999964
 30
0.0
 11
2.762199999999985
 21
0.0
 31
0.0
  0
LINE
  5
51
100
AcDbEntity
  8
USP-GEO
100
AcDbLine
 10
0.0746999999999929
 20
7.949700000000021
 30
0.0
 11
1.449973256841126
 21
7.949700000000023
 31
0.0
  0
LINE
  5
52
100
AcDbEntity
  8
USP-HID
100
AcDbLine
 10
-0.0000000000000215
 20
6.785700000000021
 30
0.0
 11
0.0746999999999785
 21
6.785700000000021
 31
0.0
  0
LINE
  5
53
100
AcDbEntity
  8
USP-HID
100
AcDbLine
 10
0.0000000000002274
 20
7.488699999999949
 30
0.0
 11
0.0747000000002274
 21
7.488699999999949
 31
0.0
  0
LINE
  5
54
100
AcDbEntity
  8
USP-HID
100
AcDbLine
 10
-0.0000000000000284
 20
7.613700000000021
 30
0.0
 11
0.0746999999999716
 21
7.613700000000021
 31
0.0
  0
LINE
  5
55
100
AcDbEntity
  8
USP-HID
100
AcDbLine
 10
0.0000000000002274
 20
7.66069999999995
 30
0.0
 11
0.0747000000002274
 21
7.66069999999995
 31
0.0
  0
LINE
  5
56
100
AcDbEntity
  8
USP-HID
100
AcDbLine
 10
-0.0000000000000215
 20
7.785700000000021
 30
0.0
 11
0.0746999999999714
 21
7.785700000000021
 31
0.0
  0
LINE
  5
57
100
AcDbEntity
  8
USP-GEO
100
AcDbLine
 10
-0.0000000000000426
 20
7.949700000000021
 30
0.0
 11
0.0746999999999574
 21
7.949700000000021
 31
0.0
  0
CIRCLE
  5
58
100
AcDbEntity
  8
USP-GEO
100
AcDbCircle
 10
1.07497325684114
 20
7.237848615981185
 30
0.0
 40
0.082
  0
CIRCLE
  5
59
100
AcDbEntity
  8
USP-HID
100
AcDbCircle
 10
1.074973256841339
 20
7.425348615981107
 30
0.0
 40
0.082
  0
ENDBLK
  5
5C
100
AcDbEntity
  8
0
100
AcDbBlockEnd
  0
BLOCK
  5
B5
100
AcDbEntity
  8
0
100
AcDbBlockBegin
  2
HD5210_T
 70
     0
 10
0.0
 20
0.0
 30
0.0
  3
HD5210_T
  1

  0
LINE
  5
5F
100
AcDbEntity
  8
USP-GEO
100
AcDbLine
 10
1.199700000000002
 20
2.762199999999978
 30
0.0
 11
0.0000000000000027
 21
2.762200000000021
 31
0.0
  0
LINE
  5
60
100
AcDbEntity
  8
USP-GEO
100
AcDbLine
 10
0.0000000000000027
 20
2.687500000000021
 30
0.0
 11
1.125000000000038
 21
2.687499999999982
 31
0.0
  0
LINE
  5
61
100
AcDbEntity
  8
USP-GEO
100
AcDbLine
 10
0.0000000000000027
 20
2.762200000000021
 30
0.0
 11
0.0
 21
2.687500000000021
 31
0.0
  0
LINE
  5
62
100
AcDbEntity
  8
USP-HID
100
AcDbLine
 10
0.2889999999999313
 20
2.76220000000001
 30
0.0
 11
0.2889999999999286
 21
2.68750000000001
 31
0.0
  0
TEXT
  5
63
100
AcDbEntity
  8
USP-TXT
100
AcDbText
 10
1.437981249999934
 20
-1.438018160586032
 30
0.0
 40
0.296875
  1
HD5210 - TOP VIEW
 72
     1
 11
3.887199999999933
 21
-1.438018160586032
 31
0.0
100
AcDbText
  0
LINE
  5
64
100
AcDbEntity
  8
USP-GEO
100
AcDbLine
 10
2.512199999999888
 20
0.0
 30
0.0
 11
5.262199999999977
 21
-0.0000000000001563
 31
0.0
  0
LINE
  5
65
100
AcDbEntity
  8
USP-GEO
100
AcDbLine
 10
2.512199999999981
 20
2.499973256841101
 30
0.0
 11
5.262200000000041
 21
2.499973256841087
 31
0.0
  0
LINE
  5
66
100
AcDbEntity
  8
USP-GEO
100
AcDbLine
 10
1.199700000000002
 20
2.762199999999978
 30
0.0
 11
1.199699999999951
 21
1.312226743158852
 31
0.0
  0
LINE
  5
67
100
AcDbEntity
  8
USP-GEO
100
AcDbLine
 10
1.125000000000038
 20
2.687499999999978
 30
0.0
 11
1.12499999999999
 21
1.312226743158852
 31
0.0
  0
ARC
  5
68
100
AcDbEntity
  8
USP-GEO
100
AcDbCircle
 10
1.88020159147928
 20
2.499999999999992
 30
0.0
 40
2.5
100
AcDbArc
 50
254.2047403908125
 51
270.0
  0
LINE
  5
69
100
AcDbEntity
  8
USP-GEO
100
AcDbLine
 10
1.199699999999942
 20
0.6562633715794402
 30
0.0
 11
1.199699999999972
 21
1.312226743158849
 31
0.0
  0
LINE
  5
6A
100
AcDbEntity
  8
USP-GEO
100
AcDbLine
 10
1.124999999999972
 20
1.312226743158849
 30
0.0
 11
1.124999999999942
 21
0.6562633715794402
 31
0.0
  0
LINE
  5
6B
100
AcDbEntity
  8
USP-GEO
100
AcDbLine
 10
1.199699999999945
 20
0.6562633715794384
 30
0.0
 11
1.19969999999992
 21
0.0943987063534255
 31
0.0
  0
LINE
  5
6C
100
AcDbEntity
  8
USP-GEO
100
AcDbLine
 10
1.124999999999949
 20
0.6562633715794366
 30
0.0
 11
1.124999999999924
 21
0.0943987063534238
 31
0.0
  0
LINE
  5
6D
100
AcDbEntity
  8
USP-GEO
100
AcDbLine
 10
1.199699999999917
 20
0.0943987063534238
 30
0.0
 11
1.12499999999992
 21
0.0943987063534273
 31
0.0
  0
LINE
  5
6E
100
AcDbEntity
  8
USP-GEO
100
AcDbLine
 10
1.199699999999988
 20
1.312226743158852
 30
0.0
 11
1.124999999999988
 21
1.312226743158856
 31
0.0
  0
LINE
  5
6F
100
AcDbEntity
  8
USP-HID
100
AcDbLine
 10
1.199699999999972
 20
1.312526743158819
 30
0.0
 11
1.124999999999972
 21
1.312526743158823
 31
0.0
  0
LINE
  5
70
100
AcDbEntity
  8
USP-HID
100
AcDbLine
 10
1.199699999999995
 20
1.60522674315883
 30
0.0
 11
1.124999999999999
 21
1.605226743158834
 31
0.0
  0
LINE
  5
71
100
AcDbEntity
  8
USP-HID
100
AcDbLine
 10
1.199700000000002
 20
1.769226743158831
 30
0.0
 11
1.125000000000006
 21
1.769226743158835
 31
0.0
  0
LINE
  5
72
100
AcDbEntity
  8
USP-HID
100
AcDbLine
 10
1.199700000000011
 20
2.096500000000007
 30
0.0
 11
1.125000000000011
 21
2.096500000000011
 31
0.0
  0
LINE
  5
73
100
AcDbEntity
  8
USP-GEO
100
AcDbLine
 10
2.012199999999867
 20
0.062499999999929
 30
0.0
 11
2.512199999999892
 21
0.0624999999999254
 31
0.0
  0
LINE
  5
74
100
AcDbEntity
  8
USP-GEO
100
AcDbLine
 10
2.01219999999986
 20
-0.0000000000000711
 30
0.0
 11
1.880201591479187
 21
-0.0000000000000657
 31
0.0
  0
LINE
  5
75
100
AcDbEntity
  8
USP-GEO
100
AcDbLine
 10
2.012199999999867
 20
0.062499999999929
 30
0.0
 11
2.012199999999894
 21
-0.0000000000000711
 31
0.0
  0
LINE
  5
76
100
AcDbEntity
  8
USP-GEO
100
AcDbLine
 10
2.512199999999924
 20
0.062499999999929
 30
0.0
 11
2.512199999999894
 21
-0.0000000000000568
 31
0.0
  0
ARC
  5
77
100
AcDbEntity
  8
USP-GEO
100
AcDbCircle
 10
1.880201591479372
 20
4.999973256841222
 30
0.0
 40
2.5
100
AcDbArc
 50
254.2047403908125
 51
270.0
  0
LINE
  5
78
100
AcDbEntity
  8
USP-HID
100
AcDbLine
 10
0.4609999999999319
 20
2.762200000000003
 30
0.0
 11
0.4609999999999293
 21
2.687500000000003
 31
0.0
  0
LINE
  5
79
100
AcDbEntity
  8
USP-HID
100
AcDbLine
 10
0.4764999999999314
 20
2.762200000000003
 30
0.0
 11
0.4764999999999287
 21
2.68750000000001
 31
0.0
  0
LINE
  5
7A
100
AcDbEntity
  8
USP-HID
100
AcDbLine
 10
0.6639999999999314
 20
2.762199999999996
 30
0.0
 11
0.6639999999999287
 21
2.687500000000003
 31
0.0
  0
LINE
  5
7B
100
AcDbEntity
  8
USP-HID
100
AcDbLine
 10
0.6484999999999319
 20
2.762199999999996
 30
0.0
 11
0.6484999999999293
 21
2.687500000000003
 31
0.0
  0
LINE
  5
7C
100
AcDbEntity
  8
USP-HID
100
AcDbLine
 10
0.8359999999999319
 20
2.762199999999989
 30
0.0
 11
0.8359999999999283
 21
2.687499999999996
 31
0.0
  0
LINE
  5
7D
100
AcDbEntity
  8
USP-HID
100
AcDbLine
 10
1.199700000000022
 20
2.403500000000006
 30
0.0
 11
1.125000000000022
 21
2.403500000000009
 31
0.0
  0
LINE
  5
7E
100
AcDbEntity
  8
USP-HID
100
AcDbLine
 10
1.02999999999998
 20
2.762199999999982
 30
0.0
 11
1.029999999999977
 21
2.687499999999975
 31
0.0
  0
LINE
  5
7F
100
AcDbEntity
  8
USP-HID
100
AcDbLine
 10
1.19970000000002
 20
2.592499999999992
 30
0.0
 11
1.12500000000002
 21
2.592499999999995
 31
0.0
  0
LINE
  5
80
100
AcDbEntity
  8
USP-HID
100
AcDbLine
 10
1.125000000000016
 20
2.762199999999971
 30
0.0
 11
1.125000000000013
 21
2.687499999999971
 31
0.0
  0
LINE
  5
81
100
AcDbEntity
  8
USP-HID
100
AcDbLine
 10
1.199700000000013
 20
2.687499999999968
 30
0.0
 11
1.125000000000013
 21
2.687499999999971
 31
0.0
  0
LINE
  5
82
100
AcDbEntity
  8
USP-HID
100
AcDbLine
 10
1.199700000000009
 20
2.594371963194653
 30
0.0
 11
1.125000000000009
 21
2.594371963194657
 31
0.0
  0
LINE
  5
83
100
AcDbEntity
  8
USP-GEO
100
AcDbLine
 10
2.512200000000006
 20
2.437473256841187
 30
0.0
 11
2.012199999999952
 21
2.437473256841219
 31
0.0
  0
LINE
  5
84
100
AcDbEntity
  8
USP-GEO
100
AcDbLine
 10
1.880201591479365
 20
2.499973256841094
 30
0.0
 11
2.012199999999981
 21
2.499973256841103
 31
0.0
  0
LINE
  5
85
100
AcDbEntity
  8
USP-GEO
100
AcDbLine
 10
2.012199999999952
 20
2.437473256841215
 30
0.0
 11
2.012199999999983
 21
2.499973256841229
 31
0.0
  0
LINE
  5
86
100
AcDbEntity
  8
USP-GEO
100
AcDbLine
 10
2.512200000000006
 20
2.437473256841187
 30
0.0
 11
2.512199999999979
 21
2.499973256841101
 31
0.0
  0
CIRCLE
  5
87
100
AcDbEntity
  8
USP-GEO
100
AcDbCircle
 10
3.88719999999996
 20
0.9999866284205083
 30
0.0
 40
0.1535
  0
LINE
  5
88
100
AcDbEntity
  8
USP-GEO
100
AcDbLine
 10
3.259920779386288
 20
0.2999999999999527
 30
0.0
 11
3.38719999999991
 21
0.4272792206135101
 31
0.0
  0
LINE
  5
89
100
AcDbEntity
  8
USP-GEO
100
AcDbLine
 10
3.387199999999897
 20
0.1727207793863617
 30
0.0
 11
3.259920779386285
 21
0.2999999999999527
 31
0.0
  0
LINE
  5
8A
100
AcDbEntity
  8
USP-GEO
100
AcDbLine
 10
3.387199999999906
 20
0.4272792206135137
 30
0.0
 11
3.514479220613462
 21
0.2999999999999474
 31
0.0
  0
LINE
  5
8B
100
AcDbEntity
  8
USP-GEO
100
AcDbLine
 10
3.514479220613462
 20
0.2999999999999474
 30
0.0
 11
3.387199999999903
 21
0.172720779386367
 31
0.0
  0
LINE
  5
8C
100
AcDbEntity
  8
USP-GEO
100
AcDbLine
 10
4.514479220613458
 20
0.2999999999999083
 30
0.0
 11
4.387199999999899
 21
0.1727207793863315
 31
0.0
  0
LINE
  5
8D
100
AcDbEntity
  8
USP-GEO
100
AcDbLine
 10
4.387199999999908
 20
0.4272792206134764
 30
0.0
 11
4.514479220613465
 21
0.2999999999999083
 31
0.0
  0
LINE
  5
8E
100
AcDbEntity
  8
USP-GEO
100
AcDbLine
 10
4.25992077938629
 20
0.2999999999999154
 30
0.0
 11
4.387199999999915
 21
0.4272792206134728
 31
0.0
  0
LINE
  5
8F
100
AcDbEntity
  8
USP-GEO
100
AcDbLine
 10
4.387199999999899
 20
0.1727207793863315
 30
0.0
 11
4.25992077938629
 21
0.2999999999999225
 31
0.0
  0
LINE
  5
90
100
AcDbEntity
  8
USP-GEO
100
AcDbLine
 10
6.574700000000109
 20
2.762199999999765
 30
0.0
 11
7.774400000000102
 21
2.762199999999722
 31
0.0
  0
LINE
  5
91
100
AcDbEntity
  8
USP-GEO
100
AcDbLine
 10
6.649400000000045
 20
2.687499999999761
 30
0.0
 11
7.774400000000098
 21
2.687499999999722
 31
0.0
  0
LINE
  5
92
100
AcDbEntity
  8
USP-GEO
100
AcDbLine
 10
6.574700000000109
 20
2.762199999999765
 30
0.0
 11
6.574700000000057
 21
1.31222674315866
 31
0.0
  0
LINE
  5
93
100
AcDbEntity
  8
USP-GEO
100
AcDbLine
 10
6.649399999999997
 20
1.312226743158653
 30
0.0
 11
6.649400000000045
 21
2.687499999999758
 31
0.0
  0
ARC
  5
94
100
AcDbEntity
  8
USP-GEO
100
AcDbCircle
 10
5.894198408520739
 20
2.499999999999843
 30
0.0
 40
2.5
100
AcDbArc
 50
270.0
 51
285.7952596091871
  0
LINE
  5
95
100
AcDbEntity
  8
USP-GEO
100
AcDbLine
 10
5.26219999999992
 20
0.0624999999998295
 30
0.0
 11
5.762199999999977
 21
0.0624999999997975
 31
0.0
  0
LINE
  5
96
100
AcDbEntity
  8
USP-GEO
100
AcDbLine
 10
5.26219999999992
 20
0.0624999999998295
 30
0.0
 11
5.262199999999947
 21
-0.0000000000001563
 31
0.0
  0
LINE
  5
97
100
AcDbEntity
  8
USP-GEO
100
AcDbLine
 10
5.762199999999949
 20
-0.0000000000002132
 30
0.0
 11
5.894198408520561
 21
-0.0000000000002043
 31
0.0
  0
LINE
  5
98
100
AcDbEntity
  8
USP-GEO
100
AcDbLine
 10
5.762199999999977
 20
0.0624999999998011
 30
0.0
 11
5.762199999999947
 21
-0.0000000000002203
 31
0.0
  0
LINE
  5
99
100
AcDbEntity
  8
USP-GEO
100
AcDbLine
 10
6.574699999999979
 20
1.312226743158655
 30
0.0
 11
6.574699999999949
 21
0.6562633715792377
 31
0.0
  0
LINE
  5
9A
100
AcDbEntity
  8
USP-GEO
100
AcDbLine
 10
6.649399999999949
 20
0.6562633715792412
 30
0.0
 11
6.649399999999979
 21
1.31222674315865
 31
0.0
  0
LINE
  5
9B
100
AcDbEntity
  8
USP-GEO
100
AcDbLine
 10
6.574699999999924
 20
0.0943987063532266
 30
0.0
 11
6.574699999999949
 21
0.6562633715792359
 31
0.0
  0
LINE
  5
9C
100
AcDbEntity
  8
USP-GEO
100
AcDbLine
 10
6.64939999999992
 20
0.0943987063532284
 30
0.0
 11
6.649399999999945
 21
0.6562633715792395
 31
0.0
  0
LINE
  5
9D
100
AcDbEntity
  8
USP-GEO
100
AcDbLine
 10
6.574699999999924
 20
0.0943987063532319
 30
0.0
 11
6.649399999999924
 21
0.0943987063532284
 31
0.0
  0
LINE
  5
9E
100
AcDbEntity
  8
USP-GEO
100
AcDbLine
 10
6.574699999999988
 20
1.31222674315866
 30
0.0
 11
6.649399999999995
 21
1.312226743158657
 31
0.0
  0
LINE
  5
9F
100
AcDbEntity
  8
USP-HID
100
AcDbLine
 10
6.574699999999979
 20
1.31252674315862
 30
0.0
 11
6.649399999999979
 21
1.312526743158617
 31
0.0
  0
LINE
  5
A0
100
AcDbEntity
  8
USP-HID
100
AcDbLine
 10
6.574699999999999
 20
1.605226743158638
 30
0.0
 11
6.649400000000002
 21
1.605226743158635
 31
0.0
  0
LINE
  5
A1
100
AcDbEntity
  8
USP-HID
100
AcDbLine
 10
6.574700000000006
 20
1.76922674315864
 30
0.0
 11
6.649400000000009
 21
1.769226743158636
 31
0.0
  0
LINE
  5
A2
100
AcDbEntity
  8
USP-HID
100
AcDbLine
 10
6.574700000000011
 20
2.096499999999815
 30
0.0
 11
6.649400000000011
 21
2.096499999999812
 31
0.0
  0
ARC
  5
A3
100
AcDbEntity
  8
USP-GEO
100
AcDbCircle
 10
5.894198408520828
 20
4.99997325684108
 30
0.0
 40
2.5
100
AcDbArc
 50
270.0
 51
285.795259609187
  0
LINE
  5
A4
100
AcDbEntity
  8
USP-GEO
100
AcDbLine
 10
5.262200000000038
 20
2.437473256841089
 30
0.0
 11
5.76220000000007
 21
2.437473256841085
 31
0.0
  0
LINE
  5
A5
100
AcDbEntity
  8
USP-GEO
100
AcDbLine
 10
5.262200000000009
 20
2.437473256841087
 30
0.0
 11
5.262200000000039
 21
2.499973256841073
 31
0.0
  0
LINE
  5
A6
100
AcDbEntity
  8
USP-GEO
100
AcDbLine
 10
5.762200000000009
 20
2.499973256841087
 30
0.0
 11
5.894198408520739
 21
2.499973256841082
 31
0.0
  0
LINE
  5
A7
100
AcDbEntity
  8
USP-GEO
100
AcDbLine
 10
5.76220000000007
 20
2.437473256841087
 30
0.0
 11
5.762200000000043
 21
2.499973256841087
 31
0.0
  0
LINE
  5
A8
100
AcDbEntity
  8
USP-HID
100
AcDbLine
 10
6.574700000000022
 20
2.403499999999814
 30
0.0
 11
6.649400000000022
 21
2.403499999999811
 31
0.0
  0
LINE
  5
A9
100
AcDbEntity
  8
USP-HID
100
AcDbLine
 10
6.574700000000027
 20
2.592499999999793
 30
0.0
 11
6.64940000000002
 21
2.592499999999789
 31
0.0
  0
LINE
  5
AA
100
AcDbEntity
  8
USP-HID
100
AcDbLine
 10
6.649400000000016
 20
2.762199999999758
 30
0.0
 11
6.649400000000013
 21
2.687499999999758
 31
0.0
  0
LINE
  5
AB
100
AcDbEntity
  8
USP-HID
100
AcDbLine
 10
6.649400000000016
 20
2.687499999999758
 30
0.0
 11
6.574700000000016
 21
2.687499999999761
 31
0.0
  0
LINE
  5
AC
100
AcDbEntity
  8
USP-HID
100
AcDbLine
 10
6.574700000000013
 20
2.594371963194461
 30
0.0
 11
6.649400000000013
 21
2.594371963194458
 31
0.0
  0
LINE
  5
AD
100
AcDbEntity
  8
USP-HID
100
AcDbLine
 10
6.744400000000095
 20
2.762199999999754
 30
0.0
 11
6.744400000000092
 21
2.687499999999761
 31
0.0
  0
LINE
  5
AE
100
AcDbEntity
  8
USP-HID
100
AcDbLine
 10
6.938400000000162
 20
2.762199999999754
 30
0.0
 11
6.938400000000158
 21
2.687499999999747
 31
0.0
  0
LINE
  5
AF
100
AcDbEntity
  8
USP-HID
100
AcDbLine
 10
7.110400000000162
 20
2.762199999999747
 30
0.0
 11
7.110400000000159
 21
2.68749999999974
 31
0.0
  0
LINE
  5
B0
100
AcDbEntity
  8
USP-HID
100
AcDbLine
 10
7.125900000000169
 20
2.762199999999754
 30
0.0
 11
7.125900000000165
 21
2.687499999999754
 31
0.0
  0
LINE
  5
B1
100
AcDbEntity
  8
USP-HID
100
AcDbLine
 10
7.297900000000169
 20
2.762199999999747
 30
0.0
 11
7.297900000000166
 21
2.687499999999747
 31
0.0
  0
LINE
  5
B2
100
AcDbEntity
  8
USP-HID
100
AcDbLine
 10
7.313400000000165
 20
2.76219999999974
 30
0.0
 11
7.313400000000162
 21
2.68749999999974
 31
0.0
  0
LINE
  5
B3
100
AcDbEntity
  8
USP-HID
100
AcDbLine
 10
7.485400000000166
 20
2.762199999999733
 30
0.0
 11
7.485400000000162
 21
2.687499999999733
 31
0.0
  0
LINE
  5
B4
100
AcDbEntity
  8
USP-GEO
100
AcDbLine
 10
7.774400000000102
 20
2.762199999999729
 30
0.0
 11
7.774400000000098
 21
2.687499999999722
 31
0.0
  0
ENDBLK
  5
B6
100
AcDbEntity
  8
0
100
AcDbBlockEnd
  0
BLOCK
  5
120
100
AcDbEntity
  8
0
100
AcDbBlockBegin
  2
HD5210_F
 70
     0
 10
0.0
 20
0.0
 30
0.0
  3
HD5210_F
  1

  0
CIRCLE
  5
B9
100
AcDbEntity
  8
USP-GEO
100
AcDbCircle
 10
0.3749999999999716
 20
2.699700000000021
 30
0.0
 40
0.086
  0
CIRCLE
  5
BA
100
AcDbEntity
  8
USP-GEO
100
AcDbCircle
 10
0.3749999999999787
 20
5.699700000000021
 30
0.0
 40
0.086
  0
LINE
  5
BB
100
AcDbEntity
  8
USP-GEO
100
AcDbLine
 10
0.0000000000000568
 20
7.949700000000024
 30
0.0
 11
1.125000000000092
 21
7.949700000000021
 31
0.0
  0
ARC
  5
BC
100
AcDbEntity
  8
USP-GEO
100
AcDbCircle
 10
2.5
 20
2.770963277456793
 30
0.0
 40
2.5
100
AcDbArc
 50
179.9999999999998
 51
222.4815666460715
  0
LINE
  5
BD
100
AcDbEntity
  8
USP-GEO
100
AcDbLine
 10
0.0000000000000568
 20
2.770963277456807
 30
0.0
 11
0.0000000000000533
 21
7.949700000000021
 31
0.0
  0
LINE
  5
BE
100
AcDbEntity
  8
USP-GEO
100
AcDbLine
 10
1.125000000000046
 20
7.949700000000028
 30
0.0
 11
1.125000000000028
 21
2.809691949005255
 31
0.0
  0
LINE
  5
BF
100
AcDbEntity
  8
USP-GEO
100
AcDbLine
 10
1.199700000000028
 20
2.809691949005255
 30
0.0
 11
1.199700000000046
 21
7.949700000000028
 31
0.0
  0
CIRCLE
  5
C0
100
AcDbEntity
  8
USP-GEO
100
AcDbCircle
 10
0.7499999999999823
 20
6.699700000000021
 30
0.0
 40
0.086
  0
LINE
  5
C1
100
AcDbEntity
  8
USP-GEO
100
AcDbLine
 10
6.649400000000028
 20
2.809691949005255
 30
0.0
 11
6.649400000000044
 21
7.94969999999995
 31
0.0
  0
LINE
  5
C2
100
AcDbEntity
  8
USP-GEO
100
AcDbLine
 10
6.574700000000031
 20
2.809691949005255
 30
0.0
 11
6.574700000000047
 21
7.949699999999957
 31
0.0
  0
LINE
  5
C3
100
AcDbEntity
  8
USP-GEO
100
AcDbLine
 10
7.774400000000156
 20
7.949699999999943
 30
0.0
 11
7.77440000000012
 21
2.770963277456729
 31
0.0
  0
TEXT
  5
C4
100
AcDbEntity
  8
USP-TXT
100
AcDbText
 10
1.141106249999988
 20
-1.286378701441584
 30
0.0
 40
0.296875
  1
HD5210 - FRONT VIEW
 72
     1
 11
3.887199999999987
 21
-1.286378701441584
 31
0.0
100
AcDbText
  0
LINE
  5
C5
100
AcDbEntity
  8
USP-GEO
100
AcDbLine
 10
2.512199999999943
 20
0.0746999999999973
 30
0.0
 11
5.262200000000031
 21
0.0746999999999885
 31
0.0
  0
LINE
  5
C6
100
AcDbEntity
  8
USP-GEO
100
AcDbLine
 10
2.512199999999943
 20
-0.0000000000000027
 30
0.0
 11
5.262200000000035
 21
-0.0000000000000115
 31
0.0
  0
LINE
  5
C7
100
AcDbEntity
  8
USP-GEO
100
AcDbLine
 10
1.125000000000026
 20
2.809691949005255
 30
0.0
 11
1.124999999999996
 21
1.082580842988783
 31
0.0
  0
LINE
  5
C8
100
AcDbEntity
  8
USP-GEO
100
AcDbLine
 10
1.199699999999996
 20
1.082580842988784
 30
0.0
 11
1.199700000000026
 21
2.809691949005255
 31
0.0
  0
LINE
  5
C9
100
AcDbEntity
  8
USP-GEO
100
AcDbLine
 10
1.199699999999971
 20
0.0747000000000016
 30
0.0
 11
1.880201591479245
 21
0.0746999999999996
 31
0.0
  0
LINE
  5
CA
100
AcDbEntity
  8
USP-GEO
100
AcDbLine
 10
1.199699999999971
 20
-0.000000000000002
 30
0.0
 11
1.880201591479245
 21
-0.000000000000004
 31
0.0
  0
LINE
  5
CB
100
AcDbEntity
  8
USP-GEO
100
AcDbLine
 10
1.125000000000003
 20
1.082580842988788
 30
0.0
 11
1.124999999999978
 21
0.0747000000000042
 31
0.0
  0
LINE
  5
CC
100
AcDbEntity
  8
USP-GEO
100
AcDbLine
 10
1.199699999999999
 20
1.082580842988787
 30
0.0
 11
1.199699999999975
 21
0.0747000000000002
 31
0.0
  0
ARC
  5
CD
100
AcDbEntity
  8
USP-GEO
100
AcDbCircle
 10
-1.187473256841212
 20
-0.6058015914792705
 30
0.0
 40
2.5
100
AcDbArc
 50
22.33325800951085
 51
42.48156664607276
  0
LINE
  5
CE
100
AcDbEntity
  8
USP-GEO
100
AcDbLine
 10
1.199699999999971
 20
0.0747
 30
0.0
 11
1.199699999999971
 21
0.0000000000000036
 31
0.0
  0
LINE
  5
CF
100
AcDbEntity
  8
USP-GEO
100
AcDbLine
 10
1.124999999999975
 20
0.0747000000000036
 30
0.0
 11
1.124999999999975
 21
0.0
 31
0.0
  0
LINE
  5
D0
100
AcDbEntity
  8
USP-GEO
100
AcDbLine
 10
1.199699999999971
 20
0.0747
 30
0.0
 11
1.124999999999975
 21
0.0747000000000002
 31
0.0
  0
LINE
  5
D1
100
AcDbEntity
  8
USP-GEO
100
AcDbLine
 10
1.199699999999971
 20
0.0000000000000036
 30
0.0
 11
1.124999999999975
 21
0.0000000000000038
 31
0.0
  0
LINE
  5
D2
100
AcDbEntity
  8
USP-HID
100
AcDbLine
 10
1.199700000000067
 20
0.3441812696260713
 30
0.0
 11
1.125000000000067
 21
0.3441812696260698
 31
0.0
  0
CIRCLE
  5
D3
100
AcDbEntity
  8
USP-GEO
100
AcDbCircle
 10
0.7499999999999645
 20
1.464534965323778
 30
0.0
 40
0.086
  0
LINE
  5
D4
100
AcDbEntity
  8
USP-GEO
100
AcDbLine
 10
2.012199999999921
 20
0.0747
 30
0.0
 11
2.512199999999946
 21
0.0746999999999984
 31
0.0
  0
LINE
  5
D5
100
AcDbEntity
  8
USP-GEO
100
AcDbLine
 10
2.012199999999921
 20
0.0000000000000016
 30
0.0
 11
2.512199999999946
 21
0.0
 31
0.0
  0
LINE
  5
D6
100
AcDbEntity
  8
USP-GEO
100
AcDbLine
 10
2.012199999999914
 20
0.0747
 30
0.0
 11
1.880201591479242
 21
0.0747000000000004
 31
0.0
  0
LINE
  5
D7
100
AcDbEntity
  8
USP-GEO
100
AcDbLine
 10
1.880201591479245
 20
0.0000000000000004
 30
0.0
 11
2.012199999999918
 21
0.0
 31
0.0
  0
LINE
  5
D8
100
AcDbEntity
  8
USP-GEO
100
AcDbLine
 10
2.012199999999914
 20
0.0747
 30
0.0
 11
2.012199999999914
 21
0.0
 31
0.0
  0
LINE
  5
D9
100
AcDbEntity
  8
USP-GEO
100
AcDbLine
 10
2.512199999999943
 20
0.0746999999999964
 30
0.0
 11
2.512199999999943
 21
-0.0000000000000036
 31
0.0
  0
LINE
  5
DA
100
AcDbEntity
  8
USP-HID
100
AcDbLine
 10
3.259920779386341
 20
0.0746999999999929
 30
0.0
 11
3.259920779386341
 21
-0.0000000000000071
 31
0.0
  0
LINE
  5
DB
100
AcDbEntity
  8
USP-HID
100
AcDbLine
 10
3.387199999999957
 20
0.0746999999999964
 30
0.0
 11
3.387199999999957
 21
-0.0000000000000036
 31
0.0
  0
LINE
  5
DC
100
AcDbEntity
  8
USP-HID
100
AcDbLine
 10
3.514479220613516
 20
0.0746999999999929
 30
0.0
 11
3.514479220613516
 21
-0.0000000000000071
 31
0.0
  0
LINE
  5
DD
100
AcDbEntity
  8
USP-HID
100
AcDbLine
 10
3.733700000000014
 20
0.0746999999999933
 30
0.0
 11
3.733700000000014
 21
-0.0000000000000067
 31
0.0
  0
LINE
  5
DE
100
AcDbEntity
  8
USP-HID
100
AcDbLine
 10
4.040700000000013
 20
0.0746999999999929
 30
0.0
 11
4.040700000000013
 21
-0.0000000000000071
 31
0.0
  0
LINE
  5
DF
100
AcDbEntity
  8
USP-HID
100
AcDbLine
 10
4.259920779386341
 20
0.0746999999999929
 30
0.0
 11
4.259920779386341
 21
-0.0000000000000071
 31
0.0
  0
LINE
  5
E0
100
AcDbEntity
  8
USP-HID
100
AcDbLine
 10
4.387199999999953
 20
0.0746999999999929
 30
0.0
 11
4.387199999999953
 21
-0.0000000000000071
 31
0.0
  0
LINE
  5
E1
100
AcDbEntity
  8
USP-HID
100
AcDbLine
 10
4.514479220613516
 20
0.0746999999999929
 30
0.0
 11
4.514479220613516
 21
-0.0000000000000071
 31
0.0
  0
CIRCLE
  5
E2
100
AcDbEntity
  8
USP-GEO
100
AcDbCircle
 10
0.5624999999999681
 20
2.074699999999992
 30
0.0
 40
0.086
  0
LINE
  5
E3
100
AcDbEntity
  8
USP-HID
100
AcDbLine
 10
1.199700000000039
 20
2.664037232443583
 30
0.0
 11
1.125000000000039
 21
2.664037232443584
 31
0.0
  0
LINE
  5
E4
100
AcDbEntity
  8
USP-HID
100
AcDbLine
 10
1.199700000000039
 20
2.828037232443583
 30
0.0
 11
1.125000000000042
 21
2.828037232443583
 31
0.0
  0
CIRCLE
  5
E5
100
AcDbEntity
  8
USP-GEO
100
AcDbCircle
 10
0.7499999999999716
 20
3.699700000000021
 30
0.0
 40
0.086
  0
ARC
  5
E6
100
AcDbEntity
  8
USP-GEO
100
AcDbCircle
 10
1.125000000000028
 20
3.186260080790489
 30
0.0
 40
0.095
100
AcDbArc
 50
90.0
 51
270.0
  0
LINE
  5
E7
100
AcDbEntity
  8
USP-HID
100
AcDbLine
 10
1.125000000000042
 20
3.091260080790483
 30
0.0
 11
1.199700000000042
 21
3.091260080790485
 31
0.0
  0
LINE
  5
E8
100
AcDbEntity
  8
USP-HID
100
AcDbLine
 10
1.199700000000028
 20
3.281260080790488
 30
0.0
 11
1.125000000000031
 21
3.281260080790488
 31
0.0
  0
LINE
  5
E9
100
AcDbEntity
  8
USP-HID
100
AcDbLine
 10
1.199700000000042
 20
3.463401308014632
 30
0.0
 11
1.125000000000042
 21
3.463401308014632
 31
0.0
  0
LINE
  5
EA
100
AcDbEntity
  8
USP-HID
100
AcDbLine
 10
1.199700000000042
 20
3.627401308014632
 30
0.0
 11
1.125000000000042
 21
3.627401308014632
 31
0.0
  0
CIRCLE
  5
EB
100
AcDbEntity
  8
USP-GEO
100
AcDbCircle
 10
0.5624999999999787
 20
4.699700000000021
 30
0.0
 40
0.086
  0
LINE
  5
EC
100
AcDbEntity
  8
USP-HID
100
AcDbLine
 10
1.199700000000067
 20
5.300769385878504
 30
0.0
 11
1.125000000000071
 21
5.300769385878504
 31
0.0
  0
LINE
  5
ED
100
AcDbEntity
  8
USP-HID
100
AcDbLine
 10
1.199700000000071
 20
5.607769385878504
 30
0.0
 11
1.125000000000071
 21
5.607769385878504
 31
0.0
  0
LINE
  5
EE
100
AcDbEntity
  8
USP-HID
100
AcDbLine
 10
1.199700000000049
 20
6.283921005441656
 30
0.0
 11
1.125000000000049
 21
6.283921005441656
 31
0.0
  0
LINE
  5
EF
100
AcDbEntity
  8
USP-HID
100
AcDbLine
 10
1.199700000000049
 20
6.447921005441656
 30
0.0
 11
1.125000000000049
 21
6.447921005441656
 31
0.0
  0
LINE
  5
F0
100
AcDbEntity
  8
USP-GEO
100
AcDbLine
 10
6.649400000000003
 20
1.082580842988764
 30
0.0
 11
6.649400000000033
 21
2.809691949005255
 31
0.0
  0
LINE
  5
F1
100
AcDbEntity
  8
USP-GEO
100
AcDbLine
 10
6.574700000000033
 20
2.809691949005255
 30
0.0
 11
6.574700000000003
 21
1.082580842988763
 31
0.0
  0
ARC
  5
F2
100
AcDbEntity
  8
USP-GEO
100
AcDbCircle
 10
5.27440000000017
 20
2.770963277456786
 30
0.0
 40
2.5
100
AcDbArc
 50
317.518433353927
 51
359.9999999999997
  0
LINE
  5
F3
100
AcDbEntity
  8
USP-GEO
100
AcDbLine
 10
5.894198408520704
 20
0.0746999999999889
 30
0.0
 11
6.574699999999978
 21
0.0746999999999865
 31
0.0
  0
LINE
  5
F4
100
AcDbEntity
  8
USP-GEO
100
AcDbLine
 10
5.894198408520704
 20
-0.0000000000000111
 30
0.0
 11
6.574699999999976
 21
-0.0000000000000135
 31
0.0
  0
LINE
  5
F5
100
AcDbEntity
  8
USP-GEO
100
AcDbLine
 10
5.262199999999975
 20
0.0746999999999893
 30
0.0
 11
5.762200000000031
 21
0.0746999999999878
 31
0.0
  0
LINE
  5
F6
100
AcDbEntity
  8
USP-GEO
100
AcDbLine
 10
5.262199999999975
 20
-0.00000000000001
 30
0.0
 11
5.762200000000035
 21
-0.0000000000000115
 31
0.0
  0
LINE
  5
F7
100
AcDbEntity
  8
USP-GEO
100
AcDbLine
 10
5.262200000000031
 20
0.0746999999999893
 30
0.0
 11
5.262200000000031
 21
-0.0000000000000107
 31
0.0
  0
LINE
  5
F8
100
AcDbEntity
  8
USP-GEO
100
AcDbLine
 10
5.762200000000003
 20
0.0746999999999893
 30
0.0
 11
5.894198408520615
 21
0.0746999999999889
 31
0.0
  0
LINE
  5
F9
100
AcDbEntity
  8
USP-GEO
100
AcDbLine
 10
5.762200000000003
 20
-0.0000000000000142
 30
0.0
 11
5.894198408520615
 21
-0.0000000000000147
 31
0.0
  0
LINE
  5
FA
100
AcDbEntity
  8
USP-GEO
100
AcDbLine
 10
5.762200000000003
 20
0.0746999999999858
 30
0.0
 11
5.762200000000003
 21
-0.0000000000000107
 31
0.0
  0
LINE
  5
FB
100
AcDbEntity
  8
USP-GEO
100
AcDbLine
 10
6.649399999999975
 20
0.0746999999999856
 30
0.0
 11
6.649399999999999
 21
1.082580842988768
 31
0.0
  0
LINE
  5
FC
100
AcDbEntity
  8
USP-GEO
100
AcDbLine
 10
6.574699999999978
 20
0.074699999999986
 30
0.0
 11
6.574700000000003
 21
1.082580842988765
 31
0.0
  0
ARC
  5
FD
100
AcDbEntity
  8
USP-GEO
100
AcDbCircle
 10
8.961873256841364
 20
-0.6058015914792989
 30
0.0
 40
2.5
100
AcDbArc
 50
137.518433353928
 51
157.6667419904898
  0
LINE
  5
FE
100
AcDbEntity
  8
USP-GEO
100
AcDbLine
 10
6.574699999999978
 20
-0.0000000000000142
 30
0.0
 11
6.574699999999978
 21
0.0746999999999858
 31
0.0
  0
LINE
  5
FF
100
AcDbEntity
  8
USP-GEO
100
AcDbLine
 10
6.649399999999978
 20
-0.0000000000000142
 30
0.0
 11
6.649399999999978
 21
0.0746999999999858
 31
0.0
  0
LINE
  5
100
100
AcDbEntity
  8
USP-GEO
100
AcDbLine
 10
6.574699999999978
 20
-0.0000000000000142
 30
0.0
 11
6.649399999999978
 21
-0.0000000000000144
 31
0.0
  0
LINE
  5
101
100
AcDbEntity
  8
USP-GEO
100
AcDbLine
 10
6.574699999999978
 20
0.0746999999999858
 30
0.0
 11
6.649399999999978
 21
0.0746999999999856
 31
0.0
  0
LINE
  5
102
100
AcDbEntity
  8
USP-HID
100
AcDbLine
 10
6.649400000000071
 20
0.3441812696260129
 30
0.0
 11
6.574700000000071
 21
0.3441812696260131
 31
0.0
  0
LINE
  5
103
100
AcDbEntity
  8
USP-HID
100
AcDbLine
 10
6.574700000000039
 20
1.055199999999921
 30
0.0
 11
6.649400000000035
 21
1.055199999999921
 31
0.0
  0
LINE
  5
104
100
AcDbEntity
  8
USP-HID
100
AcDbLine
 10
6.574700000000035
 20
1.219199999999921
 30
0.0
 11
6.649400000000039
 21
1.219199999999921
 31
0.0
  0
CIRCLE
  5
105
100
AcDbEntity
  8
USP-GEO
100
AcDbCircle
 10
7.024400000000198
 20
1.370353208069673
 30
0.0
 40
0.086
  0
CIRCLE
  5
106
100
AcDbEntity
  8
USP-GEO
100
AcDbCircle
 10
7.399400000000216
 20
5.57469999999995
 30
0.0
 40
0.086
  0
CIRCLE
  5
107
100
AcDbEntity
  8
USP-GEO
100
AcDbCircle
 10
7.399400000000206
 20
2.699699999999943
 30
0.0
 40
0.086
  0
ARC
  5
108
100
AcDbEntity
  8
USP-GEO
100
AcDbCircle
 10
6.649400000000145
 20
3.017330897144262
 30
0.0
 40
0.095
100
AcDbArc
 50
270.0
 51
90.0
  0
LINE
  5
109
100
AcDbEntity
  8
USP-HID
100
AcDbLine
 10
6.574700000000134
 20
2.922330897144263
 30
0.0
 11
6.649400000000134
 21
2.922330897144263
 31
0.0
  0
LINE
  5
10A
100
AcDbEntity
  8
USP-HID
100
AcDbLine
 10
6.574700000000042
 20
2.851537232443512
 30
0.0
 11
6.649400000000042
 21
2.851537232443512
 31
0.0
  0
CIRCLE
  5
10B
100
AcDbEntity
  8
USP-GEO
100
AcDbCircle
 10
7.211900000000202
 20
1.928195044271404
 30
0.0
 40
0.086
  0
LINE
  5
10C
100
AcDbEntity
  8
USP-HID
100
AcDbLine
 10
6.649400000000149
 20
3.112330897144261
 30
0.0
 11
6.574700000000149
 21
3.112330897144261
 31
0.0
  0
LINE
  5
10D
100
AcDbEntity
  8
USP-HID
100
AcDbLine
 10
6.574700000000042
 20
3.015537232443512
 30
0.0
 11
6.649400000000042
 21
3.015537232443512
 31
0.0
  0
LINE
  5
10E
100
AcDbEntity
  8
USP-HID
100
AcDbLine
 10
6.574700000000046
 20
3.814901308014568
 30
0.0
 11
6.649400000000046
 21
3.814901308014568
 31
0.0
  0
LINE
  5
10F
100
AcDbEntity
  8
USP-HID
100
AcDbLine
 10
6.574700000000049
 20
3.650901308014568
 30
0.0
 11
6.649400000000046
 21
3.650901308014568
 31
0.0
  0
CIRCLE
  5
110
100
AcDbEntity
  8
USP-GEO
100
AcDbCircle
 10
7.024400000000206
 20
3.57469999999995
 30
0.0
 40
0.086
  0
LINE
  5
111
100
AcDbEntity
  8
USP-HID
100
AcDbLine
 10
6.574700000000071
 20
5.300769385878489
 30
0.0
 11
6.649400000000071
 21
5.300769385878489
 31
0.0
  0
CIRCLE
  5
112
100
AcDbEntity
  8
USP-GEO
100
AcDbCircle
 10
7.211900000000213
 20
4.574699999999943
 30
0.0
 40
0.086
  0
LINE
  5
113
100
AcDbEntity
  8
USP-HID
100
AcDbLine
 10
6.574700000000071
 20
5.60776938587849
 30
0.0
 11
6.649400000000071
 21
5.60776938587849
 31
0.0
  0
LINE
  5
114
100
AcDbEntity
  8
USP-HID
100
AcDbLine
 10
6.574700000000053
 20
6.635421005441577
 30
0.0
 11
6.649400000000056
 21
6.635421005441577
 31
0.0
  0
LINE
  5
115
100
AcDbEntity
  8
USP-HID
100
AcDbLine
 10
6.574700000000053
 20
6.471421005441578
 30
0.0
 11
6.649400000000056
 21
6.471421005441578
 31
0.0
  0
CIRCLE
  5
116
100
AcDbEntity
  8
USP-GEO
100
AcDbCircle
 10
7.024400000000216
 20
6.574699999999943
 30
0.0
 40
0.086
  0
CIRCLE
  5
117
100
AcDbEntity
  8
USP-GEO
100
AcDbCircle
 10
0.5624999999999858
 20
7.699700000000021
 30
0.0
 40
0.086
  0
LINE
  5
118
100
AcDbEntity
  8
USP-HID
100
AcDbLine
 10
1.199700000000053
 20
7.155848615981177
 30
0.0
 11
1.125000000000049
 21
7.155848615981177
 31
0.0
  0
LINE
  5
119
100
AcDbEntity
  8
USP-HID
100
AcDbLine
 10
1.199700000000053
 20
7.319848615981179
 30
0.0
 11
1.125000000000056
 21
7.319848615981179
 31
0.0
  0
LINE
  5
11A
100
AcDbEntity
  8
USP-GEO
100
AcDbLine
 10
1.199700000000042
 20
7.949700000000028
 30
0.0
 11
1.125000000000042
 21
7.949700000000028
 31
0.0
  0
LINE
  5
11B
100
AcDbEntity
  8
USP-GEO
100
AcDbLine
 10
6.649400000000099
 20
7.94969999999995
 30
0.0
 11
7.774400000000152
 21
7.949699999999946
 31
0.0
  0
LINE
  5
11C
100
AcDbEntity
  8
USP-HID
100
AcDbLine
 10
6.574700000000056
 20
7.507348615981108
 30
0.0
 11
6.64940000000006
 21
7.507348615981108
 31
0.0
  0
LINE
  5
11D
100
AcDbEntity
  8
USP-HID
100
AcDbLine
 10
6.574700000000056
 20
7.343348615981106
 30
0.0
 11
6.64940000000006
 21
7.343348615981106
 31
0.0
  0
CIRCLE
  5
11E
100
AcDbEntity
  8
USP-GEO
100
AcDbCircle
 10
7.21190000000022
 20
7.574699999999943
 30
0.0
 40
0.086
  0
LINE
  5
11F
100
AcDbEntity
  8
USP-GEO
100
AcDbLine
 10
6.574700000000042
 20
7.949699999999957
 30
0.0
 11
6.649400000000049
 21
7.949699999999957
 31
0.0
  0
ENDBLK
  5
121
100
AcDbEntity
  8
0
100
AcDbBlockEnd
  0
ENDSEC
  0
SECTION
  2
ENTITIES
  0
INSERT
  5
3
100
AcDbEntity
  8
USP
100
AcDbBlockReference
  2
HD5210_S
 10
1.132873229686467
 20
1.289387833581635
 30
0.0
  0
INSERT
  5
5D
100
AcDbEntity
  8
USP
100
AcDbBlockReference
  2
HD5210_T
 10
7.280783193924496
 20
13.19764133745833
 30
0.0
  0
INSERT
  5
B7
100
AcDbEntity
  8
USP
100
AcDbBlockReference
  2
HD5210_F
 10
7.280783193924442
 20
1.289387833581635
 30
0.0
  0
ENDSEC
  0
SECTION
  2
OBJECTS
  0
DICTIONARY
  5
136
102
{ACAD_XDICTIONARY
360
137
102
}
100
AcDbDictionary
  3
ACAD_GROUP
350
134
  3
ACAD_MLINESTYLE
350
135
1001
ACAD
1000
TREAT_AS_HARD
1070
     0
  0
DICTIONARY
  5
13
100
AcDbDictionary
280
     1
1001
ACAD
1000
TREAT_AS_HARD
1070
     1
  0
DICTIONARY
  5
122
100
AcDbDictionary
280
     1
  0
DICTIONARY
  5
126
100
AcDbDictionary
280
     1
  0
DICTIONARY
  5
137
100
AcDbDictionary
280
     1
  0
DICTIONARY
  5
134
102
{ACAD_REACTORS
330
136
102
}
100
AcDbDictionary
1001
ACAD
1000
TREAT_AS_HARD
1070
     0
  0
DICTIONARY
  5
135
102
{ACAD_REACTORS
330
136
102
}
100
AcDbDictionary
  3
STANDARD
350
138
1001
ACAD
1000
TREAT_AS_HARD
1070
     0
  0
MLINESTYLE
  5
138
102
{ACAD_REACTORS
330
135
102
}
100
AcDbMlineStyle
  2
STANDARD
 70
     0
  3

 62
     0
 51
90.0
 52
90.0
 71
     2
 49
0.5
 62
   256
  6
BYLAYER
 49
-0.5
 62
   256
  6
BYLAYER
  0
ENDSEC
  0
EOF
