  0
SECTION
  2
HEADER
  9
$ACADVER
  1
AC1014
  9
$ACADMAINTVER
 70
     9
  9
$DWGCODEPAGE
  3
ANSI_1252
  9
$INSBASE
 10
0.0
 20
0.0
 30
0.0
  9
$EXTMIN
 10
0.3827843794734362
 20
0.0012372036667188
 30
0.0
  9
$EXTMAX
 10
11.96764678076706
 20
16.22605051115868
 30
0.0
  9
$LIMMIN
 10
0.0
 20
0.0
  9
$LIMMAX
 10
12.0
 20
9.0
  9
$ORTHOMODE
 70
     1
  9
$REGENMODE
 70
     1
  9
$FILLMODE
 70
     1
  9
$QTEXTMODE
 70
     0
  9
$MIRRTEXT
 70
     0
  9
$DRAGMODE
 70
     2
  9
$LTSCALE
 40
1.5
  9
$OSMODE
 70
     0
  9
$ATTMODE
 70
     1
  9
$TEXTSIZE
 40
0.75
  9
$TRACEWID
 40
0.05
  9
$TEXTSTYLE
  7
STANDARD
  9
$CLAYER
  8
USP
  9
$CELTYPE
  6
BYLAYER
  9
$CECOLOR
 62
   256
  9
$CELTSCALE
 40
1.0
  9
$DELOBJ
 70
     1
  9
$DISPSILH
 70
     1
  9
$DIMSCALE
 40
7.0
  9
$DIMASZ
 40
0.125
  9
$DIMEXO
 40
0.0625
  9
$DIMDLI
 40
0.37890625
  9
$DIMRND
 40
0.0
  9
$DIMDLE
 40
0.0
  9
$DIMEXE
 40
0.09375
  9
$DIMTP
 40
0.0
  9
$DIMTM
 40
0.0
  9
$DIMTXT
 40
0.109375
  9
$DIMCEN
 40
0.0
  9
$DIMTSZ
 40
0.0
  9
$DIMTOL
 70
     0
  9
$DIMLIM
 70
     0
  9
$DIMTIH
 70
     1
  9
$DIMTOH
 70
     1
  9
$DIMSE1
 70
     0
  9
$DIMSE2
 70
     0
  9
$DIMTAD
 70
     0
  9
$DIMZIN
 70
     8
  9
$DIMBLK
  1

  9
$DIMASO
 70
     1
  9
$DIMSHO
 70
     1
  9
$DIMPOST
  1

  9
$DIMAPOST
  1

  9
$DIMALT
 70
     0
  9
$DIMALTD
 70
     2
  9
$DIMALTF
 40
25.4
  9
$DIMLFAC
 40
1.0
  9
$DIMTOFL
 70
     0
  9
$DIMTVP
 40
0.0
  9
$DIMTIX
 70
     0
  9
$DIMSOXD
 70
     0
  9
$DIMSAH
 70
     0
  9
$DIMBLK1
  1

  9
$DIMBLK2
  1

  9
$DIMSTYLE
  2
STANDARD
  9
$DIMCLRD
 70
     0
  9
$DIMCLRE
 70
     0
  9
$DIMCLRT
 70
   256
  9
$DIMTFAC
 40
1.0
  9
$DIMGAP
 40
0.08984375
  9
$DIMJUST
 70
     0
  9
$DIMSD1
 70
     0
  9
$DIMSD2
 70
     0
  9
$DIMTOLJ
 70
     1
  9
$DIMTZIN
 70
     0
  9
$DIMALTZ
 70
     0
  9
$DIMALTTZ
 70
     0
  9
$DIMFIT
 70
     3
  9
$DIMUPT
 70
     1
  9
$DIMUNIT
 70
     7
  9
$DIMDEC
 70
     4
  9
$DIMTDEC
 70
     4
  9
$DIMALTU
 70
     2
  9
$DIMALTTD
 70
     2
  9
$DIMTXSTY
  7
STANDARD
  9
$DIMAUNIT
 70
     0
  9
$LUNITS
 70
     5
  9
$LUPREC
 70
     6
  9
$SKETCHINC
 40
0.1
  9
$FILLETRAD
 40
0.0
  9
$AUNITS
 70
     0
  9
$AUPREC
 70
     1
  9
$MENU
  1
CUSTOM
  9
$ELEVATION
 40
0.0
  9
$PELEVATION
 40
0.0
  9
$THICKNESS
 40
0.0
  9
$LIMCHECK
 70
     0
  9
$BLIPMODE
 70
     0
  9
$CHAMFERA
 40
0.0
  9
$CHAMFERB
 40
0.0
  9
$CHAMFERC
 40
0.0
  9
$CHAMFERD
 40
0.0
  9
$SKPOLY
 70
     0
  9
$TDCREATE
 40
2451263.663231366
  9
$TDUPDATE
 40
2452759.744594537
  9
$TDINDWG
 40
0.4801350810
  9
$TDUSRTIMER
 40
0.4801350810
  9
$USRTIMER
 70
     1
  9
$ANGBASE
 50
0.0
  9
$ANGDIR
 70
     0
  9
$PDMODE
 70
     0
  9
$PDSIZE
 40
0.0
  9
$PLINEWID
 40
0.0
  9
$COORDS
 70
     2
  9
$SPLFRAME
 70
     0
  9
$SPLINETYPE
 70
     6
  9
$SPLINESEGS
 70
     8
  9
$ATTDIA
 70
     0
  9
$ATTREQ
 70
     0
  9
$HANDLING
 70
     1
  9
$HANDSEED
  5
122
  9
$SURFTAB1
 70
     6
  9
$SURFTAB2
 70
     6
  9
$SURFTYPE
 70
     6
  9
$SURFU
 70
     6
  9
$SURFV
 70
     6
  9
$UCSNAME
  2

  9
$UCSORG
 10
0.0
 20
0.0
 30
0.0
  9
$UCSXDIR
 10
1.0
 20
0.0
 30
0.0
  9
$UCSYDIR
 10
0.0
 20
1.0
 30
0.0
  9
$PUCSNAME
  2

  9
$PUCSORG
 10
0.0
 20
0.0
 30
0.0
  9
$PUCSXDIR
 10
1.0
 20
0.0
 30
0.0
  9
$PUCSYDIR
 10
0.0
 20
1.0
 30
0.0
  9
$USERI1
 70
     0
  9
$USERI2
 70
     0
  9
$USERI3
 70
     0
  9
$USERI4
 70
     0
  9
$USERI5
 70
     0
  9
$USERR1
 40
0.0
  9
$USERR2
 40
0.0
  9
$USERR3
 40
0.0
  9
$USERR4
 40
0.0
  9
$USERR5
 40
0.0
  9
$WORLDVIEW
 70
     1
  9
$SHADEDGE
 70
     3
  9
$SHADEDIF
 70
    70
  9
$TILEMODE
 70
     1
  9
$MAXACTVP
 70
    16
  9
$PINSBASE
 10
0.0
 20
0.0
 30
0.0
  9
$PLIMCHECK
 70
     0
  9
$PEXTMIN
 10
1.000000000000000E+20
 20
1.000000000000000E+20
 30
1.000000000000000E+20
  9
$PEXTMAX
 10
-1.000000000000000E+20
 20
-1.000000000000000E+20
 30
-1.000000000000000E+20
  9
$PLIMMIN
 10
0.0
 20
0.0
  9
$PLIMMAX
 10
12.0
 20
9.0
  9
$UNITMODE
 70
     0
  9
$VISRETAIN
 70
     0
  9
$PLINEGEN
 70
     0
  9
$PSLTSCALE
 70
     0
  9
$TREEDEPTH
 70
  3020
  9
$PICKSTYLE
 70
     1
  9
$CMLSTYLE
  2
STANDARD
  9
$CMLJUST
 70
     0
  9
$CMLSCALE
 40
1.0
  9
$PROXYGRAPHICS
 70
     1
  9
$MEASUREMENT
 70
     0
  0
ENDSEC
  0
SECTION
  2
CLASSES
  0
CLASS
  1
ACDBDICTIONARYWDFLT
  2
AcDbDictionaryWithDefault
  3
AutoCAD 2000
 90
        0
280
     1
281
     0
  0
CLASS
  1
ACDBPLACEHOLDER
  2
AcDbPlaceHolder
  3
AutoCAD 2000
 90
        0
280
     1
281
     0
  0
CLASS
  1
LAYOUT
  2
AcDbLayout
  3
AutoCAD 2000
 90
        0
280
     1
281
     0
  0
CLASS
  1
DICTIONARYVAR
  2
AcDbDictionaryVar
  3
"AutoCAD"
 90
        0
280
     1
281
     0
  0
CLASS
  1
LONG_TRANSACTION
  2
AcDbLongTransaction
  3
AutoCAD 2000
 90
        0
280
     1
281
     0
  0
CLASS
  1
LWPOLYLINE
  2
AcDbPolyline
  3
"AutoCAD"
 90
        0
280
     1
281
     1
  0
CLASS
  1
HATCH
  2
AcDbHatch
  3
"ACAD_SEDONA"
 90
        0
280
     1
281
     1
  0
CLASS
  1
XRECORD
  2
AcDbXrecord
  3
"<Built In>"
 90
        0
280
     0
281
     0
  0
ENDSEC
  0
SECTION
  2
TABLES
  0
TABLE
  2
VPORT
  5
10C
100
AcDbSymbolTable
 70
     1
  0
VPORT
  5
11E
100
AcDbSymbolTableRecord
100
AcDbViewportTableRecord
  2
*ACTIVE
 70
     0
 10
0.0
 20
0.0
 11
1.0
 21
1.0
 12
-10.39837902562702
 22
18.71991312941824
 13
0.0
 23
0.0
 14
1.0
 24
1.0
 15
0.0
 25
0.0
 16
0.0
 26
0.0
 36
1.0
 17
23.09603071721725
 27
-10.27010416511325
 37
-10.44050274849355
 40
16.89714352127654
 41
1.457627118644067
 42
50.0
 43
10.55307667737539
 44
10.55307667737539
 50
0.0
 51
0.0
 71
     0
 72
   100
 73
     1
 74
     1
 75
     0
 76
     0
 77
     0
 78
     0
  0
ENDTAB
  0
TABLE
  2
LTYPE
  5
108
100
AcDbSymbolTable
 70
     1
  0
LTYPE
  5
109
100
AcDbSymbolTableRecord
100
AcDbLinetypeTableRecord
  2
BYBLOCK
 70
     0
  3

 72
    65
 73
     0
 40
0.0
  0
LTYPE
  5
6
100
AcDbSymbolTableRecord
100
AcDbLinetypeTableRecord
  2
BYLAYER
 70
     0
  3

 72
    65
 73
     0
 40
0.0
  0
LTYPE
  5
5
100
AcDbSymbolTableRecord
100
AcDbLinetypeTableRecord
  2
CONTINUOUS
 70
     0
  3
Solid line
 72
    65
 73
     0
 40
0.0
  0
ENDTAB
  0
TABLE
  2
LAYER
  5
106
100
AcDbSymbolTable
 70
     5
  0
LAYER
  5
5A
100
AcDbSymbolTableRecord
100
AcDbLayerTableRecord
  2
0
 70
     0
 62
     7
  6
CONTINUOUS
  0
LAYER
  5
9
100
AcDbSymbolTableRecord
100
AcDbLayerTableRecord
  2
USP-GEO
 70
     0
 62
     7
  6
CONTINUOUS
  0
LAYER
  5
D
100
AcDbSymbolTableRecord
100
AcDbLayerTableRecord
  2
USP-TXT
 70
     0
 62
     7
  6
CONTINUOUS
  0
LAYER
  5
10
102
{ACAD_XDICTIONARY
360
11
102
}
100
AcDbSymbolTableRecord
100
AcDbLayerTableRecord
  2
USP-HID
 70
     0
 62
     7
  6
CONTINUOUS
  0
LAYER
  5
4
100
AcDbSymbolTableRecord
100
AcDbLayerTableRecord
  2
USP
 70
     0
 62
     7
  6
CONTINUOUS
  0
ENDTAB
  0
TABLE
  2
STYLE
  5
107
100
AcDbSymbolTable
 70
     1
  0
STYLE
  5
E
100
AcDbSymbolTableRecord
100
AcDbTextStyleTableRecord
  2
STANDARD
 70
     0
 40
0.0
 41
1.0
 50
0.0
 71
     0
 42
0.75
  3
txt
  4

  0
ENDTAB
  0
TABLE
  2
VIEW
  5
10A
100
AcDbSymbolTable
 70
     0
  0
ENDTAB
  0
TABLE
  2
UCS
  5
10B
100
AcDbSymbolTable
 70
     0
  0
ENDTAB
  0
TABLE
  2
APPID
  5
10E
100
AcDbSymbolTable
 70
     1
  0
APPID
  5
12
100
AcDbSymbolTableRecord
100
AcDbRegAppTableRecord
  2
ACAD
 70
     0
  0
ENDTAB
  0
TABLE
  2
DIMSTYLE
  5
10F
100
AcDbSymbolTable
 70
     1
  0
DIMSTYLE
105
116
100
AcDbSymbolTableRecord
100
AcDbDimStyleTableRecord
  2
STANDARD
 70
     0
  3

  4

  5

  6

  7

 40
1.0
 41
0.18
 42
0.0625
 43
0.38
 44
0.18
 45
0.0
 46
0.0
 47
0.0
 48
0.0
140
0.18
141
0.09
142
0.0
143
25.4
144
1.0
145
0.0
146
1.0
147
0.09
 71
     0
 72
     0
 73
     1
 74
     1
 75
     0
 76
     0
 77
     0
 78
     0
170
     0
171
     2
172
     0
173
     0
174
     0
175
     0
176
     0
177
     0
178
     0
270
     2
271
     4
272
     4
273
     2
274
     2
340
E
275
     0
280
     0
281
     0
282
     0
283
     1
284
     0
285
     0
286
     0
287
     3
288
     0
  0
ENDTAB
  0
TABLE
  2
BLOCK_RECORD
  5
1
100
AcDbSymbolTable
 70
     3
  0
BLOCK_RECORD
  5
2
102
{ACAD_XDICTIONARY
360
FF
102
}
100
AcDbSymbolTableRecord
100
AcDbBlockTableRecord
  2
*MODEL_SPACE
  0
BLOCK_RECORD
  5
102
102
{ACAD_XDICTIONARY
360
103
102
}
100
AcDbSymbolTableRecord
100
AcDbBlockTableRecord
  2
*PAPER_SPACE
  0
BLOCK_RECORD
  5
7
100
AcDbSymbolTableRecord
100
AcDbBlockTableRecord
  2
HD212_S
  0
BLOCK_RECORD
  5
5D
100
AcDbSymbolTableRecord
100
AcDbBlockTableRecord
  2
HD212_F
  0
BLOCK_RECORD
  5
B6
100
AcDbSymbolTableRecord
100
AcDbBlockTableRecord
  2
HD212_T
  0
ENDTAB
  0
ENDSEC
  0
SECTION
  2
BLOCKS
  0
BLOCK
  5
100
100
AcDbEntity
  8
0
100
AcDbBlockBegin
  2
*MODEL_SPACE
 70
     0
 10
0.0
 20
0.0
 30
0.0
  3
*MODEL_SPACE
  1

  0
ENDBLK
  5
101
100
AcDbEntity
  8
0
100
AcDbBlockEnd
  0
BLOCK
  5
104
100
AcDbEntity
 67
     1
  8
0
100
AcDbBlockBegin
  2
*PAPER_SPACE
 70
     0
 10
0.0
 20
0.0
 30
0.0
  3
*PAPER_SPACE
  1

  0
ENDBLK
  5
105
100
AcDbEntity
 67
     1
  8
0
100
AcDbBlockEnd
  0
BLOCK
  5
59
100
AcDbEntity
  8
0
100
AcDbBlockBegin
  2
HD212_S
 70
     0
 10
0.0
 20
0.0
 30
0.0
  3
HD212_S
  1

  0
LINE
  5
8
100
AcDbEntity
  8
USP-GEO
100
AcDbLine
 10
0.9499732568412639
 20
3.989943540483434
 30
0.0
 11
0.9499732568413438
 21
9.324449999999998
 31
0.0
  0
LINE
  5
A
100
AcDbEntity
  8
USP-GEO
100
AcDbLine
 10
0.0747000000001119
 20
9.324449999999973
 30
0.0
 11
0.0747000000000153
 21
3.951214868935924
 31
0.0
  0
LINE
  5
B
100
AcDbEntity
  8
USP-GEO
100
AcDbLine
 10
0.0000000000000153
 20
3.951214868935927
 30
0.0
 11
0.0000000000001119
 21
9.324449999999981
 31
0.0
  0
TEXT
  5
C
100
AcDbEntity
  8
USP-TXT
100
AcDbText
 10
-1.293379166666656
 20
-1.021097932112279
 30
0.0
 40
0.296875
  1
HD212 - SIDE VIEW
 72
     1
 11
1.131100000000009
 21
-1.021097932112279
 31
0.0
100
AcDbText
  0
LINE
  5
F
100
AcDbEntity
  8
USP-HID
100
AcDbLine
 10
0.262226743158801
 20
0.0746999999999996
 30
0.0
 11
2.262200000000019
 21
0.0746999999999638
 31
0.0
  0
CIRCLE
  5
13
100
AcDbEntity
  8
USP-HID
100
AcDbCircle
 10
0.6374732568413004
 20
4.074449999999938
 30
0.0
 40
0.082
  0
CIRCLE
  5
14
100
AcDbEntity
  8
USP-GEO
100
AcDbCircle
 10
0.6374732568412595
 20
3.824449999999995
 30
0.0
 40
0.082
  0
CIRCLE
  5
15
100
AcDbEntity
  8
USP-GEO
100
AcDbCircle
 10
0.5122000000000988
 20
5.074699999999939
 30
0.0
 40
0.1535
  0
LINE
  5
16
100
AcDbEntity
  8
USP-GEO
100
AcDbLine
 10
0.2622267431588041
 20
0.0
 30
0.0
 11
2.26220000000002
 21
-0.0000000000000355
 31
0.0
  0
LINE
  5
17
100
AcDbEntity
  8
USP-GEO
100
AcDbLine
 10
0.0747000000000009
 20
2.262832434467905
 30
0.0
 11
0.0747
 21
1.52443286110535
 31
0.0
  0
LINE
  5
18
100
AcDbEntity
  8
USP-GEO
100
AcDbLine
 10
0.0
 20
1.52443286110535
 30
0.0
 11
0.0000000000000009
 21
2.262832434467905
 31
0.0
  0
ARC
  5
19
100
AcDbEntity
  8
USP-GEO
100
AcDbCircle
 10
-2.237773256841195
 20
0.5744499999999029
 30
0.0
 40
2.5
100
AcDbArc
 50
359.9999999999989
 51
22.33325800951383
  0
LINE
  5
1A
100
AcDbEntity
  8
USP-GEO
100
AcDbLine
 10
0.2622267431588048
 20
0.1374500000000087
 30
0.0
 11
0.2622267431588041
 21
0.0
 31
0.0
  0
LINE
  5
1B
100
AcDbEntity
  8
USP-GEO
100
AcDbLine
 10
0.3247267431588046
 20
0.5124500000000043
 30
0.0
 11
0.324726743158805
 21
0.1374500000000083
 31
0.0
  0
LINE
  5
1C
100
AcDbEntity
  8
USP-GEO
100
AcDbLine
 10
0.2622267431588885
 20
0.1994499999999917
 30
0.0
 11
0.324726743158888
 21
0.1994499999999906
 31
0.0
  0
LINE
  5
1D
100
AcDbEntity
  8
USP-GEO
100
AcDbLine
 10
0.3247267431588041
 20
0.1374500000000072
 30
0.0
 11
0.2622267431588032
 21
0.1374500000000083
 31
0.0
  0
LINE
  5
1E
100
AcDbEntity
  8
USP-GEO
100
AcDbLine
 10
0.2622267431588885
 20
0.1994499999999917
 30
0.0
 11
0.2622267431588858
 21
0.1374500000000083
 31
0.0
  0
LINE
  5
1F
100
AcDbEntity
  8
USP-HID
100
AcDbLine
 10
0.2622267431588523
 20
0.5744499999999917
 30
0.0
 11
0.3247267431589098
 21
0.5744499999999907
 31
0.0
  0
LINE
  5
20
100
AcDbEntity
  8
USP-GEO
100
AcDbLine
 10
0.2622267431588023
 20
0.5124500000000048
 30
0.0
 11
0.3247267431588023
 21
0.5124500000000037
 31
0.0
  0
LINE
  5
21
100
AcDbEntity
  8
USP-GEO
100
AcDbLine
 10
0.2622267431588034
 20
0.5744499999998565
 30
0.0
 11
0.2622267431588023
 21
0.5124500000000048
 31
0.0
  0
LINE
  5
22
100
AcDbEntity
  8
USP-HID
100
AcDbLine
 10
0.3247267431589098
 20
0.5744499999999917
 30
0.0
 11
0.3247267431589063
 21
0.5124500000000048
 31
0.0
  0
LINE
  5
23
100
AcDbEntity
  8
USP-GEO
100
AcDbLine
 10
0.0000000000000011
 20
1.524432861105349
 30
0.0
 11
0.0747000000000013
 21
1.524432861105348
 31
0.0
  0
LINE
  5
24
100
AcDbEntity
  8
USP-GEO
100
AcDbLine
 10
0.0747000000000127
 20
3.951214868935938
 30
0.0
 11
0.0746999999999996
 21
2.262832434467905
 31
0.0
  0
LINE
  5
25
100
AcDbEntity
  8
USP-GEO
100
AcDbLine
 10
0.0000000000000127
 20
3.951214868935938
 30
0.0
 11
-0.0000000000000004
 21
2.262832434467905
 31
0.0
  0
LINE
  5
26
100
AcDbEntity
  8
USP-HID
100
AcDbLine
 10
0.0747000000000067
 20
2.457403143199262
 30
0.0
 11
0.0000000000000067
 21
2.457403143199263
 31
0.0
  0
LINE
  5
27
100
AcDbEntity
  8
USP-HID
100
AcDbLine
 10
0.0747000000000109
 20
2.629403143199262
 30
0.0
 11
0.00000000000001
 21
2.629403143199263
 31
0.0
  0
LINE
  5
28
100
AcDbEntity
  8
USP-HID
100
AcDbLine
 10
0.0747000000000147
 20
3.113449999999982
 30
0.0
 11
0.0000000000000138
 21
3.113449999999984
 31
0.0
  0
LINE
  5
29
100
AcDbEntity
  8
USP-HID
100
AcDbLine
 10
0.0747000000000189
 20
3.285449999999983
 30
0.0
 11
0.0000000000000189
 21
3.285449999999984
 31
0.0
  0
LINE
  5
2A
100
AcDbEntity
  8
USP-HID
100
AcDbLine
 10
0.0747000000001219
 20
3.707403143199266
 30
0.0
 11
0.0000000000001237
 21
3.707403143199266
 31
0.0
  0
LINE
  5
2B
100
AcDbEntity
  8
USP-HID
100
AcDbLine
 10
0.0747000000001252
 20
3.879403143199266
 30
0.0
 11
0.0000000000001252
 21
3.879403143199267
 31
0.0
  0
LINE
  5
2C
100
AcDbEntity
  8
USP-HID
100
AcDbLine
 10
0.0747000000000315
 20
3.832403143199261
 30
0.0
 11
0.0000000000000315
 21
3.832403143199263
 31
0.0
  0
LINE
  5
2D
100
AcDbEntity
  8
USP-HID
100
AcDbLine
 10
0.0747000000000349
 20
4.004403143199262
 30
0.0
 11
0.000000000000034
 21
4.004403143199263
 31
0.0
  0
LINE
  5
2E
100
AcDbEntity
  8
USP-HID
100
AcDbLine
 10
0.0747000000001503
 20
4.707403143199266
 30
0.0
 11
0.0000000000001503
 21
4.707403143199266
 31
0.0
  0
LINE
  5
2F
100
AcDbEntity
  8
USP-HID
100
AcDbLine
 10
0.0747000000000395
 20
4.832403143199258
 30
0.0
 11
0.0000000000000395
 21
4.832403143199259
 31
0.0
  0
LINE
  5
30
100
AcDbEntity
  8
USP-HID
100
AcDbLine
 10
0.0747000000001537
 20
4.879403143199266
 30
0.0
 11
0.0000000000001537
 21
4.879403143199267
 31
0.0
  0
LINE
  5
31
100
AcDbEntity
  8
USP-HID
100
AcDbLine
 10
0.0747000000000437
 20
5.004403143199258
 30
0.0
 11
0.0000000000000429
 21
5.00440314319926
 31
0.0
  0
LINE
  5
32
100
AcDbEntity
  8
USP-HID
100
AcDbLine
 10
0.0747000000001574
 20
5.707403143199266
 30
0.0
 11
0.0000000000001574
 21
5.707403143199266
 31
0.0
  0
LINE
  5
33
100
AcDbEntity
  8
USP-HID
100
AcDbLine
 10
0.0747000000001616
 20
5.879403143199266
 30
0.0
 11
0.0000000000001616
 21
5.879403143199267
 31
0.0
  0
LINE
  5
34
100
AcDbEntity
  8
USP-HID
100
AcDbLine
 10
0.0747000000000688
 20
5.832403143199265
 30
0.0
 11
0.0000000000000671
 21
5.832403143199266
 31
0.0
  0
LINE
  5
35
100
AcDbEntity
  8
USP-HID
100
AcDbLine
 10
0.0747000000000686
 20
6.004403143199265
 30
0.0
 11
0.0000000000000704
 21
6.004403143199267
 31
0.0
  0
LINE
  5
36
100
AcDbEntity
  8
USP-HID
100
AcDbLine
 10
0.0747000000001823
 20
6.707403143199266
 30
0.0
 11
0.0000000000001823
 21
6.707403143199266
 31
0.0
  0
LINE
  5
37
100
AcDbEntity
  8
USP-HID
100
AcDbLine
 10
0.0747000000001847
 20
6.879403143199266
 30
0.0
 11
0.0000000000001839
 21
6.879403143199267
 31
0.0
  0
LINE
  5
38
100
AcDbEntity
  8
USP-HID
100
AcDbLine
 10
0.0747000000000813
 20
6.832403143199258
 30
0.0
 11
0.000000000000083
 21
6.832403143199259
 31
0.0
  0
LINE
  5
39
100
AcDbEntity
  8
USP-HID
100
AcDbLine
 10
0.0747000000000864
 20
7.004403143199258
 30
0.0
 11
0.0000000000000846
 21
7.00440314319926
 31
0.0
  0
ARC
  5
3A
100
AcDbEntity
  8
USP-GEO
100
AcDbCircle
 10
-0.2377999999999669
 20
0.5744499999998638
 30
0.0
 40
2.5
100
AcDbArc
 50
359.9999999999989
 51
42.48156664607162
  0
LINE
  5
3B
100
AcDbEntity
  8
USP-HID
100
AcDbLine
 10
1.108700000000013
 20
-0.0000000000000151
 30
0.0
 11
1.108700000000015
 21
0.0746999999999849
 31
0.0
  0
LINE
  5
3C
100
AcDbEntity
  8
USP-HID
100
AcDbLine
 10
1.415700000000014
 20
-0.0000000000000204
 30
0.0
 11
1.415700000000015
 21
0.0746999999999796
 31
0.0
  0
CIRCLE
  5
3D
100
AcDbEntity
  8
USP-GEO
100
AcDbCircle
 10
1.262473256841216
 20
1.32445000000003
 30
0.0
 40
0.082
  0
CIRCLE
  5
3E
100
AcDbEntity
  8
USP-HID
100
AcDbCircle
 10
1.262473256841255
 20
1.574449999999973
 30
0.0
 40
0.082
  0
LINE
  5
3F
100
AcDbEntity
  8
USP-HID
100
AcDbLine
 10
1.734920779386436
 20
0.0746999999999751
 30
0.0
 11
1.734920779386435
 21
-0.0000000000000255
 31
0.0
  0
LINE
  5
40
100
AcDbEntity
  8
USP-HID
100
AcDbLine
 10
1.862199999999993
 20
0.0746999999999716
 30
0.0
 11
1.862199999999992
 21
-0.0000000000000291
 31
0.0
  0
LINE
  5
41
100
AcDbEntity
  8
USP-HID
100
AcDbLine
 10
1.989479220613583
 20
0.074699999999968
 30
0.0
 11
1.989479220613582
 21
-0.0000000000000313
 31
0.0
  0
LINE
  5
42
100
AcDbEntity
  8
USP-GEO
100
AcDbLine
 10
2.262200000000019
 20
-0.0000000000000355
 30
0.0
 11
2.262200000000026
 21
0.1374499999999734
 31
0.0
  0
LINE
  5
43
100
AcDbEntity
  8
USP-GEO
100
AcDbLine
 10
2.199700000000026
 20
0.1374499999999728
 30
0.0
 11
2.19970000000004
 21
0.5124499999999719
 31
0.0
  0
LINE
  5
44
100
AcDbEntity
  8
USP-GEO
100
AcDbLine
 10
2.199700000000013
 20
0.1994499999999561
 30
0.0
 11
2.262200000000014
 21
0.199449999999955
 31
0.0
  0
LINE
  5
45
100
AcDbEntity
  8
USP-GEO
100
AcDbLine
 10
2.262200000000013
 20
0.1994499999999526
 30
0.0
 11
2.262200000000014
 21
0.1374499999999728
 31
0.0
  0
LINE
  5
46
100
AcDbEntity
  8
USP-GEO
100
AcDbLine
 10
2.262200000000027
 20
0.1374499999999716
 30
0.0
 11
2.199700000000026
 21
0.1374499999999728
 31
0.0
  0
LINE
  5
47
100
AcDbEntity
  8
USP-HID
100
AcDbLine
 10
2.199700000000005
 20
0.5744499999999633
 30
0.0
 11
2.262200000000077
 21
0.5744499999999622
 31
0.0
  0
LINE
  5
48
100
AcDbEntity
  8
USP-HID
100
AcDbLine
 10
2.199700000000005
 20
0.5744499999999562
 30
0.0
 11
2.199700000000007
 21
0.5124499999999728
 31
0.0
  0
LINE
  5
49
100
AcDbEntity
  8
USP-GEO
100
AcDbLine
 10
2.199700000000039
 20
0.5124499999999728
 30
0.0
 11
2.262200000000039
 21
0.5124499999999717
 31
0.0
  0
LINE
  5
4A
100
AcDbEntity
  8
USP-GEO
100
AcDbLine
 10
2.262200000000039
 20
0.5124499999999728
 30
0.0
 11
2.262200000000047
 21
0.5744499999997537
 31
0.0
  0
ARC
  5
4B
100
AcDbEntity
  8
USP-GEO
100
AcDbCircle
 10
3.449673256841296
 20
3.951214868935881
 30
0.0
 40
2.5
100
AcDbArc
 50
179.1123687241357
 51
222.4815666460711
  0
CIRCLE
  5
4C
100
AcDbEntity
  8
USP-HID
100
AcDbCircle
 10
0.6374732568413528
 20
7.824449999999945
 30
0.0
 40
0.082
  0
CIRCLE
  5
4D
100
AcDbEntity
  8
USP-GEO
100
AcDbCircle
 10
0.6374732568413128
 20
7.574449999999995
 30
0.0
 40
0.082
  0
CIRCLE
  5
4E
100
AcDbEntity
  8
USP-GEO
100
AcDbCircle
 10
0.5122000000001663
 20
8.762199999999939
 30
0.0
 40
0.1535
  0
LINE
  5
4F
100
AcDbEntity
  8
USP-GEO
100
AcDbLine
 10
0.9499732568413444
 20
9.324449999999995
 30
0.0
 11
0.0747000000001401
 21
9.324449999999995
 31
0.0
  0
LINE
  5
50
100
AcDbEntity
  8
USP-HID
100
AcDbLine
 10
0.0747000000002045
 20
7.707403143199265
 30
0.0
 11
0.0000000000002036
 21
7.707403143199266
 31
0.0
  0
LINE
  5
51
100
AcDbEntity
  8
USP-HID
100
AcDbLine
 10
0.0747000000002069
 20
7.879403143199265
 30
0.0
 11
0.0000000000002078
 21
7.879403143199267
 31
0.0
  0
LINE
  5
52
100
AcDbEntity
  8
USP-HID
100
AcDbLine
 10
0.0747000000000928
 20
7.832403143199258
 30
0.0
 11
0.0000000000000928
 21
7.832403143199259
 31
0.0
  0
LINE
  5
53
100
AcDbEntity
  8
USP-HID
100
AcDbLine
 10
0.0747000000000953
 20
8.004403143199258
 30
0.0
 11
0.000000000000097
 21
8.00440314319926
 31
0.0
  0
LINE
  5
54
100
AcDbEntity
  8
USP-HID
100
AcDbLine
 10
0.0747000000002134
 20
8.707403143199265
 30
0.0
 11
0.0000000000002125
 21
8.707403143199266
 31
0.0
  0
LINE
  5
55
100
AcDbEntity
  8
USP-HID
100
AcDbLine
 10
0.0747000000002149
 20
8.879403143199265
 30
0.0
 11
0.0000000000002149
 21
8.879403143199267
 31
0.0
  0
LINE
  5
56
100
AcDbEntity
  8
USP-HID
100
AcDbLine
 10
0.074700000000123
 20
8.832403143199265
 30
0.0
 11
0.0000000000001212
 21
8.832403143199266
 31
0.0
  0
LINE
  5
57
100
AcDbEntity
  8
USP-HID
100
AcDbLine
 10
0.0747000000001246
 20
9.004403143199265
 30
0.0
 11
0.0000000000001246
 21
9.004403143199267
 31
0.0
  0
LINE
  5
58
100
AcDbEntity
  8
USP-GEO
100
AcDbLine
 10
0.0000000000001095
 20
9.324449999999981
 30
0.0
 11
0.074700000000111
 21
9.324449999999979
 31
0.0
  0
ENDBLK
  5
5B
100
AcDbEntity
  8
0
100
AcDbBlockEnd
  0
BLOCK
  5
B3
100
AcDbEntity
  8
0
100
AcDbBlockBegin
  2
HD212_F
 70
     0
 10
0.0
 20
0.0
 30
0.0
  3
HD212_F
  1

  0
LINE
  5
5E
100
AcDbEntity
  8
USP-GEO
100
AcDbLine
 10
1.125000000000037
 20
9.32444999999997
 30
0.0
 11
1.125000000000024
 21
3.989943540482647
 31
0.0
  0
LINE
  5
5F
100
AcDbEntity
  8
USP-GEO
100
AcDbLine
 10
1.199700000000023
 20
3.989943540482643
 30
0.0
 11
1.199700000000035
 21
9.32444999999997
 31
0.0
  0
LINE
  5
60
100
AcDbEntity
  8
USP-GEO
100
AcDbLine
 10
0.0
 20
3.951214868936115
 30
0.0
 11
-0.0000000000000053
 21
9.324449999999954
 31
0.0
  0
LINE
  5
61
100
AcDbEntity
  8
USP-GEO
100
AcDbLine
 10
2.836900000000023
 20
3.989943540483467
 30
0.0
 11
2.836900000000033
 21
9.324450000000032
 31
0.0
  0
LINE
  5
62
100
AcDbEntity
  8
USP-GEO
100
AcDbLine
 10
2.762200000000023
 20
3.989943540483467
 30
0.0
 11
2.762200000000033
 21
9.324450000000032
 31
0.0
  0
LINE
  5
63
100
AcDbEntity
  8
USP-GEO
100
AcDbLine
 10
3.961899999999987
 20
9.324450000000007
 30
0.0
 11
3.961899999999952
 21
3.951214868935958
 31
0.0
  0
TEXT
  5
64
100
AcDbEntity
  8
USP-TXT
100
AcDbText
 10
-0.6414458333332878
 20
-1.021097932112231
 30
0.0
 40
0.296875
  1
HD212 - FRONT VIEW
 72
     1
 11
1.980950000000044
 21
-1.021097932112231
 31
0.0
100
AcDbText
  0
LINE
  5
65
100
AcDbEntity
  8
USP-GEO
100
AcDbLine
 10
1.199700000000047
 20
0.0747000000000018
 30
0.0
 11
2.762200000000007
 21
0.0746999999999987
 31
0.0
  0
LINE
  5
66
100
AcDbEntity
  8
USP-GEO
100
AcDbLine
 10
2.836900000000049
 20
-0.0000000000000051
 30
0.0
 11
1.125000000000051
 21
-0.0000000000000013
 31
0.0
  0
LINE
  5
67
100
AcDbEntity
  8
USP-GEO
100
AcDbLine
 10
1.125000000000039
 20
2.262832434468061
 30
0.0
 11
1.125000000000051
 21
0.5744499999999972
 31
0.0
  0
LINE
  5
68
100
AcDbEntity
  8
USP-GEO
100
AcDbLine
 10
1.199700000000037
 20
2.262832434468061
 30
0.0
 11
1.199700000000049
 21
0.5744499999999972
 31
0.0
  0
ARC
  5
69
100
AcDbEntity
  8
USP-GEO
100
AcDbCircle
 10
-1.18747325684121
 20
0.5744500000000399
 30
0.0
 40
2.5
100
AcDbArc
 50
22.33325800951533
 51
42.48156664607251
  0
LINE
  5
6A
100
AcDbEntity
  8
USP-GEO
100
AcDbLine
 10
1.199700000000049
 20
0.5744499999999937
 30
0.0
 11
1.125000000000051
 21
0.5744499999999939
 31
0.0
  0
LINE
  5
6B
100
AcDbEntity
  8
USP-GEO
100
AcDbLine
 10
1.199700000000049
 20
0.1994499999999866
 30
0.0
 11
1.125000000000051
 21
0.1994499999999868
 31
0.0
  0
LINE
  5
6C
100
AcDbEntity
  8
USP-GEO
100
AcDbLine
 10
1.125000000000049
 20
0.1994499999999866
 30
0.0
 11
1.125000000000049
 21
0.0
 31
0.0
  0
LINE
  5
6D
100
AcDbEntity
  8
USP-GEO
100
AcDbLine
 10
1.125000000000049
 20
0.5744499999999937
 30
0.0
 11
1.125000000000049
 21
0.1994499999999948
 31
0.0
  0
LINE
  5
6E
100
AcDbEntity
  8
USP-GEO
100
AcDbLine
 10
1.199700000000049
 20
0.1994499999999866
 30
0.0
 11
1.199700000000049
 21
0.0747000000000013
 31
0.0
  0
LINE
  5
6F
100
AcDbEntity
  8
USP-HID
100
AcDbLine
 10
1.353670779386423
 20
0.0747000000000091
 30
0.0
 11
1.353670779386423
 21
0.0000000000000098
 31
0.0
  0
LINE
  5
70
100
AcDbEntity
  8
USP-HID
100
AcDbLine
 10
1.480950000000042
 20
0.0747000000000056
 30
0.0
 11
1.480950000000042
 21
0.0000000000000062
 31
0.0
  0
LINE
  5
71
100
AcDbEntity
  8
USP-HID
100
AcDbLine
 10
1.608229220613599
 20
0.0747000000000056
 30
0.0
 11
1.608229220613599
 21
0.0000000000000049
 31
0.0
  0
LINE
  5
72
100
AcDbEntity
  8
USP-GEO
100
AcDbLine
 10
1.199700000000047
 20
0.5744499999999901
 30
0.0
 11
1.199700000000047
 21
0.1994499999999897
 31
0.0
  0
LINE
  5
73
100
AcDbEntity
  8
USP-HID
100
AcDbLine
 10
1.199699999999998
 20
1.524432861105561
 30
0.0
 11
1.124999999999998
 21
1.524432861105561
 31
0.0
  0
LINE
  5
74
100
AcDbEntity
  8
USP-HID
100
AcDbLine
 10
1.199700000000026
 20
1.492450000000008
 30
0.0
 11
1.125000000000028
 21
1.492450000000008
 31
0.0
  0
LINE
  5
75
100
AcDbEntity
  8
USP-HID
100
AcDbLine
 10
1.199700000000026
 20
1.656450000000007
 30
0.0
 11
1.125000000000026
 21
1.656450000000007
 31
0.0
  0
LINE
  5
76
100
AcDbEntity
  8
USP-HID
100
AcDbLine
 10
1.827450000000025
 20
0.0747000000000164
 30
0.0
 11
1.827450000000025
 21
0.0000000000000164
 31
0.0
  0
LINE
  5
77
100
AcDbEntity
  8
USP-HID
100
AcDbLine
 10
2.134450000000024
 20
0.0747000000000162
 30
0.0
 11
2.134450000000024
 21
0.0000000000000162
 31
0.0
  0
LINE
  5
78
100
AcDbEntity
  8
USP-HID
100
AcDbLine
 10
2.353670779386423
 20
0.0747000000000056
 30
0.0
 11
2.353670779386423
 21
0.0000000000000049
 31
0.0
  0
LINE
  5
79
100
AcDbEntity
  8
USP-HID
100
AcDbLine
 10
2.48095000000004
 20
0.074700000000002
 30
0.0
 11
2.48095000000004
 21
0.0000000000000027
 31
0.0
  0
LINE
  5
7A
100
AcDbEntity
  8
USP-HID
100
AcDbLine
 10
2.608229220613599
 20
0.0747000000000056
 30
0.0
 11
2.608229220613599
 21
0.0000000000000049
 31
0.0
  0
CIRCLE
  5
7B
100
AcDbEntity
  8
USP-GEO
100
AcDbCircle
 10
0.7499999999999823
 20
2.5434031431993
 30
0.0
 40
0.086
  0
CIRCLE
  5
7C
100
AcDbEntity
  8
USP-GEO
100
AcDbCircle
 10
0.7499999999999841
 20
3.7934031431993
 30
0.0
 40
0.086
  0
CIRCLE
  5
7D
100
AcDbEntity
  8
USP-GEO
100
AcDbCircle
 10
0.7499999999999876
 20
5.7934031431993
 30
0.0
 40
0.086
  0
ARC
  5
7E
100
AcDbEntity
  8
USP-GEO
100
AcDbCircle
 10
2.500000000000001
 20
3.95121486893611
 30
0.0
 40
2.5
100
AcDbArc
 50
179.9999999999998
 51
222.4815666460719
  0
CIRCLE
  5
7F
100
AcDbEntity
  8
USP-GEO
100
AcDbCircle
 10
0.5624999999999841
 20
3.199450000000021
 30
0.0
 40
0.086
  0
CIRCLE
  5
80
100
AcDbEntity
  8
USP-GEO
100
AcDbCircle
 10
0.3749999999999876
 20
4.7934031431993
 30
0.0
 40
0.086
  0
CIRCLE
  5
81
100
AcDbEntity
  8
USP-GEO
100
AcDbCircle
 10
0.5624999999999912
 20
6.7934031431993
 30
0.0
 40
0.086
  0
LINE
  5
82
100
AcDbEntity
  8
USP-GEO
100
AcDbLine
 10
1.125000000000024
 20
3.989943540482647
 30
0.0
 11
1.125000000000037
 21
2.262832434468058
 31
0.0
  0
LINE
  5
83
100
AcDbEntity
  8
USP-GEO
100
AcDbLine
 10
1.199700000000035
 20
2.262832434468059
 30
0.0
 11
1.199700000000023
 21
3.989943540482645
 31
0.0
  0
LINE
  5
84
100
AcDbEntity
  8
USP-HID
100
AcDbLine
 10
1.199700000000014
 20
3.992449999999972
 30
0.0
 11
1.125000000000015
 21
3.992449999999972
 31
0.0
  0
LINE
  5
85
100
AcDbEntity
  8
USP-HID
100
AcDbLine
 10
1.199700000000015
 20
4.156449999999972
 30
0.0
 11
1.125000000000015
 21
4.156449999999972
 31
0.0
  0
LINE
  5
86
100
AcDbEntity
  8
USP-HID
100
AcDbLine
 10
1.199700000000014
 20
4.921199999999887
 30
0.0
 11
1.125000000000014
 21
4.921199999999887
 31
0.0
  0
LINE
  5
87
100
AcDbEntity
  8
USP-HID
100
AcDbLine
 10
1.199700000000014
 20
5.228199999999888
 30
0.0
 11
1.125000000000015
 21
5.228199999999888
 31
0.0
  0
LINE
  5
88
100
AcDbEntity
  8
USP-GEO
100
AcDbLine
 10
2.836900000000051
 20
0.5744499999998516
 30
0.0
 11
2.836900000000039
 21
2.262832434467914
 31
0.0
  0
LINE
  5
89
100
AcDbEntity
  8
USP-GEO
100
AcDbLine
 10
2.762200000000051
 20
0.5744499999998516
 30
0.0
 11
2.762200000000039
 21
2.262832434467914
 31
0.0
  0
ARC
  5
8A
100
AcDbEntity
  8
USP-GEO
100
AcDbCircle
 10
5.149373256841174
 20
0.5744499999998835
 30
0.0
 40
2.5
100
AcDbArc
 50
137.5184333539273
 51
157.6667419904852
  0
LINE
  5
8B
100
AcDbEntity
  8
USP-GEO
100
AcDbLine
 10
2.836900000000049
 20
-0.0000000000000016
 30
0.0
 11
2.836900000000049
 21
0.1374500000000074
 31
0.0
  0
LINE
  5
8C
100
AcDbEntity
  8
USP-GEO
100
AcDbLine
 10
2.762200000000049
 20
0.0746999999999993
 30
0.0
 11
2.762200000000049
 21
0.1374500000000074
 31
0.0
  0
LINE
  5
8D
100
AcDbEntity
  8
USP-GEO
100
AcDbLine
 10
2.836900000000047
 20
0.1374500000000067
 30
0.0
 11
2.836900000000047
 21
0.5124500000000058
 31
0.0
  0
LINE
  5
8E
100
AcDbEntity
  8
USP-GEO
100
AcDbLine
 10
2.762200000000047
 20
0.1374500000000067
 30
0.0
 11
2.762200000000047
 21
0.5124500000000058
 31
0.0
  0
LINE
  5
8F
100
AcDbEntity
  8
USP-GEO
100
AcDbLine
 10
2.762200000000047
 20
0.1374500000000067
 30
0.0
 11
2.836900000000047
 21
0.1374500000000065
 31
0.0
  0
LINE
  5
90
100
AcDbEntity
  8
USP-GEO
100
AcDbLine
 10
2.836900000000051
 20
0.5124500000000067
 30
0.0
 11
2.836900000000051
 21
0.5744499999997876
 31
0.0
  0
LINE
  5
91
100
AcDbEntity
  8
USP-GEO
100
AcDbLine
 10
2.762200000000049
 20
0.5124500000000067
 30
0.0
 11
2.836900000000049
 21
0.5124500000000066
 31
0.0
  0
LINE
  5
92
100
AcDbEntity
  8
USP-GEO
100
AcDbLine
 10
2.762200000000049
 20
0.5124500000000067
 30
0.0
 11
2.762200000000049
 21
0.5744499999997876
 31
0.0
  0
LINE
  5
93
100
AcDbEntity
  8
USP-HID
100
AcDbLine
 10
2.762200000000024
 20
1.242450000000064
 30
0.0
 11
2.836900000000024
 21
1.242450000000064
 31
0.0
  0
LINE
  5
94
100
AcDbEntity
  8
USP-HID
100
AcDbLine
 10
2.83689999999996
 20
1.524432861105383
 30
0.0
 11
2.76219999999996
 21
1.524432861105383
 31
0.0
  0
LINE
  5
95
100
AcDbEntity
  8
USP-HID
100
AcDbLine
 10
2.762200000000024
 20
1.406450000000064
 30
0.0
 11
2.836900000000026
 21
1.406450000000064
 31
0.0
  0
ARC
  5
96
100
AcDbEntity
  8
USP-GEO
100
AcDbCircle
 10
1.461899999999978
 20
3.951214868935975
 30
0.0
 40
2.5
100
AcDbArc
 50
317.5184333539277
 51
359.9999999999998
  0
LINE
  5
97
100
AcDbEntity
  8
USP-GEO
100
AcDbLine
 10
2.836900000000035
 20
2.262832434467916
 30
0.0
 11
2.836900000000023
 21
3.989943540483467
 31
0.0
  0
LINE
  5
98
100
AcDbEntity
  8
USP-GEO
100
AcDbLine
 10
2.762200000000023
 20
3.989943540483467
 30
0.0
 11
2.762200000000035
 21
2.262832434467916
 31
0.0
  0
CIRCLE
  5
99
100
AcDbEntity
  8
USP-GEO
100
AcDbCircle
 10
3.211899999999976
 20
2.543403143199297
 30
0.0
 40
0.086
  0
CIRCLE
  5
9A
100
AcDbEntity
  8
USP-GEO
100
AcDbCircle
 10
3.399399999999978
 20
3.199450000000018
 30
0.0
 40
0.086
  0
LINE
  5
9B
100
AcDbEntity
  8
USP-HID
100
AcDbLine
 10
2.762200000000015
 20
3.906450000000028
 30
0.0
 11
2.836900000000015
 21
3.906450000000028
 31
0.0
  0
LINE
  5
9C
100
AcDbEntity
  8
USP-HID
100
AcDbLine
 10
2.762200000000015
 20
3.742450000000029
 30
0.0
 11
2.836900000000015
 21
3.742450000000029
 31
0.0
  0
CIRCLE
  5
9D
100
AcDbEntity
  8
USP-GEO
100
AcDbCircle
 10
3.21189999999998
 20
3.918403143199297
 30
0.0
 40
0.086
  0
CIRCLE
  5
9E
100
AcDbEntity
  8
USP-GEO
100
AcDbCircle
 10
3.586899999999982
 20
4.918403143199293
 30
0.0
 40
0.086
  0
LINE
  5
9F
100
AcDbEntity
  8
USP-HID
100
AcDbLine
 10
2.762200000000014
 20
4.921199999999973
 30
0.0
 11
2.836900000000015
 21
4.921199999999973
 31
0.0
  0
LINE
  5
A0
100
AcDbEntity
  8
USP-HID
100
AcDbLine
 10
2.762200000000014
 20
5.228199999999973
 30
0.0
 11
2.836900000000015
 21
5.228199999999973
 31
0.0
  0
CIRCLE
  5
A1
100
AcDbEntity
  8
USP-GEO
100
AcDbCircle
 10
3.211899999999982
 20
5.918403143199293
 30
0.0
 40
0.086
  0
CIRCLE
  5
A2
100
AcDbEntity
  8
USP-GEO
100
AcDbCircle
 10
3.399399999999985
 20
6.918403143199293
 30
0.0
 40
0.086
  0
CIRCLE
  5
A3
100
AcDbEntity
  8
USP-GEO
100
AcDbCircle
 10
0.7499999999999947
 20
8.7934031431993
 30
0.0
 40
0.086
  0
LINE
  5
A4
100
AcDbEntity
  8
USP-GEO
100
AcDbLine
 10
-0.0000000000000053
 20
9.324449999999957
 30
0.0
 11
1.125000000000012
 21
9.32444999999997
 31
0.0
  0
CIRCLE
  5
A5
100
AcDbEntity
  8
USP-GEO
100
AcDbCircle
 10
0.3749999999999938
 20
7.7934031431993
 30
0.0
 40
0.086
  0
LINE
  5
A6
100
AcDbEntity
  8
USP-HID
100
AcDbLine
 10
1.199700000000023
 20
7.742449999999978
 30
0.0
 11
1.125000000000023
 21
7.742449999999978
 31
0.0
  0
LINE
  5
A7
100
AcDbEntity
  8
USP-HID
100
AcDbLine
 10
1.199700000000023
 20
7.906449999999979
 30
0.0
 11
1.125000000000023
 21
7.906449999999979
 31
0.0
  0
LINE
  5
A8
100
AcDbEntity
  8
USP-HID
100
AcDbLine
 10
1.199700000000021
 20
8.608699999999888
 30
0.0
 11
1.125000000000023
 21
8.608699999999888
 31
0.0
  0
LINE
  5
A9
100
AcDbEntity
  8
USP-HID
100
AcDbLine
 10
1.199700000000021
 20
8.915699999999887
 30
0.0
 11
1.125000000000023
 21
8.915699999999887
 31
0.0
  0
LINE
  5
AA
100
AcDbEntity
  8
USP-GEO
100
AcDbLine
 10
1.199700000000033
 20
9.324449999999972
 30
0.0
 11
1.125000000000033
 21
9.324449999999972
 31
0.0
  0
LINE
  5
AB
100
AcDbEntity
  8
USP-GEO
100
AcDbLine
 10
2.83690000000001
 20
9.324450000000027
 30
0.0
 11
3.961899999999991
 21
9.324450000000009
 31
0.0
  0
CIRCLE
  5
AC
100
AcDbEntity
  8
USP-GEO
100
AcDbCircle
 10
3.586899999999989
 20
7.918403143199293
 30
0.0
 40
0.086
  0
LINE
  5
AD
100
AcDbEntity
  8
USP-HID
100
AcDbLine
 10
2.762200000000021
 20
7.656450000000036
 30
0.0
 11
2.836900000000021
 21
7.656450000000036
 31
0.0
  0
LINE
  5
AE
100
AcDbEntity
  8
USP-HID
100
AcDbLine
 10
2.762200000000023
 20
7.492450000000035
 30
0.0
 11
2.836900000000023
 21
7.492450000000035
 31
0.0
  0
LINE
  5
AF
100
AcDbEntity
  8
USP-HID
100
AcDbLine
 10
2.762200000000021
 20
8.608699999999974
 30
0.0
 11
2.836900000000021
 21
8.608699999999974
 31
0.0
  0
LINE
  5
B0
100
AcDbEntity
  8
USP-HID
100
AcDbLine
 10
2.762200000000021
 20
8.915699999999972
 30
0.0
 11
2.836900000000023
 21
8.915699999999972
 31
0.0
  0
LINE
  5
B1
100
AcDbEntity
  8
USP-GEO
100
AcDbLine
 10
2.762200000000033
 20
9.324450000000028
 30
0.0
 11
2.836900000000033
 21
9.324450000000028
 31
0.0
  0
CIRCLE
  5
B2
100
AcDbEntity
  8
USP-GEO
100
AcDbCircle
 10
3.211899999999987
 20
8.918403143199293
 30
0.0
 40
0.086
  0
ENDBLK
  5
B4
100
AcDbEntity
  8
0
100
AcDbBlockEnd
  0
BLOCK
  5
FD
100
AcDbEntity
  8
0
100
AcDbBlockBegin
  2
HD212_T
 70
     0
 10
0.0
 20
0.0
 30
0.0
  3
HD212_T
  1

  0
TEXT
  5
B7
100
AcDbEntity
  8
USP-TXT
100
AcDbText
 10
-0.3445708333332971
 20
-0.9615073518851389
 30
0.0
 40
0.296875
  1
HD212 - TOP VIEW
 72
     1
 11
1.980950000000036
 21
-0.9615073518851389
 31
0.0
100
AcDbText
  0
LINE
  5
B8
100
AcDbEntity
  8
USP-GEO
100
AcDbLine
 10
1.199700000000004
 20
1.999973256841126
 30
0.0
 11
2.762199999999965
 21
1.99997325684121
 31
0.0
  0
LINE
  5
B9
100
AcDbEntity
  8
USP-GEO
100
AcDbLine
 10
1.199700000000055
 20
0.0
 30
0.0
 11
2.762200000000015
 21
-0.0000000000000036
 31
0.0
  0
LINE
  5
BA
100
AcDbEntity
  8
USP-GEO
100
AcDbLine
 10
1.199700000000018
 20
2.262199999999801
 30
0.0
 11
0.0
 21
2.262199999999769
 31
0.0
  0
LINE
  5
BB
100
AcDbEntity
  8
USP-GEO
100
AcDbLine
 10
0.0000000000000027
 20
2.187499999999769
 30
0.0
 11
1.12500000000002
 21
2.187499999999797
 31
0.0
  0
LINE
  5
BC
100
AcDbEntity
  8
USP-GEO
100
AcDbLine
 10
0.0
 20
2.262199999999765
 30
0.0
 11
0.0000000000000018
 21
2.187499999999765
 31
0.0
  0
LINE
  5
BD
100
AcDbEntity
  8
USP-HID
100
AcDbLine
 10
0.2889999999999997
 20
2.262199999999804
 30
0.0
 11
0.2890000000000015
 21
2.187499999999804
 31
0.0
  0
LINE
  5
BE
100
AcDbEntity
  8
USP-HID
100
AcDbLine
 10
0.476499999999998
 20
2.262199999999825
 30
0.0
 11
0.4764999999999997
 21
2.187499999999825
 31
0.0
  0
LINE
  5
BF
100
AcDbEntity
  8
USP-HID
100
AcDbLine
 10
0.4610000000000003
 20
2.262199999999811
 30
0.0
 11
0.4610000000000021
 21
2.187499999999811
 31
0.0
  0
LINE
  5
C0
100
AcDbEntity
  8
USP-HID
100
AcDbLine
 10
0.6484999999999977
 20
2.262199999999833
 30
0.0
 11
0.6484999999999994
 21
2.187499999999833
 31
0.0
  0
LINE
  5
C1
100
AcDbEntity
  8
USP-HID
100
AcDbLine
 10
0.6640000000000006
 20
2.26219999999979
 30
0.0
 11
0.6640000000000024
 21
2.18749999999979
 31
0.0
  0
LINE
  5
C2
100
AcDbEntity
  8
USP-GEO
100
AcDbLine
 10
1.12500000000002
 20
2.187499999999793
 30
0.0
 11
1.125000000000043
 21
1.312226743158623
 31
0.0
  0
LINE
  5
C3
100
AcDbEntity
  8
USP-GEO
100
AcDbLine
 10
1.199700000000018
 20
2.262199999999801
 30
0.0
 11
1.199700000000043
 21
1.31222674315863
 31
0.0
  0
LINE
  5
C4
100
AcDbEntity
  8
USP-GEO
100
AcDbLine
 10
1.353670779386431
 20
0.3999999999999915
 30
0.0
 11
1.480950000000045
 21
0.5272792206135542
 31
0.0
  0
LINE
  5
C5
100
AcDbEntity
  8
USP-GEO
100
AcDbLine
 10
1.480950000000043
 20
0.5272792206135542
 30
0.0
 11
1.608229220613606
 21
0.3999999999999968
 31
0.0
  0
LINE
  5
C6
100
AcDbEntity
  8
USP-GEO
100
AcDbLine
 10
1.125000000000045
 20
0.6562633715793052
 30
0.0
 11
1.125000000000059
 21
-0.0000000000000711
 31
0.0
  0
LINE
  5
C7
100
AcDbEntity
  8
USP-GEO
100
AcDbLine
 10
1.199700000000045
 20
0.6562633715793123
 30
0.0
 11
1.199700000000059
 21
-0.0000000000000639
 31
0.0
  0
LINE
  5
C8
100
AcDbEntity
  8
USP-HID
100
AcDbLine
 10
1.199700000000055
 20
0.0625000000000142
 30
0.0
 11
1.125000000000055
 21
0.0625000000000124
 31
0.0
  0
LINE
  5
C9
100
AcDbEntity
  8
USP-GEO
100
AcDbLine
 10
1.199700000000057
 20
-0.0000000000000639
 30
0.0
 11
1.125000000000059
 21
-0.0000000000000657
 31
0.0
  0
LINE
  5
CA
100
AcDbEntity
  8
USP-GEO
100
AcDbLine
 10
1.48095000000005
 20
0.2727207793864093
 30
0.0
 11
1.353670779386431
 21
0.3999999999999932
 31
0.0
  0
LINE
  5
CB
100
AcDbEntity
  8
USP-GEO
100
AcDbLine
 10
1.608229220613607
 20
0.399999999999995
 30
0.0
 11
1.48095000000005
 21
0.2727207793864039
 31
0.0
  0
LINE
  5
CC
100
AcDbEntity
  8
USP-HID
100
AcDbLine
 10
1.199700000000038
 20
0.9177267431587594
 30
0.0
 11
1.125000000000038
 21
0.9177267431587576
 31
0.0
  0
LINE
  5
CD
100
AcDbEntity
  8
USP-HID
100
AcDbLine
 10
1.199700000000034
 20
1.08172674315876
 30
0.0
 11
1.125000000000034
 21
1.081726743158759
 31
0.0
  0
LINE
  5
CE
100
AcDbEntity
  8
USP-HID
100
AcDbLine
 10
1.199700000000034
 20
1.542726743158659
 30
0.0
 11
1.125000000000034
 21
1.542726743158658
 31
0.0
  0
LINE
  5
CF
100
AcDbEntity
  8
USP-HID
100
AcDbLine
 10
1.199700000000031
 20
1.706726743158661
 30
0.0
 11
1.125000000000031
 21
1.706726743158659
 31
0.0
  0
LINE
  5
D0
100
AcDbEntity
  8
USP-HID
100
AcDbLine
 10
1.199700000000034
 20
1.596499999999808
 30
0.0
 11
1.125000000000036
 21
1.596499999999807
 31
0.0
  0
LINE
  5
D1
100
AcDbEntity
  8
USP-HID
100
AcDbLine
 10
1.199700000000032
 20
1.31252674315867
 30
0.0
 11
1.125000000000032
 21
1.312526743158668
 31
0.0
  0
LINE
  5
D2
100
AcDbEntity
  8
USP-GEO
100
AcDbLine
 10
1.199700000000043
 20
1.312226743158632
 30
0.0
 11
1.125000000000043
 21
1.31222674315863
 31
0.0
  0
LINE
  5
D3
100
AcDbEntity
  8
USP-GEO
100
AcDbLine
 10
1.125000000000032
 20
1.312226743158646
 30
0.0
 11
1.125000000000047
 21
0.6562633715793105
 31
0.0
  0
LINE
  5
D4
100
AcDbEntity
  8
USP-GEO
100
AcDbLine
 10
1.199700000000047
 20
0.6562633715793141
 30
0.0
 11
1.199700000000032
 21
1.312226743158653
 31
0.0
  0
LINE
  5
D5
100
AcDbEntity
  8
USP-GEO
100
AcDbLine
 10
2.480950000000043
 20
0.5272792206135808
 30
0.0
 11
2.608229220613607
 21
0.4000000000000235
 31
0.0
  0
LINE
  5
D6
100
AcDbEntity
  8
USP-GEO
100
AcDbLine
 10
2.353670779386429
 20
0.4000000000000164
 30
0.0
 11
2.480950000000043
 21
0.5272792206135791
 31
0.0
  0
LINE
  5
D7
100
AcDbEntity
  8
USP-GEO
100
AcDbLine
 10
2.48095000000005
 20
0.2727207793864359
 30
0.0
 11
2.353670779386431
 21
0.4000000000000199
 31
0.0
  0
LINE
  5
D8
100
AcDbEntity
  8
USP-GEO
100
AcDbLine
 10
2.608229220613606
 20
0.4000000000000199
 30
0.0
 11
2.48095000000005
 21
0.2727207793864288
 31
0.0
  0
CIRCLE
  5
D9
100
AcDbEntity
  8
USP-GEO
100
AcDbCircle
 10
1.980950000000032
 20
1.0
 30
0.0
 40
0.1535
  0
LINE
  5
DA
100
AcDbEntity
  8
USP-HID
100
AcDbLine
 10
1.199700000000009
 20
1.937473256841109
 30
0.0
 11
1.125000000000009
 21
1.937473256841107
 31
0.0
  0
LINE
  5
DB
100
AcDbEntity
  8
USP-HID
100
AcDbLine
 10
1.199700000000007
 20
1.999973256841165
 30
0.0
 11
1.125000000000009
 21
1.999973256841164
 31
0.0
  0
LINE
  5
DC
100
AcDbEntity
  8
USP-HID
100
AcDbLine
 10
1.199700000000006
 20
2.187499999999946
 30
0.0
 11
1.125000000000006
 21
2.187499999999943
 31
0.0
  0
LINE
  5
DD
100
AcDbEntity
  8
USP-HID
100
AcDbLine
 10
1.199700000000027
 20
1.903499999999807
 30
0.0
 11
1.125000000000029
 21
1.903499999999805
 31
0.0
  0
LINE
  5
DE
100
AcDbEntity
  8
USP-HID
100
AcDbLine
 10
0.8360000000000011
 20
2.262199999999797
 30
0.0
 11
0.8360000000000029
 21
2.187499999999797
 31
0.0
  0
LINE
  5
DF
100
AcDbEntity
  8
USP-HID
100
AcDbLine
 10
1.125000000000004
 20
2.262199999999943
 30
0.0
 11
1.125000000000006
 21
2.187499999999943
 31
0.0
  0
LINE
  5
E0
100
AcDbEntity
  8
USP-GEO
100
AcDbLine
 10
2.836900000000043
 20
1.312226743158662
 30
0.0
 11
2.83690000000002
 21
2.187499999999864
 31
0.0
  0
LINE
  5
E1
100
AcDbEntity
  8
USP-GEO
100
AcDbLine
 10
2.762200000000018
 20
2.262199999999864
 30
0.0
 11
2.762200000000043
 21
1.31222674315866
 31
0.0
  0
LINE
  5
E2
100
AcDbEntity
  8
USP-GEO
100
AcDbLine
 10
2.836900000000059
 20
-0.0000000000000142
 30
0.0
 11
2.836900000000045
 21
0.6562633715793602
 31
0.0
  0
LINE
  5
E3
100
AcDbEntity
  8
USP-GEO
100
AcDbLine
 10
2.762200000000059
 20
-0.0000000000000213
 30
0.0
 11
2.762200000000045
 21
0.6562633715793531
 31
0.0
  0
LINE
  5
E4
100
AcDbEntity
  8
USP-HID
100
AcDbLine
 10
2.762200000000057
 20
0.0624999999999716
 30
0.0
 11
2.836900000000057
 21
0.0624999999999734
 31
0.0
  0
LINE
  5
E5
100
AcDbEntity
  8
USP-GEO
100
AcDbLine
 10
2.762200000000057
 20
-0.0000000000000355
 30
0.0
 11
2.836900000000057
 21
-0.0000000000000338
 31
0.0
  0
LINE
  5
E6
100
AcDbEntity
  8
USP-GEO
100
AcDbLine
 10
2.836900000000045
 20
0.6562633715793567
 30
0.0
 11
2.836900000000031
 21
1.312226743158682
 31
0.0
  0
LINE
  5
E7
100
AcDbEntity
  8
USP-GEO
100
AcDbLine
 10
2.762200000000031
 20
1.312226743158682
 30
0.0
 11
2.762200000000045
 21
0.6562633715793567
 31
0.0
  0
LINE
  5
E8
100
AcDbEntity
  8
USP-HID
100
AcDbLine
 10
2.762200000000031
 20
1.081726743158796
 30
0.0
 11
2.836900000000031
 21
1.081726743158798
 31
0.0
  0
LINE
  5
E9
100
AcDbEntity
  8
USP-HID
100
AcDbLine
 10
2.762200000000034
 20
0.9177267431587949
 30
0.0
 11
2.836900000000034
 21
0.9177267431587967
 31
0.0
  0
LINE
  5
EA
100
AcDbEntity
  8
USP-HID
100
AcDbLine
 10
2.762200000000031
 20
1.312526743158713
 30
0.0
 11
2.836900000000031
 21
1.312526743158715
 31
0.0
  0
LINE
  5
EB
100
AcDbEntity
  8
USP-GEO
100
AcDbLine
 10
2.762200000000041
 20
1.31222674315866
 30
0.0
 11
2.836900000000041
 21
1.312226743158662
 31
0.0
  0
LINE
  5
EC
100
AcDbEntity
  8
USP-HID
100
AcDbLine
 10
2.762200000000034
 20
1.596499999999844
 30
0.0
 11
2.836900000000034
 21
1.596499999999846
 31
0.0
  0
LINE
  5
ED
100
AcDbEntity
  8
USP-HID
100
AcDbLine
 10
2.762200000000029
 20
1.706726743158696
 30
0.0
 11
2.836900000000029
 21
1.706726743158698
 31
0.0
  0
LINE
  5
EE
100
AcDbEntity
  8
USP-HID
100
AcDbLine
 10
2.762200000000032
 20
1.542726743158695
 30
0.0
 11
2.836900000000032
 21
1.542726743158697
 31
0.0
  0
LINE
  5
EF
100
AcDbEntity
  8
USP-GEO
100
AcDbLine
 10
2.83690000000002
 20
2.187499999999868
 30
0.0
 11
3.9619
 21
2.187499999999896
 31
0.0
  0
LINE
  5
F0
100
AcDbEntity
  8
USP-GEO
100
AcDbLine
 10
2.762200000000018
 20
2.262199999999864
 30
0.0
 11
3.9619
 21
2.262199999999896
 31
0.0
  0
LINE
  5
F1
100
AcDbEntity
  8
USP-HID
100
AcDbLine
 10
2.762200000000006
 20
1.999973256841208
 30
0.0
 11
2.836900000000006
 21
1.99997325684121
 31
0.0
  0
LINE
  5
F2
100
AcDbEntity
  8
USP-HID
100
AcDbLine
 10
2.762200000000009
 20
1.937473256841208
 30
0.0
 11
2.836900000000009
 21
1.93747325684121
 31
0.0
  0
LINE
  5
F3
100
AcDbEntity
  8
USP-HID
100
AcDbLine
 10
2.762200000000027
 20
1.903499999999842
 30
0.0
 11
2.836900000000027
 21
1.903499999999844
 31
0.0
  0
LINE
  5
F4
100
AcDbEntity
  8
USP-HID
100
AcDbLine
 10
2.836899999999968
 20
2.187500000000014
 30
0.0
 11
2.762199999999968
 21
2.18750000000001
 31
0.0
  0
LINE
  5
F5
100
AcDbEntity
  8
USP-HID
100
AcDbLine
 10
2.836899999999968
 20
2.262200000000014
 30
0.0
 11
2.83689999999997
 21
2.187500000000014
 31
0.0
  0
LINE
  5
F6
100
AcDbEntity
  8
USP-HID
100
AcDbLine
 10
3.125899999999997
 20
2.262199999999882
 30
0.0
 11
3.125899999999998
 21
2.187499999999882
 31
0.0
  0
LINE
  5
F7
100
AcDbEntity
  8
USP-HID
100
AcDbLine
 10
3.297899999999997
 20
2.262199999999889
 30
0.0
 11
3.297899999999999
 21
2.187499999999889
 31
0.0
  0
LINE
  5
F8
100
AcDbEntity
  8
USP-HID
100
AcDbLine
 10
3.313399999999991
 20
2.262199999999918
 30
0.0
 11
3.313399999999993
 21
2.187499999999925
 31
0.0
  0
LINE
  5
F9
100
AcDbEntity
  8
USP-HID
100
AcDbLine
 10
3.500899999999997
 20
2.262199999999911
 30
0.0
 11
3.500899999999998
 21
2.187499999999911
 31
0.0
  0
LINE
  5
FA
100
AcDbEntity
  8
USP-HID
100
AcDbLine
 10
3.485399999999992
 20
2.262199999999925
 30
0.0
 11
3.485399999999994
 21
2.187499999999932
 31
0.0
  0
LINE
  5
FB
100
AcDbEntity
  8
USP-HID
100
AcDbLine
 10
3.672899999999997
 20
2.262199999999918
 30
0.0
 11
3.672899999999999
 21
2.187499999999918
 31
0.0
  0
LINE
  5
FC
100
AcDbEntity
  8
USP-GEO
100
AcDbLine
 10
3.9619
 20
2.2621999999999
 30
0.0
 11
3.961900000000002
 21
2.1874999999999
 31
0.0
  0
ENDBLK
  5
FE
100
AcDbEntity
  8
0
100
AcDbBlockEnd
  0
ENDSEC
  0
SECTION
  2
ENTITIES
  0
INSERT
  5
3
100
AcDbEntity
  8
USP
100
AcDbBlockReference
  2
HD212_S
 10
1.676163546140092
 20
1.022335135778998
 30
0.0
  0
INSERT
  5
5C
100
AcDbEntity
  8
USP
100
AcDbBlockReference
  2
HD212_F
 10
7.364300947433685
 20
1.02233513577895
 30
0.0
  0
INSERT
  5
B5
100
AcDbEntity
  8
USP
100
AcDbBlockReference
  2
HD212_T
 10
7.364300947433693
 20
13.96385051115866
 30
0.0
  0
ENDSEC
  0
SECTION
  2
OBJECTS
  0
DICTIONARY
  5
113
102
{ACAD_XDICTIONARY
360
114
102
}
100
AcDbDictionary
  3
ACAD_GROUP
350
111
  3
ACAD_MLINESTYLE
350
112
1001
ACAD
1000
TREAT_AS_HARD
1070
     0
  0
DICTIONARY
  5
11
100
AcDbDictionary
280
     1
1001
ACAD
1000
TREAT_AS_HARD
1070
     1
  0
DICTIONARY
  5
FF
100
AcDbDictionary
280
     1
  0
DICTIONARY
  5
103
100
AcDbDictionary
280
     1
  0
DICTIONARY
  5
114
100
AcDbDictionary
280
     1
  0
DICTIONARY
  5
111
102
{ACAD_REACTORS
330
113
102
}
100
AcDbDictionary
1001
ACAD
1000
TREAT_AS_HARD
1070
     0
  0
DICTIONARY
  5
112
102
{ACAD_REACTORS
330
113
102
}
100
AcDbDictionary
  3
STANDARD
350
115
1001
ACAD
1000
TREAT_AS_HARD
1070
     0
  0
MLINESTYLE
  5
115
102
{ACAD_REACTORS
330
112
102
}
100
AcDbMlineStyle
  2
STANDARD
 70
     0
  3

 62
     0
 51
90.0
 52
90.0
 71
     2
 49
0.5
 62
   256
  6
BYLAYER
 49
-0.5
 62
   256
  6
BYLAYER
  0
ENDSEC
  0
EOF
