  0
SECTION
  2
HEADER
  9
$ACADVER
  1
AC1014
  9
$ACADMAINTVER
 70
     9
  9
$DWGCODEPAGE
  3
ANSI_1252
  9
$INSBASE
 10
0.0
 20
0.0
 30
0.0
  9
$EXTMIN
 10
-0.3139453898010274
 20
0.0002178574666373
 30
0.0
  9
$EXTMAX
 10
16.88203528426873
 20
18.93494856799242
 30
0.0
  9
$LIMMIN
 10
0.0
 20
0.0
  9
$LIMMAX
 10
12.0
 20
9.0
  9
$ORTHOMODE
 70
     1
  9
$REGENMODE
 70
     1
  9
$FILLMODE
 70
     1
  9
$QTEXTMODE
 70
     0
  9
$MIRRTEXT
 70
     0
  9
$DRAGMODE
 70
     2
  9
$LTSCALE
 40
1.5
  9
$OSMODE
 70
     0
  9
$ATTMODE
 70
     1
  9
$TEXTSIZE
 40
0.75
  9
$TRACEWID
 40
0.05
  9
$TEXTSTYLE
  7
STANDARD
  9
$CLAYER
  8
USP
  9
$CELTYPE
  6
BYLAYER
  9
$CECOLOR
 62
   256
  9
$CELTSCALE
 40
1.0
  9
$DELOBJ
 70
     1
  9
$DISPSILH
 70
     1
  9
$DIMSCALE
 40
7.0
  9
$DIMASZ
 40
0.125
  9
$DIMEXO
 40
0.0625
  9
$DIMDLI
 40
0.37890625
  9
$DIMRND
 40
0.0
  9
$DIMDLE
 40
0.0
  9
$DIMEXE
 40
0.09375
  9
$DIMTP
 40
0.0
  9
$DIMTM
 40
0.0
  9
$DIMTXT
 40
0.109375
  9
$DIMCEN
 40
0.0
  9
$DIMTSZ
 40
0.0
  9
$DIMTOL
 70
     0
  9
$DIMLIM
 70
     0
  9
$DIMTIH
 70
     1
  9
$DIMTOH
 70
     1
  9
$DIMSE1
 70
     0
  9
$DIMSE2
 70
     0
  9
$DIMTAD
 70
     0
  9
$DIMZIN
 70
     8
  9
$DIMBLK
  1

  9
$DIMASO
 70
     1
  9
$DIMSHO
 70
     1
  9
$DIMPOST
  1

  9
$DIMAPOST
  1

  9
$DIMALT
 70
     0
  9
$DIMALTD
 70
     2
  9
$DIMALTF
 40
25.4
  9
$DIMLFAC
 40
1.0
  9
$DIMTOFL
 70
     0
  9
$DIMTVP
 40
0.0
  9
$DIMTIX
 70
     0
  9
$DIMSOXD
 70
     0
  9
$DIMSAH
 70
     0
  9
$DIMBLK1
  1

  9
$DIMBLK2
  1

  9
$DIMSTYLE
  2
STANDARD
  9
$DIMCLRD
 70
     0
  9
$DIMCLRE
 70
     0
  9
$DIMCLRT
 70
   256
  9
$DIMTFAC
 40
1.0
  9
$DIMGAP
 40
0.08984375
  9
$DIMJUST
 70
     0
  9
$DIMSD1
 70
     0
  9
$DIMSD2
 70
     0
  9
$DIMTOLJ
 70
     1
  9
$DIMTZIN
 70
     0
  9
$DIMALTZ
 70
     0
  9
$DIMALTTZ
 70
     0
  9
$DIMFIT
 70
     3
  9
$DIMUPT
 70
     1
  9
$DIMUNIT
 70
     7
  9
$DIMDEC
 70
     4
  9
$DIMTDEC
 70
     4
  9
$DIMALTU
 70
     2
  9
$DIMALTTD
 70
     2
  9
$DIMTXSTY
  7
STANDARD
  9
$DIMAUNIT
 70
     0
  9
$LUNITS
 70
     5
  9
$LUPREC
 70
     6
  9
$SKETCHINC
 40
0.1
  9
$FILLETRAD
 40
0.0
  9
$AUNITS
 70
     0
  9
$AUPREC
 70
     1
  9
$MENU
  1
CUSTOM
  9
$ELEVATION
 40
0.0
  9
$PELEVATION
 40
0.0
  9
$THICKNESS
 40
0.0
  9
$LIMCHECK
 70
     0
  9
$BLIPMODE
 70
     0
  9
$CHAMFERA
 40
0.0
  9
$CHAMFERB
 40
0.0
  9
$CHAMFERC
 40
0.0
  9
$CHAMFERD
 40
0.0
  9
$SKPOLY
 70
     0
  9
$TDCREATE
 40
2451263.663231366
  9
$TDUPDATE
 40
2452759.744617511
  9
$TDINDWG
 40
0.4800495255
  9
$TDUSRTIMER
 40
0.4800495255
  9
$USRTIMER
 70
     1
  9
$ANGBASE
 50
0.0
  9
$ANGDIR
 70
     0
  9
$PDMODE
 70
     0
  9
$PDSIZE
 40
0.0
  9
$PLINEWID
 40
0.0
  9
$COORDS
 70
     2
  9
$SPLFRAME
 70
     0
  9
$SPLINETYPE
 70
     6
  9
$SPLINESEGS
 70
     8
  9
$ATTDIA
 70
     0
  9
$ATTREQ
 70
     0
  9
$HANDLING
 70
     1
  9
$HANDSEED
  5
153
  9
$SURFTAB1
 70
     6
  9
$SURFTAB2
 70
     6
  9
$SURFTYPE
 70
     6
  9
$SURFU
 70
     6
  9
$SURFV
 70
     6
  9
$UCSNAME
  2

  9
$UCSORG
 10
0.0
 20
0.0
 30
0.0
  9
$UCSXDIR
 10
1.0
 20
0.0
 30
0.0
  9
$UCSYDIR
 10
0.0
 20
1.0
 30
0.0
  9
$PUCSNAME
  2

  9
$PUCSORG
 10
0.0
 20
0.0
 30
0.0
  9
$PUCSXDIR
 10
1.0
 20
0.0
 30
0.0
  9
$PUCSYDIR
 10
0.0
 20
1.0
 30
0.0
  9
$USERI1
 70
     0
  9
$USERI2
 70
     0
  9
$USERI3
 70
     0
  9
$USERI4
 70
     0
  9
$USERI5
 70
     0
  9
$USERR1
 40
0.0
  9
$USERR2
 40
0.0
  9
$USERR3
 40
0.0
  9
$USERR4
 40
0.0
  9
$USERR5
 40
0.0
  9
$WORLDVIEW
 70
     1
  9
$SHADEDGE
 70
     3
  9
$SHADEDIF
 70
    70
  9
$TILEMODE
 70
     1
  9
$MAXACTVP
 70
    16
  9
$PINSBASE
 10
0.0
 20
0.0
 30
0.0
  9
$PLIMCHECK
 70
     0
  9
$PEXTMIN
 10
1.000000000000000E+20
 20
1.000000000000000E+20
 30
1.000000000000000E+20
  9
$PEXTMAX
 10
-1.000000000000000E+20
 20
-1.000000000000000E+20
 30
-1.000000000000000E+20
  9
$PLIMMIN
 10
0.0
 20
0.0
  9
$PLIMMAX
 10
12.0
 20
9.0
  9
$UNITMODE
 70
     0
  9
$VISRETAIN
 70
     0
  9
$PLINEGEN
 70
     0
  9
$PSLTSCALE
 70
     0
  9
$TREEDEPTH
 70
  3020
  9
$PICKSTYLE
 70
     1
  9
$CMLSTYLE
  2
STANDARD
  9
$CMLJUST
 70
     0
  9
$CMLSCALE
 40
1.0
  9
$PROXYGRAPHICS
 70
     1
  9
$MEASUREMENT
 70
     0
  0
ENDSEC
  0
SECTION
  2
CLASSES
  0
CLASS
  1
ACDBDICTIONARYWDFLT
  2
AcDbDictionaryWithDefault
  3
AutoCAD 2000
 90
        0
280
     1
281
     0
  0
CLASS
  1
ACDBPLACEHOLDER
  2
AcDbPlaceHolder
  3
AutoCAD 2000
 90
        0
280
     1
281
     0
  0
CLASS
  1
LAYOUT
  2
AcDbLayout
  3
AutoCAD 2000
 90
        0
280
     1
281
     0
  0
CLASS
  1
DICTIONARYVAR
  2
AcDbDictionaryVar
  3
"AutoCAD"
 90
        0
280
     1
281
     0
  0
CLASS
  1
LONG_TRANSACTION
  2
AcDbLongTransaction
  3
AutoCAD 2000
 90
        0
280
     1
281
     0
  0
CLASS
  1
LWPOLYLINE
  2
AcDbPolyline
  3
"AutoCAD"
 90
        0
280
     1
281
     1
  0
CLASS
  1
HATCH
  2
AcDbHatch
  3
"ACAD_SEDONA"
 90
        0
280
     1
281
     1
  0
CLASS
  1
XRECORD
  2
AcDbXrecord
  3
"<Built In>"
 90
        0
280
     0
281
     0
  0
ENDSEC
  0
SECTION
  2
TABLES
  0
TABLE
  2
VPORT
  5
13D
100
AcDbSymbolTable
 70
     1
  0
VPORT
  5
14F
100
AcDbSymbolTableRecord
100
AcDbViewportTableRecord
  2
*ACTIVE
 70
     0
 10
0.0
 20
0.0
 11
1.0
 21
1.0
 12
-9.038242400651654
 22
20.12999979787793
 13
0.0
 23
0.0
 14
1.0
 24
1.0
 15
0.0
 25
0.0
 16
0.0
 26
0.0
 36
1.0
 17
23.09603071721725
 27
-10.27010416511325
 37
-10.44050274849355
 40
19.71935555059607
 41
1.457627118644067
 42
50.0
 43
10.55307667737539
 44
10.55307667737539
 50
0.0
 51
0.0
 71
     0
 72
   100
 73
     1
 74
     1
 75
     0
 76
     0
 77
     0
 78
     0
  0
ENDTAB
  0
TABLE
  2
LTYPE
  5
139
100
AcDbSymbolTable
 70
     1
  0
LTYPE
  5
13A
100
AcDbSymbolTableRecord
100
AcDbLinetypeTableRecord
  2
BYBLOCK
 70
     0
  3

 72
    65
 73
     0
 40
0.0
  0
LTYPE
  5
6
100
AcDbSymbolTableRecord
100
AcDbLinetypeTableRecord
  2
BYLAYER
 70
     0
  3

 72
    65
 73
     0
 40
0.0
  0
LTYPE
  5
5
100
AcDbSymbolTableRecord
100
AcDbLinetypeTableRecord
  2
CONTINUOUS
 70
     0
  3
Solid line
 72
    65
 73
     0
 40
0.0
  0
ENDTAB
  0
TABLE
  2
LAYER
  5
137
100
AcDbSymbolTable
 70
     5
  0
LAYER
  5
63
100
AcDbSymbolTableRecord
100
AcDbLayerTableRecord
  2
0
 70
     0
 62
     7
  6
CONTINUOUS
  0
LAYER
  5
9
100
AcDbSymbolTableRecord
100
AcDbLayerTableRecord
  2
USP-GEO
 70
     0
 62
     7
  6
CONTINUOUS
  0
LAYER
  5
E
100
AcDbSymbolTableRecord
100
AcDbLayerTableRecord
  2
USP-TXT
 70
     0
 62
     7
  6
CONTINUOUS
  0
LAYER
  5
11
102
{ACAD_XDICTIONARY
360
12
102
}
100
AcDbSymbolTableRecord
100
AcDbLayerTableRecord
  2
USP-HID
 70
     0
 62
     7
  6
CONTINUOUS
  0
LAYER
  5
4
100
AcDbSymbolTableRecord
100
AcDbLayerTableRecord
  2
USP
 70
     0
 62
     7
  6
CONTINUOUS
  0
ENDTAB
  0
TABLE
  2
STYLE
  5
138
100
AcDbSymbolTable
 70
     1
  0
STYLE
  5
F
100
AcDbSymbolTableRecord
100
AcDbTextStyleTableRecord
  2
STANDARD
 70
     0
 40
0.0
 41
1.0
 50
0.0
 71
     0
 42
0.75
  3
txt
  4

  0
ENDTAB
  0
TABLE
  2
VIEW
  5
13B
100
AcDbSymbolTable
 70
     0
  0
ENDTAB
  0
TABLE
  2
UCS
  5
13C
100
AcDbSymbolTable
 70
     0
  0
ENDTAB
  0
TABLE
  2
APPID
  5
13F
100
AcDbSymbolTable
 70
     1
  0
APPID
  5
13
100
AcDbSymbolTableRecord
100
AcDbRegAppTableRecord
  2
ACAD
 70
     0
  0
ENDTAB
  0
TABLE
  2
DIMSTYLE
  5
140
100
AcDbSymbolTable
 70
     1
  0
DIMSTYLE
105
147
100
AcDbSymbolTableRecord
100
AcDbDimStyleTableRecord
  2
STANDARD
 70
     0
  3

  4

  5

  6

  7

 40
1.0
 41
0.18
 42
0.0625
 43
0.38
 44
0.18
 45
0.0
 46
0.0
 47
0.0
 48
0.0
140
0.18
141
0.09
142
0.0
143
25.4
144
1.0
145
0.0
146
1.0
147
0.09
 71
     0
 72
     0
 73
     1
 74
     1
 75
     0
 76
     0
 77
     0
 78
     0
170
     0
171
     2
172
     0
173
     0
174
     0
175
     0
176
     0
177
     0
178
     0
270
     2
271
     4
272
     4
273
     2
274
     2
340
F
275
     0
280
     0
281
     0
282
     0
283
     1
284
     0
285
     0
286
     0
287
     3
288
     0
  0
ENDTAB
  0
TABLE
  2
BLOCK_RECORD
  5
1
100
AcDbSymbolTable
 70
     3
  0
BLOCK_RECORD
  5
2
102
{ACAD_XDICTIONARY
360
130
102
}
100
AcDbSymbolTableRecord
100
AcDbBlockTableRecord
  2
*MODEL_SPACE
  0
BLOCK_RECORD
  5
133
102
{ACAD_XDICTIONARY
360
134
102
}
100
AcDbSymbolTableRecord
100
AcDbBlockTableRecord
  2
*PAPER_SPACE
  0
BLOCK_RECORD
  5
7
100
AcDbSymbolTableRecord
100
AcDbBlockTableRecord
  2
HD212-3_S
  0
BLOCK_RECORD
  5
66
100
AcDbSymbolTableRecord
100
AcDbBlockTableRecord
  2
HD212-3_F
  0
BLOCK_RECORD
  5
D7
100
AcDbSymbolTableRecord
100
AcDbBlockTableRecord
  2
HD212-3_T
  0
ENDTAB
  0
ENDSEC
  0
SECTION
  2
BLOCKS
  0
BLOCK
  5
131
100
AcDbEntity
  8
0
100
AcDbBlockBegin
  2
*MODEL_SPACE
 70
     0
 10
0.0
 20
0.0
 30
0.0
  3
*MODEL_SPACE
  1

  0
ENDBLK
  5
132
100
AcDbEntity
  8
0
100
AcDbBlockEnd
  0
BLOCK
  5
135
100
AcDbEntity
 67
     1
  8
0
100
AcDbBlockBegin
  2
*PAPER_SPACE
 70
     0
 10
0.0
 20
0.0
 30
0.0
  3
*PAPER_SPACE
  1

  0
ENDBLK
  5
136
100
AcDbEntity
 67
     1
  8
0
100
AcDbBlockEnd
  0
BLOCK
  5
62
100
AcDbEntity
  8
0
100
AcDbBlockBegin
  2
HD212-3_S
 70
     0
 10
0.0
 20
0.0
 30
0.0
  3
HD212-3_S
  1

  0
LINE
  5
8
100
AcDbEntity
  8
USP-GEO
100
AcDbLine
 10
0.0747000000000955
 20
10.32469999999997
 30
0.0
 11
0.0747000000000266
 21
3.145963277456753
 31
0.0
  0
LINE
  5
A
100
AcDbEntity
  8
USP-GEO
100
AcDbLine
 10
0.0000000000000266
 20
3.145963277456749
 30
0.0
 11
0.0000000000000955
 21
10.32469999999997
 31
0.0
  0
CIRCLE
  5
B
100
AcDbEntity
  8
USP-GEO
100
AcDbCircle
 10
1.074973256841261
 20
7.800348615981119
 30
0.0
 40
0.082
  0
LINE
  5
C
100
AcDbEntity
  8
USP-GEO
100
AcDbLine
 10
1.449973256841206
 20
3.18469194900525
 30
0.0
 11
1.449973256841265
 21
10.32469999999993
 31
0.0
  0
TEXT
  5
D
100
AcDbEntity
  8
USP-TXT
100
AcDbText
 10
-2.342858333333309
 20
-1.603328471230008
 30
0.0
 40
0.40625
  1
HD212-3 - SIDE VIEW
 72
     1
 11
1.381100000000026
 21
-1.603328471230008
 31
0.0
100
AcDbText
  0
LINE
  5
10
100
AcDbEntity
  8
USP-HID
100
AcDbLine
 10
2.743463544568288
 20
0.0746999999999769
 30
0.0
 11
0.2434902877270595
 21
0.0747000000000009
 31
0.0
  0
LINE
  5
14
100
AcDbEntity
  8
USP-GEO
100
AcDbLine
 10
2.743463544568289
 20
-0.0000000000000226
 30
0.0
 11
0.2434902877270599
 21
0.0000000000000013
 31
0.0
  0
LINE
  5
15
100
AcDbEntity
  8
USP-GEO
100
AcDbLine
 10
0.0747000000000271
 20
3.145963277456809
 30
0.0
 11
0.0747000000000102
 21
1.457580842988748
 31
0.0
  0
LINE
  5
16
100
AcDbEntity
  8
USP-GEO
100
AcDbLine
 10
0.0000000000000253
 20
3.145963277456809
 30
0.0
 11
0.0000000000000084
 21
1.457580842988748
 31
0.0
  0
ARC
  5
17
100
AcDbEntity
  8
USP-GEO
100
AcDbCircle
 10
-2.23777325684124
 20
-0.2308015914792469
 30
0.0
 40
2.5
100
AcDbArc
 50
7.019124642892426
 51
22.33325800950935
  0
LINE
  5
18
100
AcDbEntity
  8
USP-HID
100
AcDbLine
 10
0.2622267431587613
 20
0.0746999999999987
 30
0.0
 11
0.2622267431587604
 21
-0.000000000000002
 31
0.0
  0
LINE
  5
19
100
AcDbEntity
  8
USP-HID
100
AcDbLine
 10
0.3247267431587613
 20
0.0746999999999987
 30
0.0
 11
0.3247267431587604
 21
0.0
 31
0.0
  0
LINE
  5
1A
100
AcDbEntity
  8
USP-GEO
100
AcDbLine
 10
0.2434902877270613
 20
0.0746999999999987
 30
0.0
 11
0.2434902877270604
 21
-0.000000000000002
 31
0.0
  0
LINE
  5
1B
100
AcDbEntity
  8
USP-GEO
100
AcDbLine
 10
0.0747000000000093
 20
1.457580842988751
 30
0.0
 11
0.0747000000000018
 21
0.7191812696260494
 31
0.0
  0
LINE
  5
1C
100
AcDbEntity
  8
USP-GEO
100
AcDbLine
 10
0.0
 20
0.7191812696260494
 30
0.0
 11
0.0000000000000075
 21
1.457580842988751
 31
0.0
  0
LINE
  5
1D
100
AcDbEntity
  8
USP-GEO
100
AcDbLine
 10
0.0000000000000622
 20
0.7191812696260329
 30
0.0
 11
0.0747000000000631
 21
0.7191812696260321
 31
0.0
  0
LINE
  5
1E
100
AcDbEntity
  8
USP-HID
100
AcDbLine
 10
0.074700000000008
 20
1.659353208069695
 30
0.0
 11
0.000000000000008
 21
1.659353208069696
 31
0.0
  0
LINE
  5
1F
100
AcDbEntity
  8
USP-HID
100
AcDbLine
 10
0.0747000000000124
 20
1.831353208069695
 30
0.0
 11
0.0000000000000124
 21
1.831353208069696
 31
0.0
  0
LINE
  5
20
100
AcDbEntity
  8
USP-HID
100
AcDbLine
 10
0.074700000000016
 20
1.75353496532379
 30
0.0
 11
0.000000000000016
 21
1.753534965323791
 31
0.0
  0
LINE
  5
21
100
AcDbEntity
  8
USP-HID
100
AcDbLine
 10
0.0747000000000169
 20
1.92553496532379
 30
0.0
 11
0.0000000000000169
 21
1.925534965323791
 31
0.0
  0
CIRCLE
  5
22
100
AcDbEntity
  8
USP-GEO
100
AcDbCircle
 10
1.074973256841202
 20
1.512199999999938
 30
0.0
 40
0.082
  0
ARC
  5
23
100
AcDbEntity
  8
USP-GEO
100
AcDbCircle
 10
0.0747000000000231
 20
3.392330897144282
 30
0.0
 40
0.095
100
AcDbArc
 50
269.9999999999994
 51
89.99999999999946
  0
LINE
  5
24
100
AcDbEntity
  8
USP-HID
100
AcDbLine
 10
0.0747000000000169
 20
2.217195044271427
 30
0.0
 11
0.0000000000000151
 21
2.217195044271428
 31
0.0
  0
LINE
  5
25
100
AcDbEntity
  8
USP-HID
100
AcDbLine
 10
0.0747000000000178
 20
2.389195044271427
 30
0.0
 11
0.000000000000016
 21
2.389195044271428
 31
0.0
  0
LINE
  5
26
100
AcDbEntity
  8
USP-HID
100
AcDbLine
 10
0.0747000000000231
 20
2.363700000000005
 30
0.0
 11
0.0000000000000213
 21
2.363700000000005
 31
0.0
  0
LINE
  5
27
100
AcDbEntity
  8
USP-HID
100
AcDbLine
 10
0.074700000000024
 20
2.535700000000005
 30
0.0
 11
0.0000000000000222
 21
2.535700000000006
 31
0.0
  0
LINE
  5
28
100
AcDbEntity
  8
USP-HID
100
AcDbLine
 10
0.0747000000000258
 20
2.988699999999972
 30
0.0
 11
0.000000000000024
 21
2.988699999999973
 31
0.0
  0
LINE
  5
29
100
AcDbEntity
  8
USP-HID
100
AcDbLine
 10
0.0747000000000093
 20
3.297330897144283
 30
0.0
 11
0.0000000000000377
 21
3.297330897144284
 31
0.0
  0
LINE
  5
2A
100
AcDbEntity
  8
USP-HID
100
AcDbLine
 10
0.0747000000000266
 20
3.160699999999973
 30
0.0
 11
0.0000000000000284
 21
3.160699999999974
 31
0.0
  0
CIRCLE
  5
2B
100
AcDbEntity
  8
USP-HID
100
AcDbCircle
 10
1.074973256841213
 20
3.121037232443585
 30
0.0
 40
0.082
  0
CIRCLE
  5
2C
100
AcDbEntity
  8
USP-GEO
100
AcDbCircle
 10
1.07497325684122
 20
3.308537232443525
 30
0.0
 40
0.082
  0
LINE
  5
2D
100
AcDbEntity
  8
USP-HID
100
AcDbLine
 10
0.0000000000000249
 20
3.487330897144284
 30
0.0
 11
0.0747000000000244
 21
3.487330897144283
 31
0.0
  0
LINE
  5
2E
100
AcDbEntity
  8
USP-HID
100
AcDbLine
 10
0.0000000000000622
 20
3.4662600807905
 30
0.0
 11
0.0746999999999778
 21
3.466260080790499
 31
0.0
  0
LINE
  5
2F
100
AcDbEntity
  8
USP-HID
100
AcDbLine
 10
0.0000000000000231
 20
3.656260080790501
 30
0.0
 11
0.0747000000000231
 21
3.6562600807905
 31
0.0
  0
ARC
  5
30
100
AcDbEntity
  8
USP-HID
100
AcDbCircle
 10
0.0747000000000213
 20
3.561260080790499
 30
0.0
 40
0.095
100
AcDbArc
 50
297.2395087343969
 51
89.99999999999944
  0
ARC
  5
31
100
AcDbEntity
  8
USP-GEO
100
AcDbCircle
 10
0.0747000000000213
 20
3.561260080790499
 30
0.0
 40
0.095
100
AcDbArc
 50
269.9999999999994
 51
297.2395087343969
  0
LINE
  5
32
100
AcDbEntity
  8
USP-HID
100
AcDbLine
 10
0.0747000000000293
 20
3.863699999999969
 30
0.0
 11
0.0000000000000311
 21
3.863699999999969
 31
0.0
  0
LINE
  5
33
100
AcDbEntity
  8
USP-HID
100
AcDbLine
 10
0.074700000000032
 20
4.03569999999997
 30
0.0
 11
0.0000000000000302
 21
4.03569999999997
 31
0.0
  0
LINE
  5
34
100
AcDbEntity
  8
USP-HID
100
AcDbLine
 10
0.0747000000000373
 20
3.988700000000033
 30
0.0
 11
0.0000000000000373
 21
3.988700000000033
 31
0.0
  0
LINE
  5
35
100
AcDbEntity
  8
USP-HID
100
AcDbLine
 10
0.0747000000000382
 20
4.160700000000034
 30
0.0
 11
0.0000000000000382
 21
4.160700000000034
 31
0.0
  0
LINE
  5
36
100
AcDbEntity
  8
USP-HID
100
AcDbLine
 10
0.0747000000000435
 20
4.863699999999969
 30
0.0
 11
0.0000000000000435
 21
4.863699999999969
 31
0.0
  0
CIRCLE
  5
37
100
AcDbEntity
  8
USP-GEO
100
AcDbCircle
 10
1.074973256841227
 20
4.107901308014577
 30
0.0
 40
0.082
  0
CIRCLE
  5
38
100
AcDbEntity
  8
USP-HID
100
AcDbCircle
 10
1.07497325684122
 20
3.920401308014631
 30
0.0
 40
0.082
  0
CIRCLE
  5
39
100
AcDbEntity
  8
USP-GEO
100
AcDbCircle
 10
0.5122000000000586
 20
5.829269385878509
 30
0.0
 40
0.1535
  0
LINE
  5
3A
100
AcDbEntity
  8
USP-HID
100
AcDbLine
 10
0.074700000000048
 20
5.03569999999997
 30
0.0
 11
0.0000000000000444
 21
5.03569999999997
 31
0.0
  0
LINE
  5
3B
100
AcDbEntity
  8
USP-HID
100
AcDbLine
 10
0.0747000000000462
 20
4.988700000000033
 30
0.0
 11
0.0000000000000444
 21
4.988700000000033
 31
0.0
  0
LINE
  5
3C
100
AcDbEntity
  8
USP-HID
100
AcDbLine
 10
0.0747000000000489
 20
5.160700000000034
 30
0.0
 11
0.0000000000000488
 21
5.160700000000034
 31
0.0
  0
LINE
  5
3D
100
AcDbEntity
  8
USP-HID
100
AcDbLine
 10
0.0747000000000577
 20
5.863699999999969
 30
0.0
 11
0.0000000000000542
 21
5.863699999999969
 31
0.0
  0
LINE
  5
3E
100
AcDbEntity
  8
USP-HID
100
AcDbLine
 10
0.0747000000000586
 20
5.988700000000033
 30
0.0
 11
0.0000000000000568
 21
5.988700000000033
 31
0.0
  0
LINE
  5
3F
100
AcDbEntity
  8
USP-HID
100
AcDbLine
 10
0.0747000000000568
 20
6.03569999999997
 30
0.0
 11
0.0000000000000568
 21
6.03569999999997
 31
0.0
  0
LINE
  5
40
100
AcDbEntity
  8
USP-HID
100
AcDbLine
 10
0.0747000000000595
 20
6.160700000000034
 30
0.0
 11
0.0000000000000577
 21
6.160700000000034
 31
0.0
  0
LINE
  5
41
100
AcDbEntity
  8
USP-HID
100
AcDbLine
 10
0.0747000000000648
 20
6.863699999999969
 30
0.0
 11
0.0000000000000613
 21
6.863699999999969
 31
0.0
  0
LINE
  5
42
100
AcDbEntity
  8
USP-HID
100
AcDbLine
 10
0.0747000000000639
 20
7.03569999999997
 30
0.0
 11
0.0000000000000622
 21
7.03569999999997
 31
0.0
  0
LINE
  5
43
100
AcDbEntity
  8
USP-HID
100
AcDbLine
 10
0.0747000000000657
 20
6.988700000000033
 30
0.0
 11
0.0000000000000657
 21
6.988700000000033
 31
0.0
  0
LINE
  5
44
100
AcDbEntity
  8
USP-HID
100
AcDbLine
 10
0.0747000000000666
 20
7.160700000000034
 30
0.0
 11
0.0000000000000666
 21
7.160700000000034
 31
0.0
  0
LINE
  5
45
100
AcDbEntity
  8
USP-HID
100
AcDbLine
 10
0.0747000000000737
 20
7.863699999999969
 30
0.0
 11
0.0000000000000737
 21
7.863699999999969
 31
0.0
  0
CIRCLE
  5
46
100
AcDbEntity
  8
USP-HID
100
AcDbCircle
 10
1.074973256841246
 20
6.740921005441647
 30
0.0
 40
0.082
  0
CIRCLE
  5
47
100
AcDbEntity
  8
USP-GEO
100
AcDbCircle
 10
1.074973256841253
 20
6.92842100544159
 30
0.0
 40
0.082
  0
CIRCLE
  5
48
100
AcDbEntity
  8
USP-HID
100
AcDbCircle
 10
1.074973256841257
 20
7.612848615981176
 30
0.0
 40
0.082
  0
ARC
  5
49
100
AcDbEntity
  8
USP-GEO
100
AcDbCircle
 10
3.949673256841222
 20
3.14596327745677
 30
0.0
 40
2.5
100
AcDbArc
 50
179.1123687241144
 51
222.4815666460713
  0
ARC
  5
4A
100
AcDbEntity
  8
USP-GEO
100
AcDbCircle
 10
0.2621999999999911
 20
-0.2308015914792718
 30
0.0
 40
2.5
100
AcDbArc
 50
7.019124642892463
 51
42.48156664607236
  0
LINE
  5
4B
100
AcDbEntity
  8
USP-HID
100
AcDbLine
 10
1.608713371579401
 20
-0.000000000000014
 30
0.0
 11
1.608713371579402
 21
0.074699999999986
 31
0.0
  0
LINE
  5
4C
100
AcDbEntity
  8
USP-HID
100
AcDbLine
 10
1.915713371579402
 20
-0.0000000000000171
 30
0.0
 11
1.915713371579403
 21
0.0746999999999829
 31
0.0
  0
LINE
  5
4D
100
AcDbEntity
  8
USP-HID
100
AcDbLine
 10
2.334920779386418
 20
0.0746999999999809
 30
0.0
 11
2.334920779386417
 21
-0.0000000000000198
 31
0.0
  0
LINE
  5
4E
100
AcDbEntity
  8
USP-HID
100
AcDbLine
 10
2.462199999999976
 20
0.0746999999999774
 30
0.0
 11
2.462199999999975
 21
-0.0000000000000233
 31
0.0
  0
LINE
  5
4F
100
AcDbEntity
  8
USP-GEO
100
AcDbLine
 10
2.762199999999991
 20
-0.0000000000000218
 30
0.0
 11
2.743463544568289
 21
-0.0000000000000218
 31
0.0
  0
LINE
  5
50
100
AcDbEntity
  8
USP-GEO
100
AcDbLine
 10
2.762199999999991
 20
0.0746999999999782
 30
0.0
 11
2.743463544568289
 21
0.0746999999999782
 31
0.0
  0
LINE
  5
51
100
AcDbEntity
  8
USP-HID
100
AcDbLine
 10
2.589479220613566
 20
0.0746999999999774
 30
0.0
 11
2.589479220613565
 21
-0.0000000000000233
 31
0.0
  0
LINE
  5
52
100
AcDbEntity
  8
USP-HID
100
AcDbLine
 10
2.699700000000047
 20
0.0746999999999774
 30
0.0
 11
2.699700000000046
 21
-0.0000000000000253
 31
0.0
  0
LINE
  5
53
100
AcDbEntity
  8
USP-GEO
100
AcDbLine
 10
2.74346354456829
 20
0.0746999999999774
 30
0.0
 11
2.743463544568289
 21
-0.0000000000000233
 31
0.0
  0
LINE
  5
54
100
AcDbEntity
  8
USP-GEO
100
AcDbLine
 10
2.762199999999991
 20
0.0746999999999774
 30
0.0
 11
2.76219999999999
 21
-0.0000000000000233
 31
0.0
  0
LINE
  5
55
100
AcDbEntity
  8
USP-GEO
100
AcDbLine
 10
1.449973256841263
 20
10.32469999999992
 30
0.0
 11
0.0747000000000977
 21
10.32469999999995
 31
0.0
  0
LINE
  5
56
100
AcDbEntity
  8
USP-HID
100
AcDbLine
 10
0.0747000000000764
 20
8.03569999999997
 30
0.0
 11
0.0000000000000746
 21
8.03569999999997
 31
0.0
  0
LINE
  5
57
100
AcDbEntity
  8
USP-HID
100
AcDbLine
 10
0.0747000000000711
 20
7.988700000000033
 30
0.0
 11
0.0000000000000711
 21
7.988700000000033
 31
0.0
  0
LINE
  5
58
100
AcDbEntity
  8
USP-HID
100
AcDbLine
 10
0.0747000000000737
 20
8.160700000000034
 30
0.0
 11
0.0000000000000737
 21
8.160700000000034
 31
0.0
  0
LINE
  5
59
100
AcDbEntity
  8
USP-HID
100
AcDbLine
 10
0.0747000000000862
 20
8.863699999999969
 30
0.0
 11
0.0000000000000826
 21
8.863699999999969
 31
0.0
  0
LINE
  5
5A
100
AcDbEntity
  8
USP-HID
100
AcDbLine
 10
0.0747000000000906
 20
9.03569999999997
 30
0.0
 11
0.0000000000000853
 21
9.03569999999997
 31
0.0
  0
LINE
  5
5B
100
AcDbEntity
  8
USP-HID
100
AcDbLine
 10
0.0747000000000835
 20
8.988700000000033
 30
0.0
 11
0.0000000000000835
 21
8.988700000000033
 31
0.0
  0
LINE
  5
5C
100
AcDbEntity
  8
USP-HID
100
AcDbLine
 10
0.0747000000000844
 20
9.160700000000034
 30
0.0
 11
0.0000000000000844
 21
9.160700000000034
 31
0.0
  0
LINE
  5
5D
100
AcDbEntity
  8
USP-HID
100
AcDbLine
 10
0.0747000000000933
 20
9.863699999999969
 30
0.0
 11
0.0000000000000897
 21
9.863699999999969
 31
0.0
  0
LINE
  5
5E
100
AcDbEntity
  8
USP-HID
100
AcDbLine
 10
0.0747000000000959
 20
10.03569999999996
 30
0.0
 11
0.0000000000000924
 21
10.03569999999996
 31
0.0
  0
LINE
  5
5F
100
AcDbEntity
  8
USP-HID
100
AcDbLine
 10
0.0747000000000924
 20
9.988700000000026
 30
0.0
 11
0.0000000000000924
 21
9.988700000000026
 31
0.0
  0
LINE
  5
60
100
AcDbEntity
  8
USP-HID
100
AcDbLine
 10
0.0747000000000915
 20
10.16070000000002
 30
0.0
 11
0.0000000000000933
 21
10.16070000000002
 31
0.0
  0
LINE
  5
61
100
AcDbEntity
  8
USP-GEO
100
AcDbLine
 10
0.0000000000000941
 20
10.32469999999997
 30
0.0
 11
0.0747000000000977
 21
10.32469999999997
 31
0.0
  0
ENDBLK
  5
64
100
AcDbEntity
  8
0
100
AcDbBlockEnd
  0
BLOCK
  5
D4
100
AcDbEntity
  8
0
100
AcDbBlockBegin
  2
HD212-3_F
 70
     0
 10
0.0
 20
0.0
 30
0.0
  3
HD212-3_F
  1

  0
CIRCLE
  5
67
100
AcDbEntity
  8
USP-GEO
100
AcDbCircle
 10
6.461900000000055
 20
7.949699999999996
 30
0.0
 40
0.086
  0
LINE
  5
68
100
AcDbEntity
  8
USP-GEO
100
AcDbLine
 10
7.024399999999996
 20
10.32469999999999
 30
0.0
 11
7.024399999999964
 21
3.145963277456775
 31
0.0
  0
LINE
  5
69
100
AcDbEntity
  8
USP-GEO
100
AcDbLine
 10
5.899399999999978
 20
3.184691949005273
 30
0.0
 11
5.899399999999982
 21
10.32469999999995
 31
0.0
  0
LINE
  5
6A
100
AcDbEntity
  8
USP-GEO
100
AcDbLine
 10
0.0
 20
3.145963277456836
 30
0.0
 11
-0.0000000000000231
 21
10.32470000000005
 31
0.0
  0
LINE
  5
6B
100
AcDbEntity
  8
USP-GEO
100
AcDbLine
 10
1.124999999999984
 20
10.32470000000001
 30
0.0
 11
1.124999999999978
 21
3.184691949005273
 31
0.0
  0
LINE
  5
6C
100
AcDbEntity
  8
USP-GEO
100
AcDbLine
 10
5.824699999999978
 20
3.184691949005273
 30
0.0
 11
5.824699999999982
 21
10.32469999999996
 31
0.0
  0
LINE
  5
6D
100
AcDbEntity
  8
USP-GEO
100
AcDbLine
 10
1.199699999999978
 20
3.184691949005273
 30
0.0
 11
1.199699999999984
 21
10.32470000000001
 31
0.0
  0
TEXT
  5
6E
100
AcDbEntity
  8
USP-TXT
100
AcDbText
 10
-0.4825916666666919
 20
-1.603328471229975
 30
0.0
 40
0.40625
  1
HD212-3 - FRONT VIEW
 72
     1
 11
3.512199999999975
 21
-1.603328471229975
 31
0.0
100
AcDbText
  0
LINE
  5
6F
100
AcDbEntity
  8
USP-GEO
100
AcDbLine
 10
2.137199999999973
 20
-0.0000000000000027
 30
0.0
 11
4.887200000000003
 21
-0.0000000000000044
 31
0.0
  0
LINE
  5
70
100
AcDbEntity
  8
USP-GEO
100
AcDbLine
 10
2.137199999999973
 20
0.0747000000000009
 30
0.0
 11
4.887200000000001
 21
0.0746999999999991
 31
0.0
  0
ARC
  5
71
100
AcDbEntity
  8
USP-GEO
100
AcDbCircle
 10
2.499999999999943
 20
3.145963277456836
 30
0.0
 40
2.5
100
AcDbArc
 50
179.9999999999999
 51
222.4815666460718
  0
LINE
  5
72
100
AcDbEntity
  8
USP-GEO
100
AcDbLine
 10
1.124999999999976
 20
3.184691949005273
 30
0.0
 11
1.124999999999975
 21
1.457580842988793
 31
0.0
  0
LINE
  5
73
100
AcDbEntity
  8
USP-GEO
100
AcDbLine
 10
1.199699999999975
 20
1.457580842988793
 30
0.0
 11
1.199699999999976
 21
3.184691949005273
 31
0.0
  0
LINE
  5
74
100
AcDbEntity
  8
USP-GEO
100
AcDbLine
 10
1.637199999999918
 20
0.0000000000000002
 30
0.0
 11
2.137199999999975
 21
0.0
 31
0.0
  0
LINE
  5
75
100
AcDbEntity
  8
USP-GEO
100
AcDbLine
 10
2.137199999999975
 20
0.0747
 30
0.0
 11
1.637199999999918
 21
0.0747000000000002
 31
0.0
  0
CIRCLE
  5
76
100
AcDbEntity
  8
USP-GEO
100
AcDbCircle
 10
0.7499999999999148
 20
1.839534965323814
 30
0.0
 40
0.086
  0
ARC
  5
77
100
AcDbEntity
  8
USP-GEO
100
AcDbCircle
 10
-1.187473256841258
 20
-0.2308015914792421
 30
0.0
 40
2.5
100
AcDbArc
 50
22.33325800948277
 51
42.48156664607294
  0
LINE
  5
78
100
AcDbEntity
  8
USP-GEO
100
AcDbLine
 10
1.124999999999976
 20
1.457580842988794
 30
0.0
 11
1.124999999999975
 21
0.0746999999999984
 31
0.0
  0
LINE
  5
79
100
AcDbEntity
  8
USP-GEO
100
AcDbLine
 10
1.199699999999976
 20
1.457580842988794
 30
0.0
 11
1.199699999999975
 21
0.0746999999999984
 31
0.0
  0
LINE
  5
7A
100
AcDbEntity
  8
USP-GEO
100
AcDbLine
 10
1.199699999999975
 20
0.0000000000000007
 30
0.0
 11
1.505201591479245
 21
0.0000000000000002
 31
0.0
  0
LINE
  5
7B
100
AcDbEntity
  8
USP-GEO
100
AcDbLine
 10
1.199699999999975
 20
0.0747000000000007
 30
0.0
 11
1.505201591479245
 21
0.0747000000000002
 31
0.0
  0
LINE
  5
7C
100
AcDbEntity
  8
USP-GEO
100
AcDbLine
 10
1.124999999999975
 20
0.0
 30
0.0
 11
1.199699999999975
 21
0.0
 31
0.0
  0
LINE
  5
7D
100
AcDbEntity
  8
USP-GEO
100
AcDbLine
 10
1.124999999999975
 20
0.0747
 30
0.0
 11
1.199699999999975
 21
0.0747
 31
0.0
  0
LINE
  5
7E
100
AcDbEntity
  8
USP-GEO
100
AcDbLine
 10
1.124999999999975
 20
0.0747
 30
0.0
 11
1.124999999999975
 21
0.0000000000000007
 31
0.0
  0
LINE
  5
7F
100
AcDbEntity
  8
USP-GEO
100
AcDbLine
 10
1.199699999999975
 20
0.0747
 30
0.0
 11
1.199699999999975
 21
0.0000000000000007
 31
0.0
  0
LINE
  5
80
100
AcDbEntity
  8
USP-GEO
100
AcDbLine
 10
1.50520159147933
 20
0.0
 30
0.0
 11
1.637199999999946
 21
0.0
 31
0.0
  0
LINE
  5
81
100
AcDbEntity
  8
USP-GEO
100
AcDbLine
 10
1.637199999999946
 20
0.0747
 30
0.0
 11
1.505201591479332
 21
0.0747
 31
0.0
  0
LINE
  5
82
100
AcDbEntity
  8
USP-GEO
100
AcDbLine
 10
1.637199999999946
 20
0.0746999999999964
 30
0.0
 11
1.637199999999946
 21
-0.0000000000000029
 31
0.0
  0
LINE
  5
83
100
AcDbEntity
  8
USP-HID
100
AcDbLine
 10
1.199699999999978
 20
0.7191812696247589
 30
0.0
 11
1.124999999999978
 21
0.7191812696247589
 31
0.0
  0
LINE
  5
84
100
AcDbEntity
  8
USP-HID
100
AcDbLine
 10
1.199699999999976
 20
1.430200000000014
 30
0.0
 11
1.124999999999976
 21
1.430200000000014
 31
0.0
  0
LINE
  5
85
100
AcDbEntity
  8
USP-HID
100
AcDbLine
 10
1.199699999999976
 20
1.594200000000014
 30
0.0
 11
1.124999999999978
 21
1.594200000000014
 31
0.0
  0
LINE
  5
86
100
AcDbEntity
  8
USP-GEO
100
AcDbLine
 10
2.137199999999973
 20
0.0746999999999964
 30
0.0
 11
2.137199999999973
 21
-0.0000000000000029
 31
0.0
  0
LINE
  5
87
100
AcDbEntity
  8
USP-HID
100
AcDbLine
 10
3.012199999999946
 20
0.0747
 30
0.0
 11
3.012199999999946
 21
-0.0000000000000007
 31
0.0
  0
LINE
  5
88
100
AcDbEntity
  8
USP-HID
100
AcDbLine
 10
2.884920779386332
 20
0.0747
 30
0.0
 11
2.884920779386332
 21
-0.0000000000000007
 31
0.0
  0
LINE
  5
89
100
AcDbEntity
  8
USP-HID
100
AcDbLine
 10
3.139479220613507
 20
0.0747
 30
0.0
 11
3.139479220613507
 21
-0.0000000000000007
 31
0.0
  0
LINE
  5
8A
100
AcDbEntity
  8
USP-HID
100
AcDbLine
 10
3.358699999999977
 20
0.0747000000000071
 30
0.0
 11
3.358699999999977
 21
0.0000000000000071
 31
0.0
  0
LINE
  5
8B
100
AcDbEntity
  8
USP-HID
100
AcDbLine
 10
3.665699999999976
 20
0.0747000000000107
 30
0.0
 11
3.665699999999976
 21
0.0000000000000071
 31
0.0
  0
LINE
  5
8C
100
AcDbEntity
  8
USP-HID
100
AcDbLine
 10
3.884920779386332
 20
0.0747
 30
0.0
 11
3.884920779386332
 21
-0.0000000000000007
 31
0.0
  0
LINE
  5
8D
100
AcDbEntity
  8
USP-HID
100
AcDbLine
 10
4.012199999999946
 20
0.0747
 30
0.0
 11
4.012199999999946
 21
-0.0000000000000007
 31
0.0
  0
LINE
  5
8E
100
AcDbEntity
  8
USP-HID
100
AcDbLine
 10
4.139479220613507
 20
0.0747
 30
0.0
 11
4.139479220613507
 21
-0.0000000000000007
 31
0.0
  0
CIRCLE
  5
8F
100
AcDbEntity
  8
USP-GEO
100
AcDbCircle
 10
0.7499999999999148
 20
4.074700000000056
 30
0.0
 40
0.086
  0
CIRCLE
  5
90
100
AcDbEntity
  8
USP-GEO
100
AcDbCircle
 10
0.5624999999999148
 20
2.449700000000028
 30
0.0
 40
0.086
  0
CIRCLE
  5
91
100
AcDbEntity
  8
USP-GEO
100
AcDbCircle
 10
0.3749999999999147
 20
3.074700000000056
 30
0.0
 40
0.086
  0
LINE
  5
92
100
AcDbEntity
  8
USP-HID
100
AcDbLine
 10
1.199699999999978
 20
3.039037232443608
 30
0.0
 11
1.124999999999978
 21
3.039037232443608
 31
0.0
  0
LINE
  5
93
100
AcDbEntity
  8
USP-HID
100
AcDbLine
 10
1.199699999999978
 20
3.203037232443608
 30
0.0
 11
1.124999999999978
 21
3.203037232443608
 31
0.0
  0
LINE
  5
94
100
AcDbEntity
  8
USP-HID
100
AcDbLine
 10
1.199699999999978
 20
3.466260080790522
 30
0.0
 11
1.124999999999978
 21
3.466260080790522
 31
0.0
  0
LINE
  5
95
100
AcDbEntity
  8
USP-HID
100
AcDbLine
 10
1.199699999999978
 20
3.65626008079052
 30
0.0
 11
1.124999999999978
 21
3.65626008079052
 31
0.0
  0
ARC
  5
96
100
AcDbEntity
  8
USP-GEO
100
AcDbCircle
 10
1.124999999999971
 20
3.561260080790525
 30
0.0
 40
0.095
100
AcDbArc
 50
90.0
 51
270.0
  0
LINE
  5
97
100
AcDbEntity
  8
USP-HID
100
AcDbLine
 10
1.199699999999978
 20
3.838401308014657
 30
0.0
 11
1.124999999999978
 21
3.838401308014657
 31
0.0
  0
LINE
  5
98
100
AcDbEntity
  8
USP-HID
100
AcDbLine
 10
1.199699999999978
 20
4.002401308014657
 30
0.0
 11
1.124999999999978
 21
4.002401308014657
 31
0.0
  0
CIRCLE
  5
99
100
AcDbEntity
  8
USP-GEO
100
AcDbCircle
 10
0.7499999999999166
 20
7.074700000000053
 30
0.0
 40
0.086
  0
CIRCLE
  5
9A
100
AcDbEntity
  8
USP-GEO
100
AcDbCircle
 10
0.5624999999999166
 20
5.07470000000006
 30
0.0
 40
0.086
  0
CIRCLE
  5
9B
100
AcDbEntity
  8
USP-GEO
100
AcDbCircle
 10
0.3749999999999183
 20
6.074700000000053
 30
0.0
 40
0.086
  0
LINE
  5
9C
100
AcDbEntity
  8
USP-HID
100
AcDbLine
 10
1.199699999999976
 20
5.675769385878536
 30
0.0
 11
1.124999999999978
 21
5.675769385878536
 31
0.0
  0
LINE
  5
9D
100
AcDbEntity
  8
USP-HID
100
AcDbLine
 10
1.199699999999978
 20
5.982769385878536
 30
0.0
 11
1.124999999999978
 21
5.982769385878536
 31
0.0
  0
LINE
  5
9E
100
AcDbEntity
  8
USP-HID
100
AcDbLine
 10
1.19969999999998
 20
6.658921005441673
 30
0.0
 11
1.12499999999998
 21
6.658921005441673
 31
0.0
  0
LINE
  5
9F
100
AcDbEntity
  8
USP-HID
100
AcDbLine
 10
1.19969999999998
 20
6.822921005441674
 30
0.0
 11
1.12499999999998
 21
6.822921005441674
 31
0.0
  0
LINE
  5
A0
100
AcDbEntity
  8
USP-HID
100
AcDbLine
 10
1.199699999999978
 20
7.530848615981202
 30
0.0
 11
1.12499999999998
 21
7.530848615981202
 31
0.0
  0
LINE
  5
A1
100
AcDbEntity
  8
USP-HID
100
AcDbLine
 10
1.199699999999982
 20
7.694848615981204
 30
0.0
 11
1.124999999999982
 21
7.694848615981204
 31
0.0
  0
ARC
  5
A2
100
AcDbEntity
  8
USP-GEO
100
AcDbCircle
 10
4.524400000000021
 20
3.145963277456832
 30
0.0
 40
2.5
100
AcDbArc
 50
317.518433353927
 51
359.9999999999999
  0
LINE
  5
A3
100
AcDbEntity
  8
USP-GEO
100
AcDbLine
 10
5.899399999999975
 20
1.457580842988787
 30
0.0
 11
5.899399999999976
 21
3.184691949005273
 31
0.0
  0
LINE
  5
A4
100
AcDbEntity
  8
USP-GEO
100
AcDbLine
 10
5.824699999999976
 20
3.184691949005271
 30
0.0
 11
5.824699999999975
 21
1.457580842988787
 31
0.0
  0
ARC
  5
A5
100
AcDbEntity
  8
USP-GEO
100
AcDbCircle
 10
8.211873256841222
 20
-0.2308015914792492
 30
0.0
 40
2.5
100
AcDbArc
 50
137.5184333539282
 51
157.6667419904896
  0
LINE
  5
A6
100
AcDbEntity
  8
USP-GEO
100
AcDbLine
 10
5.899399999999976
 20
0.074699999999998
 30
0.0
 11
5.899399999999978
 21
1.457580842988791
 31
0.0
  0
LINE
  5
A7
100
AcDbEntity
  8
USP-GEO
100
AcDbLine
 10
5.824699999999973
 20
0.074699999999998
 30
0.0
 11
5.824699999999975
 21
1.457580842988791
 31
0.0
  0
LINE
  5
A8
100
AcDbEntity
  8
USP-GEO
100
AcDbLine
 10
5.387199999999975
 20
-0.0000000000000036
 30
0.0
 11
5.519198408520704
 21
-0.0000000000000036
 31
0.0
  0
LINE
  5
A9
100
AcDbEntity
  8
USP-GEO
100
AcDbLine
 10
5.387199999999975
 20
0.0746999999999964
 30
0.0
 11
5.519198408520704
 21
0.0746999999999964
 31
0.0
  0
LINE
  5
AA
100
AcDbEntity
  8
USP-GEO
100
AcDbLine
 10
4.887200000000003
 20
-0.0000000000000036
 30
0.0
 11
5.387200000000031
 21
-0.0000000000000038
 31
0.0
  0
LINE
  5
AB
100
AcDbEntity
  8
USP-GEO
100
AcDbLine
 10
4.887200000000003
 20
0.0746999999999964
 30
0.0
 11
5.38720000000003
 21
0.0746999999999962
 31
0.0
  0
LINE
  5
AC
100
AcDbEntity
  8
USP-GEO
100
AcDbLine
 10
4.887200000000003
 20
0.0746999999999964
 30
0.0
 11
4.887200000000003
 21
-0.0000000000000062
 31
0.0
  0
LINE
  5
AD
100
AcDbEntity
  8
USP-GEO
100
AcDbLine
 10
5.387199999999975
 20
0.0746999999999964
 30
0.0
 11
5.387199999999975
 21
-0.0000000000000042
 31
0.0
  0
LINE
  5
AE
100
AcDbEntity
  8
USP-GEO
100
AcDbLine
 10
5.519198408520702
 20
0.0000000000000002
 30
0.0
 11
5.824699999999975
 21
0.0000000000000002
 31
0.0
  0
LINE
  5
AF
100
AcDbEntity
  8
USP-GEO
100
AcDbLine
 10
5.519198408520702
 20
0.0747000000000002
 30
0.0
 11
5.824699999999975
 21
0.0747000000000002
 31
0.0
  0
LINE
  5
B0
100
AcDbEntity
  8
USP-GEO
100
AcDbLine
 10
5.899399999999978
 20
0.0746999999999964
 30
0.0
 11
5.899399999999978
 21
-0.0000000000000042
 31
0.0
  0
LINE
  5
B1
100
AcDbEntity
  8
USP-GEO
100
AcDbLine
 10
5.899399999999978
 20
0.0746999999999964
 30
0.0
 11
5.824699999999976
 21
0.0746999999999964
 31
0.0
  0
LINE
  5
B2
100
AcDbEntity
  8
USP-GEO
100
AcDbLine
 10
5.824699999999976
 20
-0.0000000000000036
 30
0.0
 11
5.899399999999978
 21
-0.0000000000000036
 31
0.0
  0
LINE
  5
B3
100
AcDbEntity
  8
USP-GEO
100
AcDbLine
 10
5.824699999999975
 20
0.0746999999999964
 30
0.0
 11
5.824699999999975
 21
-0.0000000000000042
 31
0.0
  0
LINE
  5
B4
100
AcDbEntity
  8
USP-HID
100
AcDbLine
 10
5.824699999999978
 20
0.7191812696260556
 30
0.0
 11
5.89939999999998
 21
0.7191812696260556
 31
0.0
  0
LINE
  5
B5
100
AcDbEntity
  8
USP-HID
100
AcDbLine
 10
5.824699999999978
 20
1.430199999999957
 30
0.0
 11
5.899399999999978
 21
1.430199999999957
 31
0.0
  0
LINE
  5
B6
100
AcDbEntity
  8
USP-HID
100
AcDbLine
 10
5.824699999999978
 20
1.594199999999957
 30
0.0
 11
5.899399999999978
 21
1.594199999999957
 31
0.0
  0
CIRCLE
  5
B7
100
AcDbEntity
  8
USP-GEO
100
AcDbCircle
 10
6.274400000000049
 20
1.745353208069719
 30
0.0
 40
0.086
  0
CIRCLE
  5
B8
100
AcDbEntity
  8
USP-GEO
100
AcDbCircle
 10
6.461900000000053
 20
4.949699999999989
 30
0.0
 40
0.086
  0
ARC
  5
B9
100
AcDbEntity
  8
USP-GEO
100
AcDbCircle
 10
5.899399999999994
 20
3.392330897144304
 30
0.0
 40
0.095
100
AcDbArc
 50
270.0
 51
90.0
  0
LINE
  5
BA
100
AcDbEntity
  8
USP-HID
100
AcDbLine
 10
5.824699999999976
 20
3.297330897144309
 30
0.0
 11
5.89939999999998
 21
3.297330897144309
 31
0.0
  0
LINE
  5
BB
100
AcDbEntity
  8
USP-HID
100
AcDbLine
 10
5.824699999999975
 20
3.390537232443548
 30
0.0
 11
5.89939999999998
 21
3.390537232443548
 31
0.0
  0
LINE
  5
BC
100
AcDbEntity
  8
USP-HID
100
AcDbLine
 10
5.824699999999976
 20
3.226537232443548
 30
0.0
 11
5.899399999999978
 21
3.226537232443548
 31
0.0
  0
LINE
  5
BD
100
AcDbEntity
  8
USP-HID
100
AcDbLine
 10
5.824699999999978
 20
3.487330897144307
 30
0.0
 11
5.89939999999998
 21
3.487330897144307
 31
0.0
  0
LINE
  5
BE
100
AcDbEntity
  8
USP-HID
100
AcDbLine
 10
5.824699999999978
 20
4.025901308014597
 30
0.0
 11
5.899399999999978
 21
4.025901308014597
 31
0.0
  0
LINE
  5
BF
100
AcDbEntity
  8
USP-HID
100
AcDbLine
 10
5.824699999999978
 20
4.189901308014596
 30
0.0
 11
5.899399999999982
 21
4.189901308014596
 31
0.0
  0
CIRCLE
  5
C0
100
AcDbEntity
  8
USP-GEO
100
AcDbCircle
 10
6.461900000000049
 20
2.303195044271451
 30
0.0
 40
0.086
  0
CIRCLE
  5
C1
100
AcDbEntity
  8
USP-GEO
100
AcDbCircle
 10
6.649400000000053
 20
3.074699999999996
 30
0.0
 40
0.086
  0
CIRCLE
  5
C2
100
AcDbEntity
  8
USP-GEO
100
AcDbCircle
 10
6.274400000000051
 20
3.949699999999996
 30
0.0
 40
0.086
  0
LINE
  5
C3
100
AcDbEntity
  8
USP-HID
100
AcDbLine
 10
5.824699999999982
 20
5.982769385878529
 30
0.0
 11
5.89939999999998
 21
5.982769385878529
 31
0.0
  0
LINE
  5
C4
100
AcDbEntity
  8
USP-HID
100
AcDbLine
 10
5.824699999999984
 20
5.675769385878528
 30
0.0
 11
5.899399999999982
 21
5.675769385878528
 31
0.0
  0
LINE
  5
C5
100
AcDbEntity
  8
USP-HID
100
AcDbLine
 10
5.824699999999982
 20
7.010421005441617
 30
0.0
 11
5.899399999999982
 21
7.010421005441617
 31
0.0
  0
LINE
  5
C6
100
AcDbEntity
  8
USP-HID
100
AcDbLine
 10
5.824699999999984
 20
6.846421005441616
 30
0.0
 11
5.899399999999982
 21
6.846421005441616
 31
0.0
  0
LINE
  5
C7
100
AcDbEntity
  8
USP-HID
100
AcDbLine
 10
5.824699999999984
 20
7.718348615981145
 30
0.0
 11
5.899399999999983
 21
7.718348615981145
 31
0.0
  0
CIRCLE
  5
C8
100
AcDbEntity
  8
USP-GEO
100
AcDbCircle
 10
6.649400000000053
 20
5.949699999999989
 30
0.0
 40
0.086
  0
CIRCLE
  5
C9
100
AcDbEntity
  8
USP-GEO
100
AcDbCircle
 10
6.274400000000053
 20
6.949699999999989
 30
0.0
 40
0.086
  0
CIRCLE
  5
CA
100
AcDbEntity
  8
USP-GEO
100
AcDbCircle
 10
0.7499999999999183
 20
10.07470000000006
 30
0.0
 40
0.086
  0
LINE
  5
CB
100
AcDbEntity
  8
USP-GEO
100
AcDbLine
 10
-0.0000000000000231
 20
10.32470000000005
 30
0.0
 11
1.12499999999998
 21
10.32470000000004
 31
0.0
  0
CIRCLE
  5
CC
100
AcDbEntity
  8
USP-GEO
100
AcDbCircle
 10
0.5624999999999166
 20
8.074700000000053
 30
0.0
 40
0.086
  0
CIRCLE
  5
CD
100
AcDbEntity
  8
USP-GEO
100
AcDbCircle
 10
0.3749999999999183
 20
9.07470000000006
 30
0.0
 40
0.086
  0
LINE
  5
CE
100
AcDbEntity
  8
USP-GEO
100
AcDbLine
 10
1.199699999999985
 20
10.32470000000001
 30
0.0
 11
1.124999999999985
 21
10.32470000000001
 31
0.0
  0
LINE
  5
CF
100
AcDbEntity
  8
USP-GEO
100
AcDbLine
 10
5.899399999999985
 20
10.32469999999997
 30
0.0
 11
7.024399999999985
 21
10.32469999999998
 31
0.0
  0
LINE
  5
D0
100
AcDbEntity
  8
USP-HID
100
AcDbLine
 10
5.824699999999984
 20
7.882348615981147
 30
0.0
 11
5.899399999999983
 21
7.882348615981147
 31
0.0
  0
LINE
  5
D1
100
AcDbEntity
  8
USP-GEO
100
AcDbLine
 10
5.824699999999985
 20
10.32469999999995
 30
0.0
 11
5.899399999999983
 21
10.32469999999995
 31
0.0
  0
CIRCLE
  5
D2
100
AcDbEntity
  8
USP-GEO
100
AcDbCircle
 10
6.649400000000053
 20
8.949699999999989
 30
0.0
 40
0.086
  0
CIRCLE
  5
D3
100
AcDbEntity
  8
USP-GEO
100
AcDbCircle
 10
6.274400000000053
 20
9.949699999999989
 30
0.0
 40
0.086
  0
ENDBLK
  5
D5
100
AcDbEntity
  8
0
100
AcDbBlockEnd
  0
BLOCK
  5
12E
100
AcDbEntity
  8
0
100
AcDbBlockBegin
  2
HD212-3_T
 70
     0
 10
0.0
 20
0.0
 30
0.0
  3
HD212-3_T
  1

  0
TEXT
  5
D8
100
AcDbEntity
  8
USP-TXT
100
AcDbText
 10
-0.0763416666666603
 20
-1.2221927187732
 30
0.0
 40
0.40625
  1
HD212-3 - TOP VIEW
 72
     1
 11
3.512200000000007
 21
-1.2221927187732
 31
0.0
100
AcDbText
  0
LINE
  5
D9
100
AcDbEntity
  8
USP-GEO
100
AcDbLine
 10
2.137199999999992
 20
0.0
 30
0.0
 11
4.887200000000021
 21
-0.0000000000000568
 31
0.0
  0
LINE
  5
DA
100
AcDbEntity
  8
USP-GEO
100
AcDbLine
 10
2.137199999999968
 20
2.499973256841101
 30
0.0
 11
4.887200000000053
 21
2.499973256841183
 31
0.0
  0
LINE
  5
DB
100
AcDbEntity
  8
USP-GEO
100
AcDbLine
 10
2.137199999999969
 20
2.437473256841187
 30
0.0
 11
1.637199999999939
 21
2.437473256841204
 31
0.0
  0
LINE
  5
DC
100
AcDbEntity
  8
USP-GEO
100
AcDbLine
 10
2.137199999999994
 20
0.062499999999929
 30
0.0
 11
1.637199999999937
 21
0.0624999999999147
 31
0.0
  0
LINE
  5
DD
100
AcDbEntity
  8
USP-GEO
100
AcDbLine
 10
1.125000000000007
 20
2.687499999999861
 30
0.0
 11
1.125000000000005
 21
1.312226743158699
 31
0.0
  0
LINE
  5
DE
100
AcDbEntity
  8
USP-GEO
100
AcDbLine
 10
1.199700000000007
 20
2.762199999999864
 30
0.0
 11
1.199700000000005
 21
1.312226743158699
 31
0.0
  0
LINE
  5
DF
100
AcDbEntity
  8
USP-GEO
100
AcDbLine
 10
1.124999999999996
 20
1.31222674315871
 30
0.0
 11
1.124999999999994
 21
0.656263371579378
 31
0.0
  0
LINE
  5
E0
100
AcDbEntity
  8
USP-GEO
100
AcDbLine
 10
1.199699999999994
 20
0.6562633715793816
 30
0.0
 11
1.199699999999996
 21
1.31222674315871
 31
0.0
  0
ARC
  5
E1
100
AcDbEntity
  8
USP-GEO
100
AcDbCircle
 10
1.505201591479266
 20
2.499999999999971
 30
0.0
 40
2.5
100
AcDbArc
 50
262.9808753571069
 51
270.0
  0
LINE
  5
E2
100
AcDbEntity
  8
USP-GEO
100
AcDbLine
 10
1.124999999999996
 20
0.6562633715793745
 30
0.0
 11
1.124999999999994
 21
0.0187364554316787
 31
0.0
  0
LINE
  5
E3
100
AcDbEntity
  8
USP-GEO
100
AcDbLine
 10
1.199699999999996
 20
0.6562633715793745
 30
0.0
 11
1.199699999999994
 21
0.0187364554316787
 31
0.0
  0
LINE
  5
E4
100
AcDbEntity
  8
USP-GEO
100
AcDbLine
 10
1.124999999999994
 20
0.0187364554316787
 30
0.0
 11
1.199699999999994
 21
0.0187364554316787
 31
0.0
  0
LINE
  5
E5
100
AcDbEntity
  8
USP-GEO
100
AcDbLine
 10
1.637199999999966
 20
-0.0000000000000853
 30
0.0
 11
1.505201591479352
 21
-0.0000000000000853
 31
0.0
  0
LINE
  5
E6
100
AcDbEntity
  8
USP-GEO
100
AcDbLine
 10
1.637199999999937
 20
0.0624999999999147
 30
0.0
 11
1.637199999999966
 21
-0.0000000000000995
 31
0.0
  0
LINE
  5
E7
100
AcDbEntity
  8
USP-HID
100
AcDbLine
 10
1.199699999999996
 20
1.312526743158741
 30
0.0
 11
1.124999999999996
 21
1.312526743158741
 31
0.0
  0
LINE
  5
E8
100
AcDbEntity
  8
USP-GEO
100
AcDbLine
 10
1.199700000000007
 20
1.312226743158696
 30
0.0
 11
1.125000000000007
 21
1.312226743158696
 31
0.0
  0
LINE
  5
E9
100
AcDbEntity
  8
USP-HID
100
AcDbLine
 10
1.199700000000003
 20
1.605226743158702
 30
0.0
 11
1.125000000000003
 21
1.605226743158702
 31
0.0
  0
LINE
  5
EA
100
AcDbEntity
  8
USP-HID
100
AcDbLine
 10
1.199700000000003
 20
1.769226743158704
 30
0.0
 11
1.125000000000003
 21
1.769226743158704
 31
0.0
  0
LINE
  5
EB
100
AcDbEntity
  8
USP-HID
100
AcDbLine
 10
1.199699999999998
 20
2.096499999999899
 30
0.0
 11
1.125
 21
2.096499999999899
 31
0.0
  0
LINE
  5
EC
100
AcDbEntity
  8
USP-GEO
100
AcDbLine
 10
-0.0000000000000018
 20
2.687499999999864
 30
0.0
 11
1.125000000000001
 21
2.687499999999864
 31
0.0
  0
LINE
  5
ED
100
AcDbEntity
  8
USP-GEO
100
AcDbLine
 10
1.199700000000007
 20
2.762199999999864
 30
0.0
 11
0.0
 21
2.762199999999864
 31
0.0
  0
LINE
  5
EE
100
AcDbEntity
  8
USP-GEO
100
AcDbLine
 10
0.0
 20
2.762199999999864
 30
0.0
 11
0.0
 21
2.687499999999864
 31
0.0
  0
LINE
  5
EF
100
AcDbEntity
  8
USP-HID
100
AcDbLine
 10
0.2889999999999375
 20
2.762199999999872
 30
0.0
 11
0.2889999999999375
 21
2.687499999999879
 31
0.0
  0
LINE
  5
F0
100
AcDbEntity
  8
USP-HID
100
AcDbLine
 10
0.4609999999999382
 20
2.762199999999872
 30
0.0
 11
0.4609999999999382
 21
2.687499999999879
 31
0.0
  0
LINE
  5
F1
100
AcDbEntity
  8
USP-HID
100
AcDbLine
 10
0.4764999999999376
 20
2.762199999999886
 30
0.0
 11
0.4764999999999376
 21
2.687499999999886
 31
0.0
  0
LINE
  5
F2
100
AcDbEntity
  8
USP-HID
100
AcDbLine
 10
0.6639999999999393
 20
2.762199999999864
 30
0.0
 11
0.6639999999999393
 21
2.687499999999864
 31
0.0
  0
LINE
  5
F3
100
AcDbEntity
  8
USP-HID
100
AcDbLine
 10
0.6484999999999382
 20
2.762199999999886
 30
0.0
 11
0.6484999999999382
 21
2.687499999999886
 31
0.0
  0
ARC
  5
F4
100
AcDbEntity
  8
USP-GEO
100
AcDbCircle
 10
1.50520159147927
 20
4.999973256841201
 30
0.0
 40
2.5
100
AcDbArc
 50
262.9808753571069
 51
270.0
  0
LINE
  5
F5
100
AcDbEntity
  8
USP-HID
100
AcDbLine
 10
0.8359999999999399
 20
2.762199999999864
 30
0.0
 11
0.8359999999999399
 21
2.687499999999864
 31
0.0
  0
LINE
  5
F6
100
AcDbEntity
  8
USP-HID
100
AcDbLine
 10
1.199699999999996
 20
2.518709712272908
 30
0.0
 11
1.124999999999996
 21
2.518709712272908
 31
0.0
  0
LINE
  5
F7
100
AcDbEntity
  8
USP-HID
100
AcDbLine
 10
1.199699999999998
 20
2.403499999999901
 30
0.0
 11
1.125
 21
2.403499999999901
 31
0.0
  0
LINE
  5
F8
100
AcDbEntity
  8
USP-HID
100
AcDbLine
 10
1.199699999999998
 20
2.687499999999367
 30
0.0
 11
1.124999999999998
 21
2.687499999999367
 31
0.0
  0
LINE
  5
F9
100
AcDbEntity
  8
USP-HID
100
AcDbLine
 10
1.199699999999999
 20
2.592499999999944
 30
0.0
 11
1.125
 21
2.592499999999944
 31
0.0
  0
LINE
  5
FA
100
AcDbEntity
  8
USP-HID
100
AcDbLine
 10
1.124999999999996
 20
2.687499999999367
 30
0.0
 11
1.124999999999996
 21
2.76219999999995
 31
0.0
  0
LINE
  5
FB
100
AcDbEntity
  8
USP-HID
100
AcDbLine
 10
1.029999999999992
 20
2.762199999999928
 30
0.0
 11
1.029999999999992
 21
2.687499999999928
 31
0.0
  0
LINE
  5
FC
100
AcDbEntity
  8
USP-GEO
100
AcDbLine
 10
1.637199999999971
 20
2.499973256841172
 30
0.0
 11
1.505201591479268
 21
2.499973256841172
 31
0.0
  0
LINE
  5
FD
100
AcDbEntity
  8
USP-GEO
100
AcDbLine
 10
1.637199999999941
 20
2.437473256841208
 30
0.0
 11
1.637199999999969
 21
2.49997325684118
 31
0.0
  0
CIRCLE
  5
FE
100
AcDbEntity
  8
USP-GEO
100
AcDbCircle
 10
3.512199999999996
 20
0.999986628420558
 30
0.0
 40
0.1535
  0
LINE
  5
FF
100
AcDbEntity
  8
USP-GEO
100
AcDbLine
 10
2.137199999999994
 20
0.062499999999929
 30
0.0
 11
2.137199999999966
 21
-0.0000000000000711
 31
0.0
  0
LINE
  5
100
100
AcDbEntity
  8
USP-GEO
100
AcDbLine
 10
3.139479220613525
 20
0.2999999999999865
 30
0.0
 11
3.012199999999966
 21
0.172720779386399
 31
0.0
  0
LINE
  5
101
100
AcDbEntity
  8
USP-GEO
100
AcDbLine
 10
3.012199999999964
 20
0.4272792206135386
 30
0.0
 11
3.139479220613523
 21
0.2999999999999794
 31
0.0
  0
LINE
  5
102
100
AcDbEntity
  8
USP-GEO
100
AcDbLine
 10
2.884920779386352
 20
0.2999999999999829
 30
0.0
 11
3.012199999999968
 21
0.4272792206135421
 31
0.0
  0
LINE
  5
103
100
AcDbEntity
  8
USP-GEO
100
AcDbLine
 10
3.012199999999964
 20
0.172720779386399
 30
0.0
 11
2.88492077938635
 21
0.2999999999999865
 31
0.0
  0
LINE
  5
104
100
AcDbEntity
  8
USP-GEO
100
AcDbLine
 10
4.139479220613527
 20
0.2999999999999829
 30
0.0
 11
4.012199999999968
 21
0.1727207793863954
 31
0.0
  0
LINE
  5
105
100
AcDbEntity
  8
USP-GEO
100
AcDbLine
 10
4.012199999999966
 20
0.4272792206135421
 30
0.0
 11
4.139479220613525
 21
0.2999999999999829
 31
0.0
  0
LINE
  5
106
100
AcDbEntity
  8
USP-GEO
100
AcDbLine
 10
3.884920779386352
 20
0.2999999999999829
 30
0.0
 11
4.012199999999968
 21
0.4272792206135421
 31
0.0
  0
LINE
  5
107
100
AcDbEntity
  8
USP-GEO
100
AcDbLine
 10
4.012199999999966
 20
0.1727207793863954
 30
0.0
 11
3.88492077938635
 21
0.2999999999999829
 31
0.0
  0
LINE
  5
108
100
AcDbEntity
  8
USP-GEO
100
AcDbLine
 10
2.137199999999996
 20
2.437473256841187
 30
0.0
 11
2.137199999999968
 21
2.499973256841101
 31
0.0
  0
LINE
  5
109
100
AcDbEntity
  8
USP-GEO
100
AcDbLine
 10
5.824700000000007
 20
2.762199999999864
 30
0.0
 11
5.824700000000005
 21
1.312226743158696
 31
0.0
  0
LINE
  5
10A
100
AcDbEntity
  8
USP-GEO
100
AcDbLine
 10
5.899400000000001
 20
1.312226743158689
 30
0.0
 11
5.899400000000003
 21
2.687499999999857
 31
0.0
  0
LINE
  5
10B
100
AcDbEntity
  8
USP-GEO
100
AcDbLine
 10
5.899399999999996
 20
0.6562633715793709
 30
0.0
 11
5.899399999999998
 21
1.31222674315871
 31
0.0
  0
LINE
  5
10C
100
AcDbEntity
  8
USP-GEO
100
AcDbLine
 10
5.824699999999994
 20
1.31222674315871
 30
0.0
 11
5.824699999999992
 21
0.656263371579378
 31
0.0
  0
LINE
  5
10D
100
AcDbEntity
  8
USP-GEO
100
AcDbLine
 10
5.387199999999994
 20
-0.0000000000000995
 30
0.0
 11
5.519198408520724
 21
-0.0000000000000853
 31
0.0
  0
LINE
  5
10E
100
AcDbEntity
  8
USP-GEO
100
AcDbLine
 10
4.887200000000023
 20
0.062499999999929
 30
0.0
 11
5.387200000000049
 21
0.0624999999999112
 31
0.0
  0
LINE
  5
10F
100
AcDbEntity
  8
USP-GEO
100
AcDbLine
 10
4.887199999999996
 20
0.062499999999929
 30
0.0
 11
4.887200000000024
 21
-0.0000000000000568
 31
0.0
  0
LINE
  5
110
100
AcDbEntity
  8
USP-GEO
100
AcDbLine
 10
5.387200000000049
 20
0.0624999999999147
 30
0.0
 11
5.387200000000021
 21
-0.0000000000000995
 31
0.0
  0
ARC
  5
111
100
AcDbEntity
  8
USP-GEO
100
AcDbCircle
 10
5.519198408520725
 20
2.499999999999971
 30
0.0
 40
2.5
100
AcDbArc
 50
270.0
 51
277.019124642893
  0
LINE
  5
112
100
AcDbEntity
  8
USP-GEO
100
AcDbLine
 10
5.899399999999996
 20
0.0187364554316716
 30
0.0
 11
5.899399999999998
 21
0.6562633715793674
 31
0.0
  0
LINE
  5
113
100
AcDbEntity
  8
USP-GEO
100
AcDbLine
 10
5.824699999999994
 20
0.0187364554316716
 30
0.0
 11
5.824699999999996
 21
0.6562633715793674
 31
0.0
  0
LINE
  5
114
100
AcDbEntity
  8
USP-GEO
100
AcDbLine
 10
5.899399999999996
 20
0.0187364554316716
 30
0.0
 11
5.824699999999994
 21
0.0187364554316716
 31
0.0
  0
LINE
  5
115
100
AcDbEntity
  8
USP-HID
100
AcDbLine
 10
5.824699999999994
 20
1.312526743158741
 30
0.0
 11
5.899399999999998
 21
1.312526743158741
 31
0.0
  0
LINE
  5
116
100
AcDbEntity
  8
USP-GEO
100
AcDbLine
 10
5.824700000000007
 20
1.312226743158696
 30
0.0
 11
5.899400000000005
 21
1.312226743158696
 31
0.0
  0
LINE
  5
117
100
AcDbEntity
  8
USP-HID
100
AcDbLine
 10
5.824700000000003
 20
1.769226743158696
 30
0.0
 11
5.899400000000003
 21
1.769226743158696
 31
0.0
  0
LINE
  5
118
100
AcDbEntity
  8
USP-HID
100
AcDbLine
 10
5.824700000000003
 20
1.605226743158695
 30
0.0
 11
5.899400000000003
 21
1.605226743158695
 31
0.0
  0
LINE
  5
119
100
AcDbEntity
  8
USP-HID
100
AcDbLine
 10
5.824700000000003
 20
2.096499999999899
 30
0.0
 11
5.899400000000003
 21
2.096499999999899
 31
0.0
  0
LINE
  5
11A
100
AcDbEntity
  8
USP-GEO
100
AcDbLine
 10
5.899400000000007
 20
2.687499999999857
 30
0.0
 11
7.024400000000007
 21
2.687499999999857
 31
0.0
  0
LINE
  5
11B
100
AcDbEntity
  8
USP-GEO
100
AcDbLine
 10
5.824700000000007
 20
2.762199999999864
 30
0.0
 11
7.024400000000007
 21
2.762199999999864
 31
0.0
  0
LINE
  5
11C
100
AcDbEntity
  8
USP-GEO
100
AcDbLine
 10
5.387200000000026
 20
2.499973256841201
 30
0.0
 11
5.519198408520811
 21
2.499973256841201
 31
0.0
  0
LINE
  5
11D
100
AcDbEntity
  8
USP-GEO
100
AcDbLine
 10
4.887199999999998
 20
2.437473256841187
 30
0.0
 11
5.387200000000055
 21
2.437473256841201
 31
0.0
  0
LINE
  5
11E
100
AcDbEntity
  8
USP-GEO
100
AcDbLine
 10
4.887199999999999
 20
2.437473256841187
 30
0.0
 11
4.887200000000028
 21
2.499973256841183
 31
0.0
  0
LINE
  5
11F
100
AcDbEntity
  8
USP-GEO
100
AcDbLine
 10
5.387200000000055
 20
2.437473256841201
 30
0.0
 11
5.387200000000026
 21
2.499973256841215
 31
0.0
  0
ARC
  5
120
100
AcDbEntity
  8
USP-GEO
100
AcDbCircle
 10
5.519198408520727
 20
4.999973256841201
 30
0.0
 40
2.5
100
AcDbArc
 50
270.0
 51
277.019124642893
  0
LINE
  5
121
100
AcDbEntity
  8
USP-HID
100
AcDbLine
 10
5.824699999999998
 20
2.518709712272901
 30
0.0
 11
5.899399999999999
 21
2.518709712272901
 31
0.0
  0
LINE
  5
122
100
AcDbEntity
  8
USP-HID
100
AcDbLine
 10
5.824700000000003
 20
2.403499999999901
 30
0.0
 11
5.899400000000003
 21
2.403499999999901
 31
0.0
  0
LINE
  5
123
100
AcDbEntity
  8
USP-HID
100
AcDbLine
 10
5.899399999999999
 20
2.7621999999999
 30
0.0
 11
5.899399999999999
 21
2.6874999999999
 31
0.0
  0
LINE
  5
124
100
AcDbEntity
  8
USP-HID
100
AcDbLine
 10
5.824699999999998
 20
2.6874999999999
 30
0.0
 11
5.899399999999999
 21
2.6874999999999
 31
0.0
  0
LINE
  5
125
100
AcDbEntity
  8
USP-HID
100
AcDbLine
 10
5.824699999999996
 20
2.592499999999937
 30
0.0
 11
5.899400000000003
 21
2.592499999999937
 31
0.0
  0
LINE
  5
126
100
AcDbEntity
  8
USP-HID
100
AcDbLine
 10
5.994400000000013
 20
2.762199999999936
 30
0.0
 11
5.994400000000013
 21
2.687499999999936
 31
0.0
  0
LINE
  5
127
100
AcDbEntity
  8
USP-HID
100
AcDbLine
 10
6.188400000000074
 20
2.762199999999864
 30
0.0
 11
6.188400000000074
 21
2.687499999999864
 31
0.0
  0
LINE
  5
128
100
AcDbEntity
  8
USP-HID
100
AcDbLine
 10
6.375900000000072
 20
2.762199999999886
 30
0.0
 11
6.375900000000072
 21
2.687499999999886
 31
0.0
  0
LINE
  5
129
100
AcDbEntity
  8
USP-HID
100
AcDbLine
 10
6.360400000000074
 20
2.762199999999864
 30
0.0
 11
6.360400000000074
 21
2.687499999999864
 31
0.0
  0
LINE
  5
12A
100
AcDbEntity
  8
USP-HID
100
AcDbLine
 10
6.547900000000073
 20
2.762199999999886
 30
0.0
 11
6.547900000000073
 21
2.687499999999886
 31
0.0
  0
LINE
  5
12B
100
AcDbEntity
  8
USP-HID
100
AcDbLine
 10
6.563400000000074
 20
2.762199999999872
 30
0.0
 11
6.563400000000074
 21
2.687499999999872
 31
0.0
  0
LINE
  5
12C
100
AcDbEntity
  8
USP-HID
100
AcDbLine
 10
6.735400000000073
 20
2.762199999999872
 30
0.0
 11
6.735400000000073
 21
2.687499999999872
 31
0.0
  0
LINE
  5
12D
100
AcDbEntity
  8
USP-GEO
100
AcDbLine
 10
7.024400000000007
 20
2.762199999999864
 30
0.0
 11
7.024400000000007
 21
2.687499999999861
 31
0.0
  0
ENDBLK
  5
12F
100
AcDbEntity
  8
0
100
AcDbBlockEnd
  0
ENDSEC
  0
SECTION
  2
ENTITIES
  0
INSERT
  5
3
100
AcDbEntity
  8
USP
100
AcDbBlockReference
  2
HD212-3_S
 10
2.028912943532281
 20
1.603546328696646
 30
0.0
  0
INSERT
  5
65
100
AcDbEntity
  8
USP
100
AcDbBlockReference
  2
HD212-3_F
 10
9.375043617602099
 20
1.603546328696612
 30
0.0
  0
INSERT
  5
D6
100
AcDbEntity
  8
USP
100
AcDbBlockReference
  2
HD212-3_T
 10
9.375043617602067
 20
16.17274856799247
 30
0.0
  0
ENDSEC
  0
SECTION
  2
OBJECTS
  0
DICTIONARY
  5
144
102
{ACAD_XDICTIONARY
360
145
102
}
100
AcDbDictionary
  3
ACAD_GROUP
350
142
  3
ACAD_MLINESTYLE
350
143
1001
ACAD
1000
TREAT_AS_HARD
1070
     0
  0
DICTIONARY
  5
12
100
AcDbDictionary
280
     1
1001
ACAD
1000
TREAT_AS_HARD
1070
     1
  0
DICTIONARY
  5
130
100
AcDbDictionary
280
     1
  0
DICTIONARY
  5
134
100
AcDbDictionary
280
     1
  0
DICTIONARY
  5
145
100
AcDbDictionary
280
     1
  0
DICTIONARY
  5
142
102
{ACAD_REACTORS
330
144
102
}
100
AcDbDictionary
1001
ACAD
1000
TREAT_AS_HARD
1070
     0
  0
DICTIONARY
  5
143
102
{ACAD_REACTORS
330
144
102
}
100
AcDbDictionary
  3
STANDARD
350
146
1001
ACAD
1000
TREAT_AS_HARD
1070
     0
  0
MLINESTYLE
  5
146
102
{ACAD_REACTORS
330
143
102
}
100
AcDbMlineStyle
  2
STANDARD
 70
     0
  3

 62
     0
 51
90.0
 52
90.0
 71
     2
 49
0.5
 62
   256
  6
BYLAYER
 49
-0.5
 62
   256
  6
BYLAYER
  0
ENDSEC
  0
EOF
