  0
SECTION
  2
HEADER
  9
$ACADVER
  1
AC1014
  9
$ACADMAINTVER
 70
     9
  9
$DWGCODEPAGE
  3
ANSI_1252
  9
$INSBASE
 10
0.0
 20
0.0
 30
0.0
  9
$EXTMIN
 10
-0.0153810334501539
 20
0.0002283456639489
 30
0.0
  9
$EXTMAX
 10
13.92765146640194
 20
17.04736709133512
 30
0.0
  9
$LIMMIN
 10
0.0
 20
0.0
  9
$LIMMAX
 10
12.0
 20
9.0
  9
$ORTHOMODE
 70
     1
  9
$REGENMODE
 70
     1
  9
$FILLMODE
 70
     1
  9
$QTEXTMODE
 70
     0
  9
$MIRRTEXT
 70
     0
  9
$DRAGMODE
 70
     2
  9
$LTSCALE
 40
1.5
  9
$OSMODE
 70
     0
  9
$ATTMODE
 70
     1
  9
$TEXTSIZE
 40
0.75
  9
$TRACEWID
 40
0.05
  9
$TEXTSTYLE
  7
STANDARD
  9
$CLAYER
  8
USP
  9
$CELTYPE
  6
BYLAYER
  9
$CECOLOR
 62
   256
  9
$CELTSCALE
 40
1.0
  9
$DELOBJ
 70
     1
  9
$DISPSILH
 70
     1
  9
$DIMSCALE
 40
7.0
  9
$DIMASZ
 40
0.125
  9
$DIMEXO
 40
0.0625
  9
$DIMDLI
 40
0.37890625
  9
$DIMRND
 40
0.0
  9
$DIMDLE
 40
0.0
  9
$DIMEXE
 40
0.09375
  9
$DIMTP
 40
0.0
  9
$DIMTM
 40
0.0
  9
$DIMTXT
 40
0.109375
  9
$DIMCEN
 40
0.0
  9
$DIMTSZ
 40
0.0
  9
$DIMTOL
 70
     0
  9
$DIMLIM
 70
     0
  9
$DIMTIH
 70
     1
  9
$DIMTOH
 70
     1
  9
$DIMSE1
 70
     0
  9
$DIMSE2
 70
     0
  9
$DIMTAD
 70
     0
  9
$DIMZIN
 70
     8
  9
$DIMBLK
  1

  9
$DIMASO
 70
     1
  9
$DIMSHO
 70
     1
  9
$DIMPOST
  1

  9
$DIMAPOST
  1

  9
$DIMALT
 70
     0
  9
$DIMALTD
 70
     2
  9
$DIMALTF
 40
25.4
  9
$DIMLFAC
 40
1.0
  9
$DIMTOFL
 70
     0
  9
$DIMTVP
 40
0.0
  9
$DIMTIX
 70
     0
  9
$DIMSOXD
 70
     0
  9
$DIMSAH
 70
     0
  9
$DIMBLK1
  1

  9
$DIMBLK2
  1

  9
$DIMSTYLE
  2
STANDARD
  9
$DIMCLRD
 70
     0
  9
$DIMCLRE
 70
     0
  9
$DIMCLRT
 70
   256
  9
$DIMTFAC
 40
1.0
  9
$DIMGAP
 40
0.08984375
  9
$DIMJUST
 70
     0
  9
$DIMSD1
 70
     0
  9
$DIMSD2
 70
     0
  9
$DIMTOLJ
 70
     1
  9
$DIMTZIN
 70
     0
  9
$DIMALTZ
 70
     0
  9
$DIMALTTZ
 70
     0
  9
$DIMFIT
 70
     3
  9
$DIMUPT
 70
     1
  9
$DIMUNIT
 70
     7
  9
$DIMDEC
 70
     4
  9
$DIMTDEC
 70
     4
  9
$DIMALTU
 70
     2
  9
$DIMALTTD
 70
     2
  9
$DIMTXSTY
  7
STANDARD
  9
$DIMAUNIT
 70
     0
  9
$LUNITS
 70
     5
  9
$LUPREC
 70
     6
  9
$SKETCHINC
 40
0.1
  9
$FILLETRAD
 40
0.0
  9
$AUNITS
 70
     0
  9
$AUPREC
 70
     1
  9
$MENU
  1
CUSTOM
  9
$ELEVATION
 40
0.0
  9
$PELEVATION
 40
0.0
  9
$THICKNESS
 40
0.0
  9
$LIMCHECK
 70
     0
  9
$BLIPMODE
 70
     0
  9
$CHAMFERA
 40
0.0
  9
$CHAMFERB
 40
0.0
  9
$CHAMFERC
 40
0.0
  9
$CHAMFERD
 40
0.0
  9
$SKPOLY
 70
     0
  9
$TDCREATE
 40
2451263.663231366
  9
$TDUPDATE
 40
2452759.744568322
  9
$TDINDWG
 40
0.4570206019
  9
$TDUSRTIMER
 40
0.4570206019
  9
$USRTIMER
 70
     1
  9
$ANGBASE
 50
0.0
  9
$ANGDIR
 70
     0
  9
$PDMODE
 70
     0
  9
$PDSIZE
 40
0.0
  9
$PLINEWID
 40
0.0
  9
$COORDS
 70
     2
  9
$SPLFRAME
 70
     0
  9
$SPLINETYPE
 70
     6
  9
$SPLINESEGS
 70
     8
  9
$ATTDIA
 70
     0
  9
$ATTREQ
 70
     0
  9
$HANDLING
 70
     1
  9
$HANDSEED
  5
13B
  9
$SURFTAB1
 70
     6
  9
$SURFTAB2
 70
     6
  9
$SURFTYPE
 70
     6
  9
$SURFU
 70
     6
  9
$SURFV
 70
     6
  9
$UCSNAME
  2

  9
$UCSORG
 10
0.0
 20
0.0
 30
0.0
  9
$UCSXDIR
 10
1.0
 20
0.0
 30
0.0
  9
$UCSYDIR
 10
0.0
 20
1.0
 30
0.0
  9
$PUCSNAME
  2

  9
$PUCSORG
 10
0.0
 20
0.0
 30
0.0
  9
$PUCSXDIR
 10
1.0
 20
0.0
 30
0.0
  9
$PUCSYDIR
 10
0.0
 20
1.0
 30
0.0
  9
$USERI1
 70
     0
  9
$USERI2
 70
     0
  9
$USERI3
 70
     0
  9
$USERI4
 70
     0
  9
$USERI5
 70
     0
  9
$USERR1
 40
0.0
  9
$USERR2
 40
0.0
  9
$USERR3
 40
0.0
  9
$USERR4
 40
0.0
  9
$USERR5
 40
0.0
  9
$WORLDVIEW
 70
     1
  9
$SHADEDGE
 70
     3
  9
$SHADEDIF
 70
    70
  9
$TILEMODE
 70
     1
  9
$MAXACTVP
 70
    16
  9
$PINSBASE
 10
0.0
 20
0.0
 30
0.0
  9
$PLIMCHECK
 70
     0
  9
$PEXTMIN
 10
1.000000000000000E+20
 20
1.000000000000000E+20
 30
1.000000000000000E+20
  9
$PEXTMAX
 10
-1.000000000000000E+20
 20
-1.000000000000000E+20
 30
-1.000000000000000E+20
  9
$PLIMMIN
 10
0.0
 20
0.0
  9
$PLIMMAX
 10
12.0
 20
9.0
  9
$UNITMODE
 70
     0
  9
$VISRETAIN
 70
     0
  9
$PLINEGEN
 70
     0
  9
$PSLTSCALE
 70
     0
  9
$TREEDEPTH
 70
  3020
  9
$PICKSTYLE
 70
     1
  9
$CMLSTYLE
  2
STANDARD
  9
$CMLJUST
 70
     0
  9
$CMLSCALE
 40
1.0
  9
$PROXYGRAPHICS
 70
     1
  9
$MEASUREMENT
 70
     0
  0
ENDSEC
  0
SECTION
  2
CLASSES
  0
CLASS
  1
ACDBDICTIONARYWDFLT
  2
AcDbDictionaryWithDefault
  3
AutoCAD 2000
 90
        0
280
     1
281
     0
  0
CLASS
  1
ACDBPLACEHOLDER
  2
AcDbPlaceHolder
  3
AutoCAD 2000
 90
        0
280
     1
281
     0
  0
CLASS
  1
LAYOUT
  2
AcDbLayout
  3
AutoCAD 2000
 90
        0
280
     1
281
     0
  0
CLASS
  1
DICTIONARYVAR
  2
AcDbDictionaryVar
  3
"AutoCAD"
 90
        0
280
     1
281
     0
  0
CLASS
  1
LONG_TRANSACTION
  2
AcDbLongTransaction
  3
AutoCAD 2000
 90
        0
280
     1
281
     0
  0
CLASS
  1
LWPOLYLINE
  2
AcDbPolyline
  3
"AutoCAD"
 90
        0
280
     1
281
     1
  0
CLASS
  1
HATCH
  2
AcDbHatch
  3
"ACAD_SEDONA"
 90
        0
280
     1
281
     1
  0
CLASS
  1
XRECORD
  2
AcDbXrecord
  3
"<Built In>"
 90
        0
280
     0
281
     0
  0
ENDSEC
  0
SECTION
  2
TABLES
  0
TABLE
  2
VPORT
  5
125
100
AcDbSymbolTable
 70
     1
  0
VPORT
  5
137
100
AcDbSymbolTableRecord
100
AcDbViewportTableRecord
  2
*ACTIVE
 70
     0
 10
0.0
 20
0.0
 11
1.0
 21
1.0
 12
-10.17238757050953
 22
19.14710491344365
 13
0.0
 23
0.0
 14
1.0
 24
1.0
 15
0.0
 25
0.0
 16
0.0
 26
0.0
 36
1.0
 17
23.09603071721725
 27
-10.27010416511325
 37
-10.44050274849355
 40
17.75354480533289
 41
1.457627118644067
 42
50.0
 43
10.55307667737539
 44
10.55307667737539
 50
0.0
 51
0.0
 71
     0
 72
   100
 73
     1
 74
     1
 75
     0
 76
     0
 77
     0
 78
     0
  0
ENDTAB
  0
TABLE
  2
LTYPE
  5
121
100
AcDbSymbolTable
 70
     1
  0
LTYPE
  5
122
100
AcDbSymbolTableRecord
100
AcDbLinetypeTableRecord
  2
BYBLOCK
 70
     0
  3

 72
    65
 73
     0
 40
0.0
  0
LTYPE
  5
6
100
AcDbSymbolTableRecord
100
AcDbLinetypeTableRecord
  2
BYLAYER
 70
     0
  3

 72
    65
 73
     0
 40
0.0
  0
LTYPE
  5
5
100
AcDbSymbolTableRecord
100
AcDbLinetypeTableRecord
  2
CONTINUOUS
 70
     0
  3
Solid line
 72
    65
 73
     0
 40
0.0
  0
ENDTAB
  0
TABLE
  2
LAYER
  5
11F
100
AcDbSymbolTable
 70
     5
  0
LAYER
  5
5F
100
AcDbSymbolTableRecord
100
AcDbLayerTableRecord
  2
0
 70
     0
 62
     7
  6
CONTINUOUS
  0
LAYER
  5
9
100
AcDbSymbolTableRecord
100
AcDbLayerTableRecord
  2
USP-GEO
 70
     0
 62
     7
  6
CONTINUOUS
  0
LAYER
  5
C
102
{ACAD_XDICTIONARY
360
D
102
}
100
AcDbSymbolTableRecord
100
AcDbLayerTableRecord
  2
USP-HID
 70
     0
 62
     7
  6
CONTINUOUS
  0
LAYER
  5
4
100
AcDbSymbolTableRecord
100
AcDbLayerTableRecord
  2
USP
 70
     0
 62
     7
  6
CONTINUOUS
  0
LAYER
  5
10
102
{ACAD_XDICTIONARY
360
11
102
}
100
AcDbSymbolTableRecord
100
AcDbLayerTableRecord
  2
USP-TXT
 70
     0
 62
     7
  6
CONTINUOUS
  0
ENDTAB
  0
TABLE
  2
STYLE
  5
120
100
AcDbSymbolTable
 70
     1
  0
STYLE
  5
12
100
AcDbSymbolTableRecord
100
AcDbTextStyleTableRecord
  2
STANDARD
 70
     0
 40
0.0
 41
1.0
 50
0.0
 71
     0
 42
0.75
  3
txt
  4

  0
ENDTAB
  0
TABLE
  2
VIEW
  5
123
100
AcDbSymbolTable
 70
     0
  0
ENDTAB
  0
TABLE
  2
UCS
  5
124
100
AcDbSymbolTable
 70
     0
  0
ENDTAB
  0
TABLE
  2
APPID
  5
127
100
AcDbSymbolTable
 70
     1
  0
APPID
  5
E
100
AcDbSymbolTableRecord
100
AcDbRegAppTableRecord
  2
ACAD
 70
     0
  0
ENDTAB
  0
TABLE
  2
DIMSTYLE
  5
128
100
AcDbSymbolTable
 70
     1
  0
DIMSTYLE
105
12F
100
AcDbSymbolTableRecord
100
AcDbDimStyleTableRecord
  2
STANDARD
 70
     0
  3

  4

  5

  6

  7

 40
1.0
 41
0.18
 42
0.0625
 43
0.38
 44
0.18
 45
0.0
 46
0.0
 47
0.0
 48
0.0
140
0.18
141
0.09
142
0.0
143
25.4
144
1.0
145
0.0
146
1.0
147
0.09
 71
     0
 72
     0
 73
     1
 74
     1
 75
     0
 76
     0
 77
     0
 78
     0
170
     0
171
     2
172
     0
173
     0
174
     0
175
     0
176
     0
177
     0
178
     0
270
     2
271
     4
272
     4
273
     2
274
     2
340
12
275
     0
280
     0
281
     0
282
     0
283
     1
284
     0
285
     0
286
     0
287
     3
288
     0
  0
ENDTAB
  0
TABLE
  2
BLOCK_RECORD
  5
1
100
AcDbSymbolTable
 70
     3
  0
BLOCK_RECORD
  5
2
102
{ACAD_XDICTIONARY
360
118
102
}
100
AcDbSymbolTableRecord
100
AcDbBlockTableRecord
  2
*MODEL_SPACE
  0
BLOCK_RECORD
  5
11B
102
{ACAD_XDICTIONARY
360
11C
102
}
100
AcDbSymbolTableRecord
100
AcDbBlockTableRecord
  2
*PAPER_SPACE
  0
BLOCK_RECORD
  5
7
100
AcDbSymbolTableRecord
100
AcDbBlockTableRecord
  2
HD210-2IF_S
  0
BLOCK_RECORD
  5
62
100
AcDbSymbolTableRecord
100
AcDbBlockTableRecord
  2
HD210-2IF_F
  0
BLOCK_RECORD
  5
C7
100
AcDbSymbolTableRecord
100
AcDbBlockTableRecord
  2
HD210-2IF_T
  0
ENDTAB
  0
ENDSEC
  0
SECTION
  2
BLOCKS
  0
BLOCK
  5
119
100
AcDbEntity
  8
0
100
AcDbBlockBegin
  2
*MODEL_SPACE
 70
     0
 10
0.0
 20
0.0
 30
0.0
  3
*MODEL_SPACE
  1

  0
ENDBLK
  5
11A
100
AcDbEntity
  8
0
100
AcDbBlockEnd
  0
BLOCK
  5
11D
100
AcDbEntity
 67
     1
  8
0
100
AcDbBlockBegin
  2
*PAPER_SPACE
 70
     0
 10
0.0
 20
0.0
 30
0.0
  3
*PAPER_SPACE
  1

  0
ENDBLK
  5
11E
100
AcDbEntity
 67
     1
  8
0
100
AcDbBlockEnd
  0
BLOCK
  5
5E
100
AcDbEntity
  8
0
100
AcDbBlockBegin
  2
HD210-2IF_S
 70
     0
 10
0.0
 20
0.0
 30
0.0
  3
HD210-2IF_S
  1

  0
LINE
  5
8
100
AcDbEntity
  8
USP-GEO
100
AcDbLine
 10
-0.0000000000002551
 20
9.074699999999966
 30
0.0
 11
-0.0000000000001359
 21
4.237330897144277
 31
0.0
  0
LINE
  5
A
100
AcDbEntity
  8
USP-GEO
100
AcDbLine
 10
1.449973256841055
 20
3.934691949005307
 30
0.0
 11
1.449973256840916
 21
9.074700000000001
 31
0.0
  0
LINE
  5
B
100
AcDbEntity
  8
USP-HID
100
AcDbLine
 10
0.0746999999997473
 20
9.074699999999966
 30
0.0
 11
0.0746999999998732
 21
4.23733089714428
 31
0.0
  0
TEXT
  5
F
100
AcDbEntity
  8
USP-TXT
100
AcDbText
 10
-1.562910416666666
 20
-1.395714640210036
 30
0.0
 40
0.296875
  1
HD210-2IF - SIDE VIEW
 72
     1
 11
1.381099999999999
 21
-1.395714640210036
 31
0.0
100
AcDbText
  0
LINE
  5
13
100
AcDbEntity
  8
USP-GEO
100
AcDbLine
 10
0.324726743158753
 20
0.0000000000000016
 30
0.0
 11
2.699700000000018
 21
0.0000000000000637
 31
0.0
  0
LINE
  5
14
100
AcDbEntity
  8
USP-HID
100
AcDbLine
 10
0.3247267431587477
 20
0.0747000000000009
 30
0.0
 11
2.699700000000018
 21
0.0747000000000631
 31
0.0
  0
LINE
  5
15
100
AcDbEntity
  8
USP-GEO
100
AcDbLine
 10
-0.0000000000001166
 20
4.047330897144279
 30
0.0
 11
0.0
 21
1.469181269626024
 31
0.0
  0
LINE
  5
16
100
AcDbEntity
  8
USP-HID
100
AcDbLine
 10
0.0746999999998781
 20
4.047330897144281
 30
0.0
 11
0.0746999999999454
 21
1.469181269626026
 31
0.0
  0
LINE
  5
17
100
AcDbEntity
  8
USP-GEO
100
AcDbLine
 10
0.0000000000000007
 20
1.469181269626021
 30
0.0
 11
0.0747000000000036
 21
1.469181269626023
 31
0.0
  0
LINE
  5
18
100
AcDbEntity
  8
USP-GEO
100
AcDbLine
 10
0.262226743158732
 20
0.5191984085207304
 30
0.0
 11
0.2622267431587353
 21
0.3872000000000015
 31
0.0
  0
LINE
  5
19
100
AcDbEntity
  8
USP-GEO
100
AcDbLine
 10
0.3247267431587495
 20
0.0000000000000016
 30
0.0
 11
0.2622267431587502
 21
0.0
 31
0.0
  0
LINE
  5
1A
100
AcDbEntity
  8
USP-GEO
100
AcDbLine
 10
0.3247267431587513
 20
0.0747000000000016
 30
0.0
 11
0.2622267431587499
 21
0.0747
 31
0.0
  0
LINE
  5
1B
100
AcDbEntity
  8
USP-GEO
100
AcDbLine
 10
0.2622267431587337
 20
0.3872000000000284
 30
0.0
 11
0.3247267431587317
 21
0.3872000000000584
 31
0.0
  0
LINE
  5
1C
100
AcDbEntity
  8
USP-GEO
100
AcDbLine
 10
0.2622267431587495
 20
0.0747000000000016
 30
0.0
 11
0.2622267431587515
 21
0.0000000000000022
 31
0.0
  0
LINE
  5
1D
100
AcDbEntity
  8
USP-GEO
100
AcDbLine
 10
0.324726743158732
 20
0.3872000000000588
 30
0.0
 11
0.324726743158753
 21
0.0000000000000016
 31
0.0
  0
ARC
  5
1E
100
AcDbEntity
  8
USP-GEO
100
AcDbCircle
 10
-2.237773256841269
 20
0.5191984085206637
 30
0.0
 40
2.5
100
AcDbArc
 50
0.0000000000014885
 51
22.33325800951136
  0
LINE
  5
1F
100
AcDbEntity
  8
USP-GEO
100
AcDbLine
 10
-0.0000000000001343
 20
4.237330897144277
 30
0.0
 11
0.0746999999998928
 21
4.237330897144278
 31
0.0
  0
LINE
  5
20
100
AcDbEntity
  8
USP-GEO
100
AcDbLine
 10
0.0746999999998852
 20
4.047330897144279
 30
0.0
 11
-0.0000000000001177
 21
4.047330897144277
 31
0.0
  0
LINE
  5
21
100
AcDbEntity
  8
USP-HID
100
AcDbLine
 10
-0.0000000000000824
 20
2.409353208069687
 30
0.0
 11
0.0746999999999176
 21
2.409353208069688
 31
0.0
  0
LINE
  5
22
100
AcDbEntity
  8
USP-HID
100
AcDbLine
 10
-0.0000000000000864
 20
2.581353208069686
 30
0.0
 11
0.0746999999999154
 21
2.581353208069688
 31
0.0
  0
LINE
  5
23
100
AcDbEntity
  8
USP-HID
100
AcDbLine
 10
-0.0000000000000966
 20
2.967195044271422
 30
0.0
 11
0.0746999999999052
 21
2.967195044271424
 31
0.0
  0
LINE
  5
24
100
AcDbEntity
  8
USP-HID
100
AcDbLine
 10
-0.0000000000001006
 20
3.139195044271422
 30
0.0
 11
0.0746999999999012
 21
3.139195044271424
 31
0.0
  0
LINE
  5
25
100
AcDbEntity
  8
USP-HID
100
AcDbLine
 10
-0.0000000000001161
 20
3.738699999999967
 30
0.0
 11
0.0746999999998856
 21
3.738699999999969
 31
0.0
  0
LINE
  5
26
100
AcDbEntity
  8
USP-HID
100
AcDbLine
 10
-0.0000000000001201
 20
3.910699999999968
 30
0.0
 11
0.0746999999998799
 21
3.91069999999997
 31
0.0
  0
LINE
  5
27
100
AcDbEntity
  8
USP-HID
100
AcDbLine
 10
-0.0000000000000882
 20
2.503534965323778
 30
0.0
 11
0.0746999999999118
 21
2.50353496532378
 31
0.0
  0
LINE
  5
28
100
AcDbEntity
  8
USP-HID
100
AcDbLine
 10
-0.0000000000000921
 20
2.675534965323778
 30
0.0
 11
0.0746999999999061
 21
2.67553496532378
 31
0.0
  0
LINE
  5
29
100
AcDbEntity
  8
USP-HID
100
AcDbLine
 10
-0.0000000000001059
 20
3.113699999999996
 30
0.0
 11
0.0746999999998941
 21
3.113699999999997
 31
0.0
  0
LINE
  5
2A
100
AcDbEntity
  8
USP-HID
100
AcDbLine
 10
-0.0000000000001117
 20
3.285699999999996
 30
0.0
 11
0.0746999999998919
 21
3.285699999999998
 31
0.0
  0
LINE
  5
2B
100
AcDbEntity
  8
USP-HID
100
AcDbLine
 10
0.0746999999998763
 20
4.216260080790492
 30
0.0
 11
-0.0000000000001223
 21
4.21626008079049
 31
0.0
  0
LINE
  5
2C
100
AcDbEntity
  8
USP-HID
100
AcDbLine
 10
-0.0000000000001432
 20
4.406260080790483
 30
0.0
 11
0.0746999999998581
 21
4.406260080790485
 31
0.0
  0
LINE
  5
2D
100
AcDbEntity
  8
USP-GEO
100
AcDbLine
 10
-0.000000000000123
 20
4.047330897144278
 30
0.0
 11
-0.0000000000001279
 21
4.237330897144278
 31
0.0
  0
CIRCLE
  5
2E
100
AcDbEntity
  8
USP-GEO
100
AcDbCircle
 10
1.074973256841113
 20
2.262199999999966
 30
0.0
 40
0.082
  0
ARC
  5
2F
100
AcDbEntity
  8
USP-GEO
100
AcDbCircle
 10
0.0746999999998941
 20
4.142330897144278
 30
0.0
 40
0.095
100
AcDbArc
 50
270.0000000000014
 51
90.00000000000147
  0
LINE
  5
30
100
AcDbEntity
  8
USP-GEO
100
AcDbLine
 10
0.0746999999998721
 20
4.237330897144278
 30
0.0
 11
0.074699999999877
 21
4.047330897144278
 31
0.0
  0
ARC
  5
31
100
AcDbEntity
  8
USP-HID
100
AcDbCircle
 10
0.074699999999887
 20
4.311260080790491
 30
0.0
 40
0.095
100
AcDbArc
 50
297.2395087344009
 51
90.00000000000147
  0
ARC
  5
32
100
AcDbEntity
  8
USP-GEO
100
AcDbCircle
 10
0.074699999999887
 20
4.311260080790491
 30
0.0
 40
0.095
100
AcDbArc
 50
270.0000000000014
 51
297.2395087344009
  0
CIRCLE
  5
33
100
AcDbEntity
  8
USP-HID
100
AcDbCircle
 10
1.074973256841068
 20
3.871037232443613
 30
0.0
 40
0.082
  0
CIRCLE
  5
34
100
AcDbEntity
  8
USP-GEO
100
AcDbCircle
 10
1.074973256841066
 20
4.058537232443557
 30
0.0
 40
0.082
  0
LINE
  5
35
100
AcDbEntity
  8
USP-HID
100
AcDbLine
 10
-0.0000000000001374
 20
4.613699999999964
 30
0.0
 11
0.0746999999998608
 21
4.613699999999965
 31
0.0
  0
LINE
  5
36
100
AcDbEntity
  8
USP-HID
100
AcDbLine
 10
-0.0000000000001414
 20
4.785699999999964
 30
0.0
 11
0.0746999999998568
 21
4.785699999999966
 31
0.0
  0
LINE
  5
37
100
AcDbEntity
  8
USP-HID
100
AcDbLine
 10
-0.0000000000001659
 20
5.613699999999964
 30
0.0
 11
0.0746999999998359
 21
5.613699999999965
 31
0.0
  0
LINE
  5
38
100
AcDbEntity
  8
USP-HID
100
AcDbLine
 10
-0.0000000000001699
 20
5.785699999999964
 30
0.0
 11
0.0746999999998301
 21
5.785699999999966
 31
0.0
  0
LINE
  5
39
100
AcDbEntity
  8
USP-HID
100
AcDbLine
 10
-0.0000000000001907
 20
6.613699999999964
 30
0.0
 11
0.074699999999811
 21
6.613699999999965
 31
0.0
  0
LINE
  5
3A
100
AcDbEntity
  8
USP-HID
100
AcDbLine
 10
-0.0000000000001947
 20
6.785699999999964
 30
0.0
 11
0.0746999999998053
 21
6.785699999999966
 31
0.0
  0
LINE
  5
3B
100
AcDbEntity
  8
USP-HID
100
AcDbLine
 10
-0.0000000000001983
 20
6.738700000000021
 30
0.0
 11
0.0746999999997999
 21
6.738700000000022
 31
0.0
  0
LINE
  5
3C
100
AcDbEntity
  8
USP-HID
100
AcDbLine
 10
-0.0000000000002005
 20
6.910700000000021
 30
0.0
 11
0.0746999999997977
 21
6.910700000000023
 31
0.0
  0
LINE
  5
3D
100
AcDbEntity
  8
USP-HID
100
AcDbLine
 10
-0.0000000000001734
 20
5.738700000000021
 30
0.0
 11
0.0746999999998266
 21
5.738700000000022
 31
0.0
  0
LINE
  5
3E
100
AcDbEntity
  8
USP-HID
100
AcDbLine
 10
-0.0000000000001756
 20
5.910700000000021
 30
0.0
 11
0.0746999999998226
 21
5.910700000000023
 31
0.0
  0
LINE
  5
3F
100
AcDbEntity
  8
USP-HID
100
AcDbLine
 10
-0.0000000000001468
 20
4.738700000000021
 30
0.0
 11
0.074699999999855
 21
4.738700000000022
 31
0.0
  0
LINE
  5
40
100
AcDbEntity
  8
USP-HID
100
AcDbLine
 10
-0.0000000000001508
 20
4.910700000000021
 30
0.0
 11
0.0746999999998492
 21
4.910700000000023
 31
0.0
  0
CIRCLE
  5
41
100
AcDbEntity
  8
USP-GEO
100
AcDbCircle
 10
1.074973256841046
 20
4.857901308014605
 30
0.0
 40
0.082
  0
CIRCLE
  5
42
100
AcDbEntity
  8
USP-HID
100
AcDbCircle
 10
1.074973256841047
 20
4.670401308014662
 30
0.0
 40
0.082
  0
CIRCLE
  5
43
100
AcDbEntity
  8
USP-GEO
100
AcDbCircle
 10
0.512199999999816
 20
6.57926938587852
 30
0.0
 40
0.1535
  0
ARC
  5
44
100
AcDbEntity
  8
USP-GEO
100
AcDbCircle
 10
0.2621999999999616
 20
0.5191984085207276
 30
0.0
 40
2.5
100
AcDbArc
 50
0.0000000000014885
 51
42.4815666460744
  0
LINE
  5
45
100
AcDbEntity
  8
USP-HID
100
AcDbLine
 10
1.608713371579383
 20
0.0000000000000366
 30
0.0
 11
1.608713371579382
 21
0.0747000000000366
 31
0.0
  0
LINE
  5
46
100
AcDbEntity
  8
USP-HID
100
AcDbLine
 10
1.915713371579384
 20
0.0000000000000446
 30
0.0
 11
1.915713371579382
 21
0.0747000000000446
 31
0.0
  0
LINE
  5
47
100
AcDbEntity
  8
USP-GEO
100
AcDbLine
 10
2.762200000000033
 20
0.3872000000000926
 30
0.0
 11
2.762200000000015
 21
0.5191984085207093
 31
0.0
  0
LINE
  5
48
100
AcDbEntity
  8
USP-HID
100
AcDbLine
 10
2.334920779386396
 20
0.0747000000000548
 30
0.0
 11
2.334920779386398
 21
0.0000000000000555
 31
0.0
  0
LINE
  5
49
100
AcDbEntity
  8
USP-HID
100
AcDbLine
 10
2.462199999999954
 20
0.0747000000000584
 30
0.0
 11
2.462199999999956
 21
0.0000000000000591
 31
0.0
  0
LINE
  5
4A
100
AcDbEntity
  8
USP-GEO
100
AcDbLine
 10
2.699700000000019
 20
0.0000000000000655
 30
0.0
 11
2.69970000000002
 21
0.3872000000001237
 31
0.0
  0
LINE
  5
4B
100
AcDbEntity
  8
USP-GEO
100
AcDbLine
 10
2.762199999999999
 20
0.0000000000000671
 30
0.0
 11
2.699700000000011
 21
0.0000000000000655
 31
0.0
  0
LINE
  5
4C
100
AcDbEntity
  8
USP-GEO
100
AcDbLine
 10
2.69970000000001
 20
0.074700000000062
 30
0.0
 11
2.762199999999996
 21
0.0747000000000635
 31
0.0
  0
LINE
  5
4D
100
AcDbEntity
  8
USP-HID
100
AcDbLine
 10
2.589479220613544
 20
0.074700000000062
 30
0.0
 11
2.589479220613545
 21
0.0000000000000593
 31
0.0
  0
LINE
  5
4E
100
AcDbEntity
  8
USP-GEO
100
AcDbLine
 10
2.762199999999997
 20
0.0747000000000655
 30
0.0
 11
2.762199999999999
 21
0.0000000000000648
 31
0.0
  0
LINE
  5
4F
100
AcDbEntity
  8
USP-GEO
100
AcDbLine
 10
2.69970000000002
 20
0.3872000000001223
 30
0.0
 11
2.762200000000032
 21
0.3872000000000955
 31
0.0
  0
ARC
  5
50
100
AcDbEntity
  8
USP-GEO
100
AcDbCircle
 10
3.949673256841072
 20
3.895963277456901
 30
0.0
 40
2.5
100
AcDbArc
 50
179.1123687241161
 51
222.4815666460733
  0
LINE
  5
51
100
AcDbEntity
  8
USP-GEO
100
AcDbLine
 10
1.449973256840914
 20
9.074700000000003
 30
0.0
 11
-0.0000000000002551
 21
9.074699999999966
 31
0.0
  0
LINE
  5
52
100
AcDbEntity
  8
USP-HID
100
AcDbLine
 10
-0.0000000000002174
 20
7.613699999999964
 30
0.0
 11
0.0746999999997826
 21
7.613699999999965
 31
0.0
  0
LINE
  5
53
100
AcDbEntity
  8
USP-HID
100
AcDbLine
 10
-0.0000000000002232
 20
7.785699999999964
 30
0.0
 11
0.0746999999997786
 21
7.785699999999966
 31
0.0
  0
LINE
  5
54
100
AcDbEntity
  8
USP-HID
100
AcDbLine
 10
-0.0000000000002423
 20
8.613699999999964
 30
0.0
 11
0.0746999999997578
 21
8.613699999999965
 31
0.0
  0
LINE
  5
55
100
AcDbEntity
  8
USP-HID
100
AcDbLine
 10
-0.000000000000248
 20
8.785699999999964
 30
0.0
 11
0.0746999999997538
 21
8.785699999999966
 31
0.0
  0
LINE
  5
56
100
AcDbEntity
  8
USP-HID
100
AcDbLine
 10
-0.000000000000248
 20
8.738700000000021
 30
0.0
 11
0.074699999999752
 21
8.738700000000022
 31
0.0
  0
LINE
  5
57
100
AcDbEntity
  8
USP-HID
100
AcDbLine
 10
-0.000000000000252
 20
8.910700000000021
 30
0.0
 11
0.074699999999748
 21
8.910700000000023
 31
0.0
  0
LINE
  5
58
100
AcDbEntity
  8
USP-HID
100
AcDbLine
 10
-0.0000000000002214
 20
7.738700000000021
 30
0.0
 11
0.0746999999997768
 21
7.738700000000022
 31
0.0
  0
LINE
  5
59
100
AcDbEntity
  8
USP-HID
100
AcDbLine
 10
-0.0000000000002254
 20
7.910700000000021
 30
0.0
 11
0.0746999999997728
 21
7.910700000000023
 31
0.0
  0
CIRCLE
  5
5A
100
AcDbEntity
  8
USP-HID
100
AcDbCircle
 10
1.074973256840976
 20
7.490921005441679
 30
0.0
 40
0.082
  0
CIRCLE
  5
5B
100
AcDbEntity
  8
USP-GEO
100
AcDbCircle
 10
1.074973256840972
 20
7.678421005441622
 30
0.0
 40
0.082
  0
CIRCLE
  5
5C
100
AcDbEntity
  8
USP-HID
100
AcDbCircle
 10
1.074973256840952
 20
8.362848615981208
 30
0.0
 40
0.082
  0
CIRCLE
  5
5D
100
AcDbEntity
  8
USP-GEO
100
AcDbCircle
 10
1.07497325684095
 20
8.550348615981151
 30
0.0
 40
0.082
  0
ENDBLK
  5
60
100
AcDbEntity
  8
0
100
AcDbBlockEnd
  0
BLOCK
  5
C4
100
AcDbEntity
  8
0
100
AcDbBlockBegin
  2
HD210-2IF_F
 70
     0
 10
0.0
 20
0.0
 30
0.0
  3
HD210-2IF_F
  1

  0
LINE
  5
63
100
AcDbEntity
  8
USP-GEO
100
AcDbLine
 10
1.199699999999984
 20
3.895963277456736
 30
0.0
 11
1.199700000000007
 21
9.074699999999955
 31
0.0
  0
LINE
  5
64
100
AcDbEntity
  8
USP-GEO
100
AcDbLine
 10
0.0000000000000107
 20
9.074699999999994
 30
0.0
 11
0.0000000000000053
 21
3.934691949005227
 31
0.0
  0
LINE
  5
65
100
AcDbEntity
  8
USP-GEO
100
AcDbLine
 10
2.074700000000023
 20
3.895963277456679
 30
0.0
 11
2.074700000000007
 21
9.074699999999902
 31
0.0
  0
LINE
  5
66
100
AcDbEntity
  8
USP-GEO
100
AcDbLine
 10
3.274400000000001
 20
3.934691949005241
 30
0.0
 11
3.274400000000005
 21
9.074699999999936
 31
0.0
  0
LINE
  5
67
100
AcDbEntity
  8
USP-GEO
100
AcDbLine
 10
3.199700000000001
 20
3.934691949005241
 30
0.0
 11
3.199700000000005
 21
9.074699999999939
 31
0.0
  0
LINE
  5
68
100
AcDbEntity
  8
USP-GEO
100
AcDbLine
 10
0.0747000000000053
 20
3.934691949005227
 30
0.0
 11
0.0747000000000107
 21
9.074699999999992
 31
0.0
  0
TEXT
  5
69
100
AcDbEntity
  8
USP-TXT
100
AcDbText
 10
-1.504727083333317
 20
-1.395714640210073
 30
0.0
 40
0.296875
  1
HD210-2IF - FRONT VIEW
 72
     1
 11
1.637200000000015
 21
-1.395714640210073
 31
0.0
100
AcDbText
  0
CIRCLE
  5
6A
100
AcDbEntity
  8
USP-GEO
100
AcDbCircle
 10
2.637199999999937
 20
3.053195044271358
 30
0.0
 40
0.086
  0
CIRCLE
  5
6B
100
AcDbEntity
  8
USP-GEO
100
AcDbCircle
 10
2.637199999999939
 20
5.6996999999999
 30
0.0
 40
0.086
  0
ARC
  5
6C
100
AcDbEntity
  8
USP-GEO
100
AcDbCircle
 10
4.574699999999966
 20
3.895963277456736
 30
0.0
 40
2.5
100
AcDbArc
 50
179.9999999999999
 51
222.481566646073
  0
LINE
  5
6D
100
AcDbEntity
  8
USP-GEO
100
AcDbLine
 10
0.2622
 20
0.0747000000000044
 30
0.0
 11
3.012200000000028
 21
0.0747000000000027
 31
0.0
  0
LINE
  5
6E
100
AcDbEntity
  8
USP-GEO
100
AcDbLine
 10
0.2622
 20
0.0000000000000009
 30
0.0
 11
3.01220000000003
 21
-0.0000000000000009
 31
0.0
  0
ARC
  5
6F
100
AcDbEntity
  8
USP-GEO
100
AcDbCircle
 10
2.38717325684124
 20
0.5191984085206585
 30
0.0
 40
2.5
100
AcDbArc
 50
137.518433353927
 51
157.6667419904886
  0
LINE
  5
70
100
AcDbEntity
  8
USP-GEO
100
AcDbLine
 10
0.0
 20
2.207580842988773
 30
0.0
 11
-0.0000000000000018
 21
0.5191984085207297
 31
0.0
  0
LINE
  5
71
100
AcDbEntity
  8
USP-GEO
100
AcDbLine
 10
0.0747000000000036
 20
2.20758084298877
 30
0.0
 11
0.0747000000000018
 21
0.5191984085207262
 31
0.0
  0
LINE
  5
72
100
AcDbEntity
  8
USP-GEO
100
AcDbLine
 10
0.0
 20
0.519198408520643
 30
0.0
 11
0.0
 21
0.387200000000026
 31
0.0
  0
LINE
  5
73
100
AcDbEntity
  8
USP-GEO
100
AcDbLine
 10
0.0747000000000018
 20
0.387200000000028
 30
0.0
 11
0.0747000000000018
 21
0.519198408520645
 31
0.0
  0
LINE
  5
74
100
AcDbEntity
  8
USP-GEO
100
AcDbLine
 10
0.0747000000000018
 20
0.3872000000000284
 30
0.0
 11
0.0000000000000018
 21
0.3872000000000284
 31
0.0
  0
LINE
  5
75
100
AcDbEntity
  8
USP-GEO
100
AcDbLine
 10
0.2622
 20
-0.0000000000000002
 30
0.0
 11
0.0
 21
0.0
 31
0.0
  0
LINE
  5
76
100
AcDbEntity
  8
USP-GEO
100
AcDbLine
 10
0.0
 20
0.3872000000000568
 30
0.0
 11
0.0
 21
0.000000000000002
 31
0.0
  0
LINE
  5
77
100
AcDbEntity
  8
USP-GEO
100
AcDbLine
 10
0.0747000000000018
 20
0.3872000000000568
 30
0.0
 11
0.0747000000000018
 21
0.0747000000000009
 31
0.0
  0
LINE
  5
78
100
AcDbEntity
  8
USP-GEO
100
AcDbLine
 10
0.2622
 20
0.0747
 30
0.0
 11
0.0747000000000036
 21
0.0747000000000002
 31
0.0
  0
LINE
  5
79
100
AcDbEntity
  8
USP-GEO
100
AcDbLine
 10
0.2622000000000018
 20
0.0747
 30
0.0
 11
0.2622000000000018
 21
0.0000000000000013
 31
0.0
  0
LINE
  5
7A
100
AcDbEntity
  8
USP-HID
100
AcDbLine
 10
0.0747000000000018
 20
1.469181269626005
 30
0.0
 11
0.0000000000000036
 21
1.469181269626005
 31
0.0
  0
LINE
  5
7B
100
AcDbEntity
  8
USP-HID
100
AcDbLine
 10
1.009920779386355
 20
0.0746999999999929
 30
0.0
 11
1.009920779386355
 21
-0.0000000000000078
 31
0.0
  0
LINE
  5
7C
100
AcDbEntity
  8
USP-HID
100
AcDbLine
 10
1.137199999999973
 20
0.0746999999999964
 30
0.0
 11
1.137199999999973
 21
-0.0000000000000022
 31
0.0
  0
LINE
  5
7D
100
AcDbEntity
  8
USP-HID
100
AcDbLine
 10
1.26447922061353
 20
0.0746999999999929
 30
0.0
 11
1.26447922061353
 21
-0.0000000000000064
 31
0.0
  0
LINE
  5
7E
100
AcDbEntity
  8
USP-HID
100
AcDbLine
 10
1.483700000000002
 20
0.0746999999999751
 30
0.0
 11
1.483700000000002
 21
-0.0000000000000249
 31
0.0
  0
LINE
  5
7F
100
AcDbEntity
  8
USP-HID
100
AcDbLine
 10
1.790700000000001
 20
0.0746999999999751
 30
0.0
 11
1.790700000000001
 21
-0.0000000000000249
 31
0.0
  0
LINE
  5
80
100
AcDbEntity
  8
USP-HID
100
AcDbLine
 10
2.009920779386357
 20
0.0746999999999929
 30
0.0
 11
2.009920779386357
 21
-0.0000000000000078
 31
0.0
  0
LINE
  5
81
100
AcDbEntity
  8
USP-HID
100
AcDbLine
 10
2.137199999999969
 20
0.0746999999999964
 30
0.0
 11
2.137199999999969
 21
-0.0000000000000062
 31
0.0
  0
LINE
  5
82
100
AcDbEntity
  8
USP-HID
100
AcDbLine
 10
2.26447922061353
 20
0.0746999999999929
 30
0.0
 11
2.26447922061353
 21
-0.0000000000000064
 31
0.0
  0
LINE
  5
83
100
AcDbEntity
  8
USP-GEO
100
AcDbLine
 10
0.0000000000000036
 20
3.934691949005226
 30
0.0
 11
0.0000000000000018
 21
2.207580842988766
 31
0.0
  0
LINE
  5
84
100
AcDbEntity
  8
USP-GEO
100
AcDbLine
 10
0.0747000000000018
 20
2.207580842988766
 30
0.0
 11
0.0747000000000036
 21
3.934691949005226
 31
0.0
  0
LINE
  5
85
100
AcDbEntity
  8
USP-HID
100
AcDbLine
 10
0.0747000000000053
 20
2.180199999999953
 30
0.0
 11
0.0000000000000036
 21
2.180199999999953
 31
0.0
  0
LINE
  5
86
100
AcDbEntity
  8
USP-HID
100
AcDbLine
 10
0.0747000000000053
 20
2.344199999999953
 30
0.0
 11
0.0000000000000018
 21
2.344199999999953
 31
0.0
  0
LINE
  5
87
100
AcDbEntity
  8
USP-HID
100
AcDbLine
 10
0.0747000000000053
 20
3.789037232443548
 30
0.0
 11
0.0000000000000036
 21
3.789037232443548
 31
0.0
  0
LINE
  5
88
100
AcDbEntity
  8
USP-HID
100
AcDbLine
 10
0.0747000000000071
 20
4.216260080790426
 30
0.0
 11
0.0000000000000036
 21
4.216260080790426
 31
0.0
  0
LINE
  5
89
100
AcDbEntity
  8
USP-HID
100
AcDbLine
 10
0.0747000000000053
 20
4.406260080790424
 30
0.0
 11
0.0000000000000053
 21
4.406260080790424
 31
0.0
  0
LINE
  5
8A
100
AcDbEntity
  8
USP-HID
100
AcDbLine
 10
0.0747000000000053
 20
3.953037232443548
 30
0.0
 11
0.0000000000000053
 21
3.953037232443548
 31
0.0
  0
ARC
  5
8B
100
AcDbEntity
  8
USP-GEO
100
AcDbCircle
 10
0.0747000000000142
 20
4.311260080790425
 30
0.0
 40
0.095
100
AcDbArc
 50
270.0
 51
90.0
  0
LINE
  5
8C
100
AcDbEntity
  8
USP-HID
100
AcDbLine
 10
0.0747000000000053
 20
4.588401308014597
 30
0.0
 11
0.0000000000000053
 21
4.588401308014597
 31
0.0
  0
LINE
  5
8D
100
AcDbEntity
  8
USP-HID
100
AcDbLine
 10
0.0747000000000071
 20
4.752401308014596
 30
0.0
 11
0.0000000000000036
 21
4.752401308014596
 31
0.0
  0
LINE
  5
8E
100
AcDbEntity
  8
USP-HID
100
AcDbLine
 10
0.0747000000000089
 20
6.425769385878454
 30
0.0
 11
0.0000000000000053
 21
6.425769385878454
 31
0.0
  0
LINE
  5
8F
100
AcDbEntity
  8
USP-HID
100
AcDbLine
 10
0.0747000000000089
 20
6.732769385878453
 30
0.0
 11
0.0000000000000053
 21
6.732769385878453
 31
0.0
  0
CIRCLE
  5
90
100
AcDbEntity
  8
USP-GEO
100
AcDbCircle
 10
0.6372000000000693
 20
3.199699999999932
 30
0.0
 40
0.086
  0
ARC
  5
91
100
AcDbEntity
  8
USP-GEO
100
AcDbCircle
 10
-1.300299999999958
 20
3.895963277456736
 30
0.0
 40
2.5
100
AcDbArc
 50
317.5184333539281
 51
359.9999999999999
  0
CIRCLE
  5
92
100
AcDbEntity
  8
USP-GEO
100
AcDbCircle
 10
0.4497000000000693
 20
2.589534965323714
 30
0.0
 40
0.086
  0
CIRCLE
  5
93
100
AcDbEntity
  8
USP-GEO
100
AcDbCircle
 10
0.824700000000071
 20
3.824699999999957
 30
0.0
 40
0.086
  0
CIRCLE
  5
94
100
AcDbEntity
  8
USP-GEO
100
AcDbCircle
 10
2.449699999999937
 20
3.824699999999904
 30
0.0
 40
0.086
  0
CIRCLE
  5
95
100
AcDbEntity
  8
USP-GEO
100
AcDbCircle
 10
0.6372000000000711
 20
5.824699999999957
 30
0.0
 40
0.086
  0
CIRCLE
  5
96
100
AcDbEntity
  8
USP-GEO
100
AcDbCircle
 10
0.4497000000000711
 20
4.824699999999957
 30
0.0
 40
0.086
  0
CIRCLE
  5
97
100
AcDbEntity
  8
USP-GEO
100
AcDbCircle
 10
0.824700000000071
 20
6.824699999999957
 30
0.0
 40
0.086
  0
CIRCLE
  5
98
100
AcDbEntity
  8
USP-GEO
100
AcDbCircle
 10
2.449699999999941
 20
6.6996999999999
 30
0.0
 40
0.086
  0
ARC
  5
99
100
AcDbEntity
  8
USP-GEO
100
AcDbCircle
 10
0.8872267431587612
 20
0.5191984085206621
 30
0.0
 40
2.5
100
AcDbArc
 50
22.33325800951033
 51
42.48156664607164
  0
LINE
  5
9A
100
AcDbEntity
  8
USP-GEO
100
AcDbLine
 10
3.274399999999996
 20
0.5191984085207262
 30
0.0
 11
3.274399999999998
 21
2.207580842988768
 31
0.0
  0
LINE
  5
9B
100
AcDbEntity
  8
USP-GEO
100
AcDbLine
 10
3.199699999999996
 20
0.5191984085207262
 30
0.0
 11
3.199699999999998
 21
2.207580842988768
 31
0.0
  0
LINE
  5
9C
100
AcDbEntity
  8
USP-GEO
100
AcDbLine
 10
3.274399999999998
 20
0.3872000000000271
 30
0.0
 11
3.274399999999998
 21
0.5191984085206438
 31
0.0
  0
LINE
  5
9D
100
AcDbEntity
  8
USP-GEO
100
AcDbLine
 10
3.199699999999998
 20
0.3872000000000291
 30
0.0
 11
3.199699999999998
 21
0.5191984085206461
 31
0.0
  0
LINE
  5
9E
100
AcDbEntity
  8
USP-GEO
100
AcDbLine
 10
3.012200000000028
 20
0.0746999999999964
 30
0.0
 11
3.199699999999996
 21
0.0746999999999962
 31
0.0
  0
LINE
  5
9F
100
AcDbEntity
  8
USP-GEO
100
AcDbLine
 10
3.012200000000028
 20
0.0
 30
0.0
 11
3.274399999999996
 21
-0.0000000000000002
 31
0.0
  0
LINE
  5
A0
100
AcDbEntity
  8
USP-GEO
100
AcDbLine
 10
3.01220000000003
 20
0.0747
 30
0.0
 11
3.01220000000003
 21
-0.0000000000000007
 31
0.0
  0
LINE
  5
A1
100
AcDbEntity
  8
USP-GEO
100
AcDbLine
 10
3.274399999999996
 20
0.0
 30
0.0
 11
3.274399999999996
 21
0.3872000000000582
 31
0.0
  0
LINE
  5
A2
100
AcDbEntity
  8
USP-GEO
100
AcDbLine
 10
3.199699999999998
 20
0.0746999999999991
 30
0.0
 11
3.199699999999998
 21
0.3872000000000546
 31
0.0
  0
LINE
  5
A3
100
AcDbEntity
  8
USP-GEO
100
AcDbLine
 10
3.199699999999996
 20
0.3872000000000284
 30
0.0
 11
3.274399999999998
 21
0.3872000000000284
 31
0.0
  0
LINE
  5
A4
100
AcDbEntity
  8
USP-HID
100
AcDbLine
 10
3.199700000000001
 20
1.469181269625959
 30
0.0
 11
3.274399999999999
 21
1.469181269625959
 31
0.0
  0
LINE
  5
A5
100
AcDbEntity
  8
USP-GEO
100
AcDbLine
 10
3.274399999999999
 20
2.207580842988765
 30
0.0
 11
3.274400000000001
 21
3.93469194900524
 31
0.0
  0
LINE
  5
A6
100
AcDbEntity
  8
USP-GEO
100
AcDbLine
 10
3.199699999999999
 20
3.934691949005236
 30
0.0
 11
3.199699999999998
 21
2.207580842988765
 31
0.0
  0
CIRCLE
  5
A7
100
AcDbEntity
  8
USP-GEO
100
AcDbCircle
 10
2.824699999999937
 20
2.495353208069623
 30
0.0
 40
0.086
  0
LINE
  5
A8
100
AcDbEntity
  8
USP-HID
100
AcDbLine
 10
3.199700000000001
 20
2.344199999999896
 30
0.0
 11
3.274400000000001
 21
2.344199999999896
 31
0.0
  0
LINE
  5
A9
100
AcDbEntity
  8
USP-HID
100
AcDbLine
 10
3.199700000000001
 20
2.180199999999897
 30
0.0
 11
3.274400000000001
 21
2.180199999999897
 31
0.0
  0
ARC
  5
AA
100
AcDbEntity
  8
USP-GEO
100
AcDbCircle
 10
3.199699999999994
 20
4.142330897144212
 30
0.0
 40
0.095
100
AcDbArc
 50
90.0
 51
270.0
  0
LINE
  5
AB
100
AcDbEntity
  8
USP-HID
100
AcDbLine
 10
3.199700000000003
 20
4.047330897144213
 30
0.0
 11
3.274400000000001
 21
4.047330897144213
 31
0.0
  0
LINE
  5
AC
100
AcDbEntity
  8
USP-HID
100
AcDbLine
 10
3.199700000000001
 20
3.976537232443491
 30
0.0
 11
3.274400000000001
 21
3.976537232443491
 31
0.0
  0
LINE
  5
AD
100
AcDbEntity
  8
USP-HID
100
AcDbLine
 10
3.199700000000001
 20
4.237330897144211
 30
0.0
 11
3.274400000000001
 21
4.237330897144211
 31
0.0
  0
LINE
  5
AE
100
AcDbEntity
  8
USP-HID
100
AcDbLine
 10
3.199700000000001
 20
4.140537232443491
 30
0.0
 11
3.274400000000001
 21
4.140537232443491
 31
0.0
  0
CIRCLE
  5
AF
100
AcDbEntity
  8
USP-GEO
100
AcDbCircle
 10
2.824699999999939
 20
4.6996999999999
 30
0.0
 40
0.086
  0
LINE
  5
B0
100
AcDbEntity
  8
USP-HID
100
AcDbLine
 10
3.199700000000005
 20
4.77590130801454
 30
0.0
 11
3.274399999999998
 21
4.77590130801454
 31
0.0
  0
LINE
  5
B1
100
AcDbEntity
  8
USP-HID
100
AcDbLine
 10
3.199700000000001
 20
4.939901308014539
 30
0.0
 11
3.274400000000001
 21
4.939901308014539
 31
0.0
  0
LINE
  5
B2
100
AcDbEntity
  8
USP-HID
100
AcDbLine
 10
3.199700000000001
 20
6.425769385878454
 30
0.0
 11
3.274400000000001
 21
6.425769385878454
 31
0.0
  0
LINE
  5
B3
100
AcDbEntity
  8
USP-HID
100
AcDbLine
 10
3.199700000000005
 20
6.732769385878453
 30
0.0
 11
3.274400000000003
 21
6.732769385878453
 31
0.0
  0
CIRCLE
  5
B4
100
AcDbEntity
  8
USP-GEO
100
AcDbCircle
 10
2.637199999999941
 20
8.6996999999999
 30
0.0
 40
0.086
  0
LINE
  5
B5
100
AcDbEntity
  8
USP-GEO
100
AcDbLine
 10
3.199700000000007
 20
9.0746999999999
 30
0.0
 11
2.074700000000014
 21
9.0746999999999
 31
0.0
  0
LINE
  5
B6
100
AcDbEntity
  8
USP-GEO
100
AcDbLine
 10
0.0747000000000107
 20
9.074699999999957
 30
0.0
 11
1.19970000000001
 21
9.074699999999957
 31
0.0
  0
LINE
  5
B7
100
AcDbEntity
  8
USP-HID
100
AcDbLine
 10
0.0747000000000107
 20
7.408921005441612
 30
0.0
 11
0.0000000000000089
 21
7.408921005441612
 31
0.0
  0
LINE
  5
B8
100
AcDbEntity
  8
USP-HID
100
AcDbLine
 10
0.0747000000000089
 20
7.572921005441614
 30
0.0
 11
0.0000000000000089
 21
7.572921005441614
 31
0.0
  0
LINE
  5
B9
100
AcDbEntity
  8
USP-HID
100
AcDbLine
 10
0.0747000000000089
 20
8.280848615981142
 30
0.0
 11
0.0000000000000107
 21
8.280848615981142
 31
0.0
  0
LINE
  5
BA
100
AcDbEntity
  8
USP-HID
100
AcDbLine
 10
0.0747000000000107
 20
8.444848615981143
 30
0.0
 11
0.0000000000000107
 21
8.444848615981143
 31
0.0
  0
LINE
  5
BB
100
AcDbEntity
  8
USP-GEO
100
AcDbLine
 10
0.0747000000000089
 20
9.074699999999992
 30
0.0
 11
0.0000000000000124
 21
9.074699999999992
 31
0.0
  0
CIRCLE
  5
BC
100
AcDbEntity
  8
USP-GEO
100
AcDbCircle
 10
0.4497000000000764
 20
7.824699999999957
 30
0.0
 40
0.086
  0
CIRCLE
  5
BD
100
AcDbEntity
  8
USP-GEO
100
AcDbCircle
 10
0.6372000000000746
 20
8.824699999999957
 30
0.0
 40
0.086
  0
CIRCLE
  5
BE
100
AcDbEntity
  8
USP-GEO
100
AcDbCircle
 10
2.824699999999941
 20
7.6996999999999
 30
0.0
 40
0.086
  0
LINE
  5
BF
100
AcDbEntity
  8
USP-HID
100
AcDbLine
 10
3.199700000000005
 20
7.760421005441557
 30
0.0
 11
3.274400000000003
 21
7.760421005441557
 31
0.0
  0
LINE
  5
C0
100
AcDbEntity
  8
USP-HID
100
AcDbLine
 10
3.199700000000005
 20
7.596421005441555
 30
0.0
 11
3.274400000000005
 21
7.596421005441555
 31
0.0
  0
LINE
  5
C1
100
AcDbEntity
  8
USP-HID
100
AcDbLine
 10
3.199700000000005
 20
8.632348615981086
 30
0.0
 11
3.274400000000005
 21
8.632348615981086
 31
0.0
  0
LINE
  5
C2
100
AcDbEntity
  8
USP-HID
100
AcDbLine
 10
3.199700000000005
 20
8.468348615981085
 30
0.0
 11
3.274400000000005
 21
8.468348615981085
 31
0.0
  0
LINE
  5
C3
100
AcDbEntity
  8
USP-GEO
100
AcDbLine
 10
3.199700000000003
 20
9.074699999999936
 30
0.0
 11
3.274400000000003
 21
9.074699999999936
 31
0.0
  0
ENDBLK
  5
C5
100
AcDbEntity
  8
0
100
AcDbBlockEnd
  0
BLOCK
  5
116
100
AcDbEntity
  8
0
100
AcDbBlockBegin
  2
HD210-2IF_T
 70
     0
 10
0.0
 20
0.0
 30
0.0
  3
HD210-2IF_T
  1

  0
TEXT
  5
C8
100
AcDbEntity
  8
USP-TXT
100
AcDbText
 10
-1.207852083333317
 20
-1.089828373537159
 30
0.0
 40
0.296875
  1
HD210-2IF - TOP VIEW
 72
     1
 11
1.637200000000014
 21
-1.089828373537159
 31
0.0
100
AcDbText
  0
LINE
  5
C9
100
AcDbEntity
  8
USP-GEO
100
AcDbLine
 10
3.199700000000005
 20
2.687500000000262
 30
0.0
 11
2.074700000000012
 21
2.687500000000262
 31
0.0
  0
LINE
  5
CA
100
AcDbEntity
  8
USP-GEO
100
AcDbLine
 10
0.2622
 20
0.0000000000000728
 30
0.0
 11
3.012200000000028
 21
0.0000000000000124
 31
0.0
  0
LINE
  5
CB
100
AcDbEntity
  8
USP-GEO
100
AcDbLine
 10
0.2621999999999716
 20
2.49997325684118
 30
0.0
 11
3.012200000000055
 21
2.499973256841261
 31
0.0
  0
LINE
  5
CC
100
AcDbEntity
  8
USP-GEO
100
AcDbLine
 10
3.274400000000001
 20
2.762200000000262
 30
0.0
 11
2.074700000000008
 21
2.762200000000262
 31
0.0
  0
LINE
  5
CD
100
AcDbEntity
  8
USP-GEO
100
AcDbLine
 10
0.0747000000000089
 20
2.687500000000262
 30
0.0
 11
1.199700000000008
 21
2.687500000000262
 31
0.0
  0
LINE
  5
CE
100
AcDbEntity
  8
USP-GEO
100
AcDbLine
 10
1.199700000000005
 20
2.762200000000262
 30
0.0
 11
0.0000000000000089
 21
2.762200000000262
 31
0.0
  0
LINE
  5
CF
100
AcDbEntity
  8
USP-GEO
100
AcDbLine
 10
0.0000000000000089
 20
2.762200000000262
 30
0.0
 11
0.0000000000000071
 21
1.312226743159095
 31
0.0
  0
LINE
  5
D0
100
AcDbEntity
  8
USP-GEO
100
AcDbLine
 10
0.0747000000000071
 20
2.687500000000262
 30
0.0
 11
0.0747000000000053
 21
1.312226743159094
 31
0.0
  0
LINE
  5
D1
100
AcDbEntity
  8
USP-GEO
100
AcDbLine
 10
0.0000000000000018
 20
1.31222674315906
 30
0.0
 11
0.0
 21
0.6562633715795183
 31
0.0
  0
LINE
  5
D2
100
AcDbEntity
  8
USP-GEO
100
AcDbLine
 10
0.0747000000000018
 20
0.6562633715795183
 30
0.0
 11
0.0747000000000036
 21
1.31222674315906
 31
0.0
  0
LINE
  5
D3
100
AcDbEntity
  8
USP-GEO
100
AcDbLine
 10
-0.0000000000000018
 20
0.6562633715795077
 30
0.0
 11
-0.0000000000000036
 21
0.0000000000000497
 31
0.0
  0
LINE
  5
D4
100
AcDbEntity
  8
USP-GEO
100
AcDbLine
 10
0.0747000000000018
 20
0.6562633715795077
 30
0.0
 11
0.0747
 21
0.0000000000000497
 31
0.0
  0
LINE
  5
D5
100
AcDbEntity
  8
USP-HID
100
AcDbLine
 10
0.0747
 20
0.0624999999999929
 30
0.0
 11
0.0
 21
0.0624999999999929
 31
0.0
  0
LINE
  5
D6
100
AcDbEntity
  8
USP-GEO
100
AcDbLine
 10
0.0747
 20
0.0
 30
0.0
 11
0.0
 21
0.0
 31
0.0
  0
LINE
  5
D7
100
AcDbEntity
  8
USP-GEO
100
AcDbLine
 10
0.2621999999999982
 20
0.0625
 30
0.0
 11
0.0747000000000018
 21
0.0624999999999947
 31
0.0
  0
LINE
  5
D8
100
AcDbEntity
  8
USP-GEO
100
AcDbLine
 10
0.2621999999999982
 20
0.0625000000000071
 30
0.0
 11
0.2621999999999698
 21
0.0000000000000089
 31
0.0
  0
LINE
  5
D9
100
AcDbEntity
  8
USP-HID
100
AcDbLine
 10
0.0747000000000036
 20
1.31252674315894
 30
0.0
 11
0.0000000000000036
 21
1.31252674315894
 31
0.0
  0
LINE
  5
DA
100
AcDbEntity
  8
USP-GEO
100
AcDbLine
 10
0.0747000000000053
 20
1.312226743159094
 30
0.0
 11
0.0000000000000089
 21
1.312226743159094
 31
0.0
  0
LINE
  5
DB
100
AcDbEntity
  8
USP-HID
100
AcDbLine
 10
0.0747000000000053
 20
2.09650000000019
 30
0.0
 11
0.0000000000000053
 21
2.09650000000019
 31
0.0
  0
LINE
  5
DC
100
AcDbEntity
  8
USP-HID
100
AcDbLine
 10
0.0747000000000089
 20
1.605226743159057
 30
0.0
 11
0.0000000000000089
 21
1.605226743159057
 31
0.0
  0
LINE
  5
DD
100
AcDbEntity
  8
USP-HID
100
AcDbLine
 10
0.0747000000000089
 20
1.769226743159059
 30
0.0
 11
0.0000000000000089
 21
1.769226743159059
 31
0.0
  0
LINE
  5
DE
100
AcDbEntity
  8
USP-HID
100
AcDbLine
 10
0.0747000000000018
 20
2.437473256841279
 30
0.0
 11
0.0000000000000018
 21
2.437473256841279
 31
0.0
  0
LINE
  5
DF
100
AcDbEntity
  8
USP-HID
100
AcDbLine
 10
0.0747
 20
2.499973256841279
 30
0.0
 11
0.0
 21
2.499973256841279
 31
0.0
  0
LINE
  5
E0
100
AcDbEntity
  8
USP-HID
100
AcDbLine
 10
0.0747
 20
2.687500000000028
 30
0.0
 11
0.0000000000000018
 21
2.687500000000028
 31
0.0
  0
LINE
  5
E1
100
AcDbEntity
  8
USP-HID
100
AcDbLine
 10
0.0747000000000053
 20
2.403500000000192
 30
0.0
 11
0.0000000000000053
 21
2.403500000000192
 31
0.0
  0
LINE
  5
E2
100
AcDbEntity
  8
USP-HID
100
AcDbLine
 10
0.0747000000000053
 20
2.592500000000121
 30
0.0
 11
0.0000000000000018
 21
2.592500000000121
 31
0.0
  0
LINE
  5
E3
100
AcDbEntity
  8
USP-GEO
100
AcDbLine
 10
0.2621999999999751
 20
2.437473256841265
 30
0.0
 11
0.0747000000000018
 21
2.437473256841272
 31
0.0
  0
LINE
  5
E4
100
AcDbEntity
  8
USP-GEO
100
AcDbLine
 10
0.2622
 20
2.437473256841265
 30
0.0
 11
0.2621999999999716
 21
2.49997325684118
 31
0.0
  0
LINE
  5
E5
100
AcDbEntity
  8
USP-HID
100
AcDbLine
 10
0.0747
 20
2.687500000000028
 30
0.0
 11
0.0747
 21
2.762200000000028
 31
0.0
  0
LINE
  5
E6
100
AcDbEntity
  8
USP-HID
100
AcDbLine
 10
0.1697000000000131
 20
2.687500000000149
 30
0.0
 11
0.1697000000000131
 21
2.762200000000149
 31
0.0
  0
LINE
  5
E7
100
AcDbEntity
  8
USP-GEO
100
AcDbLine
 10
1.264479220613528
 20
0.3000000000000558
 30
0.0
 11
1.137199999999971
 21
0.1727207793864682
 31
0.0
  0
LINE
  5
E8
100
AcDbEntity
  8
USP-GEO
100
AcDbLine
 10
1.137199999999968
 20
0.1727207793864629
 30
0.0
 11
1.00992077938635
 21
0.3000000000000522
 31
0.0
  0
LINE
  5
E9
100
AcDbEntity
  8
USP-GEO
100
AcDbLine
 10
1.137199999999968
 20
0.4272792206136114
 30
0.0
 11
1.264479220613527
 21
0.3000000000000522
 31
0.0
  0
LINE
  5
EA
100
AcDbEntity
  8
USP-GEO
100
AcDbLine
 10
1.009920779386353
 20
0.3000000000000558
 30
0.0
 11
1.137199999999968
 21
0.4272792206136149
 31
0.0
  0
CIRCLE
  5
EB
100
AcDbEntity
  8
USP-GEO
100
AcDbCircle
 10
1.637199999999998
 20
0.9999866284206291
 30
0.0
 40
0.1535
  0
LINE
  5
EC
100
AcDbEntity
  8
USP-GEO
100
AcDbLine
 10
2.137199999999968
 20
0.1727207793864629
 30
0.0
 11
2.009920779386352
 21
0.3000000000000504
 31
0.0
  0
LINE
  5
ED
100
AcDbEntity
  8
USP-GEO
100
AcDbLine
 10
2.009920779386353
 20
0.3000000000000575
 30
0.0
 11
2.137199999999968
 21
0.4272792206136167
 31
0.0
  0
LINE
  5
EE
100
AcDbEntity
  8
USP-GEO
100
AcDbLine
 10
2.264479220613528
 20
0.3000000000000558
 30
0.0
 11
2.137199999999969
 21
0.1727207793864682
 31
0.0
  0
LINE
  5
EF
100
AcDbEntity
  8
USP-GEO
100
AcDbLine
 10
2.137199999999969
 20
0.4272792206136114
 30
0.0
 11
2.264479220613528
 21
0.300000000000054
 31
0.0
  0
LINE
  5
F0
100
AcDbEntity
  8
USP-HID
100
AcDbLine
 10
0.3637000000000725
 20
2.687500000000234
 30
0.0
 11
0.3637000000000725
 21
2.762200000000234
 31
0.0
  0
LINE
  5
F1
100
AcDbEntity
  8
USP-HID
100
AcDbLine
 10
0.5357000000000732
 20
2.687500000000234
 30
0.0
 11
0.5357000000000732
 21
2.762200000000234
 31
0.0
  0
LINE
  5
F2
100
AcDbEntity
  8
USP-HID
100
AcDbLine
 10
0.5512000000000726
 20
2.687500000000255
 30
0.0
 11
0.5512000000000726
 21
2.762200000000255
 31
0.0
  0
LINE
  5
F3
100
AcDbEntity
  8
USP-HID
100
AcDbLine
 10
0.738700000000069
 20
2.687500000000206
 30
0.0
 11
0.738700000000069
 21
2.762200000000206
 31
0.0
  0
LINE
  5
F4
100
AcDbEntity
  8
USP-HID
100
AcDbLine
 10
0.7232000000000732
 20
2.687500000000255
 30
0.0
 11
0.7232000000000732
 21
2.762200000000255
 31
0.0
  0
LINE
  5
F5
100
AcDbEntity
  8
USP-HID
100
AcDbLine
 10
0.9107000000000695
 20
2.687500000000206
 30
0.0
 11
0.9107000000000695
 21
2.762200000000206
 31
0.0
  0
LINE
  5
F6
100
AcDbEntity
  8
USP-GEO
100
AcDbLine
 10
1.199700000000007
 20
2.687500000000262
 30
0.0
 11
1.199700000000007
 21
2.762200000000262
 31
0.0
  0
LINE
  5
F7
100
AcDbEntity
  8
USP-GEO
100
AcDbLine
 10
2.07470000000001
 20
2.687500000000262
 30
0.0
 11
2.07470000000001
 21
2.762200000000262
 31
0.0
  0
LINE
  5
F8
100
AcDbEntity
  8
USP-HID
100
AcDbLine
 10
2.363699999999937
 20
2.687500000000198
 30
0.0
 11
2.363699999999937
 21
2.762200000000198
 31
0.0
  0
LINE
  5
F9
100
AcDbEntity
  8
USP-HID
100
AcDbLine
 10
2.551199999999941
 20
2.687500000000255
 30
0.0
 11
2.551199999999941
 21
2.762200000000255
 31
0.0
  0
LINE
  5
FA
100
AcDbEntity
  8
USP-HID
100
AcDbLine
 10
2.535699999999938
 20
2.687500000000198
 30
0.0
 11
2.535699999999938
 21
2.762200000000198
 31
0.0
  0
LINE
  5
FB
100
AcDbEntity
  8
USP-GEO
100
AcDbLine
 10
3.274399999999999
 20
1.312226743159094
 30
0.0
 11
3.274400000000001
 21
2.762200000000262
 31
0.0
  0
LINE
  5
FC
100
AcDbEntity
  8
USP-GEO
100
AcDbLine
 10
3.199700000000001
 20
2.687500000000262
 30
0.0
 11
3.199699999999999
 21
1.312226743159094
 31
0.0
  0
LINE
  5
FD
100
AcDbEntity
  8
USP-GEO
100
AcDbLine
 10
3.274399999999998
 20
0.656263371579513
 30
0.0
 11
3.274399999999999
 21
1.31222674315906
 31
0.0
  0
LINE
  5
FE
100
AcDbEntity
  8
USP-GEO
100
AcDbLine
 10
3.199699999999998
 20
1.312226743159058
 30
0.0
 11
3.199699999999996
 21
0.6562633715795095
 31
0.0
  0
LINE
  5
FF
100
AcDbEntity
  8
USP-GEO
100
AcDbLine
 10
3.012200000000026
 20
0.0625
 30
0.0
 11
3.199699999999994
 21
0.0624999999999947
 31
0.0
  0
LINE
  5
100
100
AcDbEntity
  8
USP-GEO
100
AcDbLine
 10
3.012199999999999
 20
0.0625
 30
0.0
 11
3.012200000000028
 21
0.0000000000000124
 31
0.0
  0
LINE
  5
101
100
AcDbEntity
  8
USP-GEO
100
AcDbLine
 10
3.274399999999994
 20
0.0000000000000497
 30
0.0
 11
3.274399999999996
 21
0.6562633715795059
 31
0.0
  0
LINE
  5
102
100
AcDbEntity
  8
USP-GEO
100
AcDbLine
 10
3.199699999999994
 20
0.0000000000000497
 30
0.0
 11
3.199699999999996
 21
0.6562633715795059
 31
0.0
  0
LINE
  5
103
100
AcDbEntity
  8
USP-HID
100
AcDbLine
 10
3.199699999999996
 20
0.0624999999999929
 30
0.0
 11
3.274399999999994
 21
0.0624999999999929
 31
0.0
  0
LINE
  5
104
100
AcDbEntity
  8
USP-GEO
100
AcDbLine
 10
3.199699999999994
 20
-0.0000000000000071
 30
0.0
 11
3.274399999999996
 21
-0.0000000000000071
 31
0.0
  0
LINE
  5
105
100
AcDbEntity
  8
USP-HID
100
AcDbLine
 10
3.199699999999998
 20
1.312526743158933
 30
0.0
 11
3.274399999999999
 21
1.312526743158933
 31
0.0
  0
LINE
  5
106
100
AcDbEntity
  8
USP-GEO
100
AcDbLine
 10
3.199700000000001
 20
1.312226743159094
 30
0.0
 11
3.274400000000001
 21
1.312226743159094
 31
0.0
  0
LINE
  5
107
100
AcDbEntity
  8
USP-HID
100
AcDbLine
 10
3.199700000000003
 20
1.769226743159059
 30
0.0
 11
3.274400000000001
 21
1.769226743159059
 31
0.0
  0
LINE
  5
108
100
AcDbEntity
  8
USP-HID
100
AcDbLine
 10
3.199700000000003
 20
1.605226743159057
 30
0.0
 11
3.274400000000001
 21
1.605226743159057
 31
0.0
  0
LINE
  5
109
100
AcDbEntity
  8
USP-HID
100
AcDbLine
 10
3.199699999999999
 20
2.09650000000019
 30
0.0
 11
3.274400000000001
 21
2.09650000000019
 31
0.0
  0
LINE
  5
10A
100
AcDbEntity
  8
USP-GEO
100
AcDbLine
 10
3.012200000000001
 20
2.437473256841258
 30
0.0
 11
3.199699999999998
 21
2.437473256841261
 31
0.0
  0
LINE
  5
10B
100
AcDbEntity
  8
USP-HID
100
AcDbLine
 10
2.723199999999941
 20
2.687500000000255
 30
0.0
 11
2.723199999999941
 21
2.762200000000255
 31
0.0
  0
LINE
  5
10C
100
AcDbEntity
  8
USP-HID
100
AcDbLine
 10
2.738699999999939
 20
2.687500000000227
 30
0.0
 11
2.738699999999939
 21
2.762200000000227
 31
0.0
  0
LINE
  5
10D
100
AcDbEntity
  8
USP-GEO
100
AcDbLine
 10
3.012200000000001
 20
2.437473256841258
 30
0.0
 11
3.01220000000003
 21
2.499973256841258
 31
0.0
  0
LINE
  5
10E
100
AcDbEntity
  8
USP-HID
100
AcDbLine
 10
2.910699999999939
 20
2.687500000000227
 30
0.0
 11
2.910699999999939
 21
2.762200000000227
 31
0.0
  0
LINE
  5
10F
100
AcDbEntity
  8
USP-HID
100
AcDbLine
 10
3.104699999999992
 20
2.687500000000135
 30
0.0
 11
3.104699999999992
 21
2.762200000000134
 31
0.0
  0
LINE
  5
110
100
AcDbEntity
  8
USP-HID
100
AcDbLine
 10
3.199699999999994
 20
2.499973256841279
 30
0.0
 11
3.274399999999996
 21
2.499973256841279
 31
0.0
  0
LINE
  5
111
100
AcDbEntity
  8
USP-HID
100
AcDbLine
 10
3.199699999999998
 20
2.437473256841272
 30
0.0
 11
3.274399999999999
 21
2.437473256841272
 31
0.0
  0
LINE
  5
112
100
AcDbEntity
  8
USP-HID
100
AcDbLine
 10
3.199699999999999
 20
2.403500000000192
 30
0.0
 11
3.274400000000001
 21
2.403500000000192
 31
0.0
  0
LINE
  5
113
100
AcDbEntity
  8
USP-HID
100
AcDbLine
 10
3.199699999999998
 20
2.762200000000007
 30
0.0
 11
3.199699999999998
 21
2.687500000000007
 31
0.0
  0
LINE
  5
114
100
AcDbEntity
  8
USP-HID
100
AcDbLine
 10
3.199699999999999
 20
2.687500000000007
 30
0.0
 11
3.274399999999998
 21
2.687500000000007
 31
0.0
  0
LINE
  5
115
100
AcDbEntity
  8
USP-HID
100
AcDbLine
 10
3.199699999999999
 20
2.592500000000114
 30
0.0
 11
3.274399999999999
 21
2.592500000000114
 31
0.0
  0
ENDBLK
  5
117
100
AcDbEntity
  8
0
100
AcDbBlockEnd
  0
ENDSEC
  0
SECTION
  2
ENTITIES
  0
INSERT
  5
3
100
AcDbEntity
  8
USP
100
AcDbBlockReference
  2
HD210-2IF_S
 10
1.547529383216512
 20
1.395942985873985
 30
0.0
  0
INSERT
  5
61
100
AcDbEntity
  8
USP
100
AcDbBlockReference
  2
HD210-2IF_F
 10
9.148524383068595
 20
1.395942985874022
 30
0.0
  0
INSERT
  5
C6
100
AcDbEntity
  8
USP
100
AcDbBlockReference
  2
HD210-2IF_T
 10
9.148524383068602
 20
14.28516709133486
 30
0.0
  0
ENDSEC
  0
SECTION
  2
OBJECTS
  0
DICTIONARY
  5
12C
102
{ACAD_XDICTIONARY
360
12D
102
}
100
AcDbDictionary
  3
ACAD_GROUP
350
12A
  3
ACAD_MLINESTYLE
350
12B
1001
ACAD
1000
TREAT_AS_HARD
1070
     0
  0
DICTIONARY
  5
D
100
AcDbDictionary
280
     1
1001
ACAD
1000
TREAT_AS_HARD
1070
     1
  0
DICTIONARY
  5
11
100
AcDbDictionary
280
     1
1001
ACAD
1000
TREAT_AS_HARD
1070
     1
  0
DICTIONARY
  5
118
100
AcDbDictionary
280
     1
  0
DICTIONARY
  5
11C
100
AcDbDictionary
280
     1
  0
DICTIONARY
  5
12D
100
AcDbDictionary
280
     1
  0
DICTIONARY
  5
12A
102
{ACAD_REACTORS
330
12C
102
}
100
AcDbDictionary
1001
ACAD
1000
TREAT_AS_HARD
1070
     0
  0
DICTIONARY
  5
12B
102
{ACAD_REACTORS
330
12C
102
}
100
AcDbDictionary
  3
STANDARD
350
12E
1001
ACAD
1000
TREAT_AS_HARD
1070
     0
  0
MLINESTYLE
  5
12E
102
{ACAD_REACTORS
330
12B
102
}
100
AcDbMlineStyle
  2
STANDARD
 70
     0
  3

 62
     0
 51
90.0
 52
90.0
 71
     2
 49
0.5
 62
   256
  6
BYLAYER
 49
-0.5
 62
   256
  6
BYLAYER
  0
ENDSEC
  0
EOF
