  0
SECTION
  2
HEADER
  9
$ACADVER
  1
AC1014
  9
$ACADMAINTVER
 70
     9
  9
$DWGCODEPAGE
  3
ANSI_1252
  9
$INSBASE
 10
0.0
 20
0.0
 30
0.0
  9
$EXTMIN
 10
0.0012547916372796
 20
0.004555976985273
 30
0.0
  9
$EXTMAX
 10
9.988081383407822
 20
8.63675183631048
 30
0.0
  9
$LIMMIN
 10
0.0
 20
0.0
  9
$LIMMAX
 10
12.0
 20
9.0
  9
$ORTHOMODE
 70
     1
  9
$REGENMODE
 70
     1
  9
$FILLMODE
 70
     1
  9
$QTEXTMODE
 70
     0
  9
$MIRRTEXT
 70
     0
  9
$DRAGMODE
 70
     2
  9
$LTSCALE
 40
1.5
  9
$OSMODE
 70
     0
  9
$ATTMODE
 70
     2
  9
$TEXTSIZE
 40
0.5
  9
$TRACEWID
 40
0.05
  9
$TEXTSTYLE
  7
STANDARD
  9
$CLAYER
  8
0
  9
$CELTYPE
  6
BYLAYER
  9
$CECOLOR
 62
   256
  9
$CELTSCALE
 40
1.0
  9
$DELOBJ
 70
     1
  9
$DISPSILH
 70
     1
  9
$DIMSCALE
 40
3.0
  9
$DIMASZ
 40
0.09375
  9
$DIMEXO
 40
0.0625
  9
$DIMDLI
 40
0.38
  9
$DIMRND
 40
0.0
  9
$DIMDLE
 40
0.0
  9
$DIMEXE
 40
0.09375
  9
$DIMTP
 40
0.0
  9
$DIMTM
 40
0.0
  9
$DIMTXT
 40
0.09375
  9
$DIMCEN
 40
0.0
  9
$DIMTSZ
 40
0.0
  9
$DIMTOL
 70
     0
  9
$DIMLIM
 70
     0
  9
$DIMTIH
 70
     1
  9
$DIMTOH
 70
     1
  9
$DIMSE1
 70
     0
  9
$DIMSE2
 70
     0
  9
$DIMTAD
 70
     0
  9
$DIMZIN
 70
     0
  9
$DIMBLK
  1

  9
$DIMASO
 70
     1
  9
$DIMSHO
 70
     1
  9
$DIMPOST
  1

  9
$DIMAPOST
  1

  9
$DIMALT
 70
     0
  9
$DIMALTD
 70
     2
  9
$DIMALTF
 40
25.4
  9
$DIMLFAC
 40
1.0
  9
$DIMTOFL
 70
     0
  9
$DIMTVP
 40
0.0
  9
$DIMTIX
 70
     0
  9
$DIMSOXD
 70
     0
  9
$DIMSAH
 70
     0
  9
$DIMBLK1
  1

  9
$DIMBLK2
  1

  9
$DIMSTYLE
  2
FRACTIONAL
  9
$DIMCLRD
 70
     0
  9
$DIMCLRE
 70
     0
  9
$DIMCLRT
 70
     0
  9
$DIMTFAC
 40
1.0
  9
$DIMGAP
 40
0.09
  9
$DIMJUST
 70
     0
  9
$DIMSD1
 70
     0
  9
$DIMSD2
 70
     0
  9
$DIMTOLJ
 70
     1
  9
$DIMTZIN
 70
     0
  9
$DIMALTZ
 70
     0
  9
$DIMALTTZ
 70
     0
  9
$DIMFIT
 70
     3
  9
$DIMUPT
 70
     0
  9
$DIMUNIT
 70
     7
  9
$DIMDEC
 70
     4
  9
$DIMTDEC
 70
     4
  9
$DIMALTU
 70
     2
  9
$DIMALTTD
 70
     2
  9
$DIMTXSTY
  7
STANDARD
  9
$DIMAUNIT
 70
     0
  9
$LUNITS
 70
     5
  9
$LUPREC
 70
     6
  9
$SKETCHINC
 40
0.1
  9
$FILLETRAD
 40
0.375
  9
$AUNITS
 70
     0
  9
$AUPREC
 70
     1
  9
$MENU
  1
CUSTOM
  9
$ELEVATION
 40
0.0
  9
$PELEVATION
 40
0.0
  9
$THICKNESS
 40
0.0
  9
$LIMCHECK
 70
     0
  9
$BLIPMODE
 70
     0
  9
$CHAMFERA
 40
0.0
  9
$CHAMFERB
 40
0.0
  9
$CHAMFERC
 40
0.0
  9
$CHAMFERD
 40
0.0
  9
$SKPOLY
 70
     0
  9
$TDCREATE
 40
2451263.621564698
  9
$TDUPDATE
 40
2452759.744522743
  9
$TDINDWG
 40
6.0564530903
  9
$TDUSRTIMER
 40
6.0564530903
  9
$USRTIMER
 70
     1
  9
$ANGBASE
 50
0.0
  9
$ANGDIR
 70
     0
  9
$PDMODE
 70
     0
  9
$PDSIZE
 40
0.0
  9
$PLINEWID
 40
0.0
  9
$COORDS
 70
     1
  9
$SPLFRAME
 70
     0
  9
$SPLINETYPE
 70
     6
  9
$SPLINESEGS
 70
     8
  9
$ATTDIA
 70
     0
  9
$ATTREQ
 70
     0
  9
$HANDLING
 70
     1
  9
$HANDSEED
  5
E2
  9
$SURFTAB1
 70
     6
  9
$SURFTAB2
 70
     6
  9
$SURFTYPE
 70
     6
  9
$SURFU
 70
     6
  9
$SURFV
 70
     6
  9
$UCSNAME
  2

  9
$UCSORG
 10
0.0
 20
0.0
 30
0.0
  9
$UCSXDIR
 10
1.0
 20
0.0
 30
0.0
  9
$UCSYDIR
 10
0.0
 20
1.0
 30
0.0
  9
$PUCSNAME
  2

  9
$PUCSORG
 10
0.0
 20
0.0
 30
0.0
  9
$PUCSXDIR
 10
1.0
 20
0.0
 30
0.0
  9
$PUCSYDIR
 10
0.0
 20
1.0
 30
0.0
  9
$USERI1
 70
     0
  9
$USERI2
 70
     0
  9
$USERI3
 70
     0
  9
$USERI4
 70
     0
  9
$USERI5
 70
     0
  9
$USERR1
 40
0.0
  9
$USERR2
 40
0.0
  9
$USERR3
 40
0.0
  9
$USERR4
 40
0.0
  9
$USERR5
 40
0.0
  9
$WORLDVIEW
 70
     1
  9
$SHADEDGE
 70
     3
  9
$SHADEDIF
 70
    70
  9
$TILEMODE
 70
     1
  9
$MAXACTVP
 70
    16
  9
$PINSBASE
 10
0.0
 20
0.0
 30
0.0
  9
$PLIMCHECK
 70
     0
  9
$PEXTMIN
 10
1.049999952316284
 20
0.7999999523162842
 30
0.0
  9
$PEXTMAX
 10
9.449999570846555
 20
7.199999570846556
 30
0.0
  9
$PLIMMIN
 10
0.0
 20
0.0
  9
$PLIMMAX
 10
12.0
 20
9.0
  9
$UNITMODE
 70
     0
  9
$VISRETAIN
 70
     0
  9
$PLINEGEN
 70
     0
  9
$PSLTSCALE
 70
     1
  9
$TREEDEPTH
 70
  3020
  9
$PICKSTYLE
 70
     1
  9
$CMLSTYLE
  2
STANDARD
  9
$CMLJUST
 70
     0
  9
$CMLSCALE
 40
1.0
  9
$PROXYGRAPHICS
 70
     1
  9
$MEASUREMENT
 70
     0
  0
ENDSEC
  0
SECTION
  2
CLASSES
  0
CLASS
  1
ACDBDICTIONARYWDFLT
  2
AcDbDictionaryWithDefault
  3
AutoCAD 2000
 90
        0
280
     1
281
     0
  0
CLASS
  1
ACDBPLACEHOLDER
  2
AcDbPlaceHolder
  3
AutoCAD 2000
 90
        0
280
     1
281
     0
  0
CLASS
  1
LAYOUT
  2
AcDbLayout
  3
AutoCAD 2000
 90
        0
280
     1
281
     0
  0
CLASS
  1
DICTIONARYVAR
  2
AcDbDictionaryVar
  3
"AutoCAD"
 90
        0
280
     1
281
     0
  0
CLASS
  1
LONG_TRANSACTION
  2
AcDbLongTransaction
  3
AutoCAD 2000
 90
        0
280
     1
281
     0
  0
CLASS
  1
LWPOLYLINE
  2
AcDbPolyline
  3
"AutoCAD"
 90
        0
280
     1
281
     1
  0
CLASS
  1
HATCH
  2
AcDbHatch
  3
"ACAD_SEDONA"
 90
        0
280
     1
281
     1
  0
CLASS
  1
XRECORD
  2
AcDbXrecord
  3
"<Built In>"
 90
        0
280
     0
281
     0
  0
CLASS
  1
LONG_TRANSACTION
  2
AcDbLongTransaction
  3
AutoCAD 2000
 90
        0
280
     1
281
     0
  0
CLASS
  1
LWPOLYLINE
  2
AcDbPolyline
  3
"AutoCAD"
 90
        0
280
     1
281
     1
  0
CLASS
  1
HATCH
  2
AcDbHatch
  3
"ACAD_SEDONA"
 90
        0
280
     1
281
     1
  0
CLASS
  1
XRECORD
  2
AcDbXrecord
  3
"<Built In>"
 90
        0
280
     0
281
     0
  0
CLASS
  1
LONG_TRANSACTION
  2
AcDbLongTransaction
  3
AutoCAD 2000
 90
        0
280
     1
281
     0
  0
CLASS
  1
LWPOLYLINE
  2
AcDbPolyline
  3
"AutoCAD"
 90
        0
280
     1
281
     1
  0
CLASS
  1
HATCH
  2
AcDbHatch
  3
"ACAD_SEDONA"
 90
        0
280
     1
281
     1
  0
CLASS
  1
XRECORD
  2
AcDbXrecord
  3
"<Built In>"
 90
        0
280
     0
281
     0
  0
CLASS
  1
LONG_TRANSACTION
  2
AcDbLongTransaction
  3
AutoCAD 2000
 90
        0
280
     1
281
     0
  0
CLASS
  1
LWPOLYLINE
  2
AcDbPolyline
  3
"AutoCAD"
 90
        0
280
     1
281
     1
  0
CLASS
  1
HATCH
  2
AcDbHatch
  3
"ACAD_SEDONA"
 90
        0
280
     1
281
     1
  0
CLASS
  1
XRECORD
  2
AcDbXrecord
  3
"<Built In>"
 90
        0
280
     0
281
     0
  0
CLASS
  1
LONG_TRANSACTION
  2
AcDbLongTransaction
  3
AutoCAD 2000
 90
        0
280
     1
281
     0
  0
CLASS
  1
LWPOLYLINE
  2
AcDbPolyline
  3
"AutoCAD"
 90
        0
280
     1
281
     1
  0
CLASS
  1
HATCH
  2
AcDbHatch
  3
"ACAD_SEDONA"
 90
        0
280
     1
281
     1
  0
CLASS
  1
XRECORD
  2
AcDbXrecord
  3
"<Built In>"
 90
        0
280
     0
281
     0
  0
ENDSEC
  0
SECTION
  2
TABLES
  0
TABLE
  2
VPORT
  5
CE
100
AcDbSymbolTable
 70
     1
  0
VPORT
  5
DE
100
AcDbSymbolTableRecord
100
AcDbViewportTableRecord
  2
*ACTIVE
 70
     0
 10
0.0
 20
0.0
 11
1.0
 21
1.0
 12
-19.25058097091091
 22
-11.54962258621754
 13
0.0
 23
0.0
 14
1.0
 24
1.0
 15
0.0
 25
0.0
 16
0.0
 26
0.0
 36
1.0
 17
24.24542350652106
 27
16.04709430857718
 37
20.0210711803711
 40
9.048208254831036
 41
1.457627118644067
 42
50.0
 43
-127.5537425192052
 44
-127.5537425192052
 50
0.0
 51
0.0
 71
     0
 72
   100
 73
     1
 74
     1
 75
     0
 76
     0
 77
     0
 78
     0
  0
ENDTAB
  0
TABLE
  2
LTYPE
  5
CA
100
AcDbSymbolTable
 70
     2
  0
LTYPE
  5
CB
100
AcDbSymbolTableRecord
100
AcDbLinetypeTableRecord
  2
BYBLOCK
 70
     0
  3

 72
    65
 73
     0
 40
0.0
  0
LTYPE
  5
8
100
AcDbSymbolTableRecord
100
AcDbLinetypeTableRecord
  2
BYLAYER
 70
     0
  3

 72
    65
 73
     0
 40
0.0
  0
LTYPE
  5
7
100
AcDbSymbolTableRecord
100
AcDbLinetypeTableRecord
  2
CONTINUOUS
 70
     0
  3
Solid line
 72
    65
 73
     0
 40
0.0
  0
LTYPE
  5
1E
100
AcDbSymbolTableRecord
100
AcDbLinetypeTableRecord
  2
HIDDEN
 70
     0
  3
Hidden __ __ __ __ __ __ __ __ __ __ __ __ __ _
 72
    65
 73
     2
 40
0.375
 49
0.25
 74
     0
 49
-0.125
 74
     0
  0
ENDTAB
  0
TABLE
  2
LAYER
  5
C8
100
AcDbSymbolTable
 70
     5
  0
LAYER
  5
58
102
{ACAD_XDICTIONARY
360
59
102
}
100
AcDbSymbolTableRecord
100
AcDbLayerTableRecord
  2
0
 70
     0
 62
     7
  6
CONTINUOUS
  0
LAYER
  5
15
102
{ACAD_XDICTIONARY
360
16
102
}
100
AcDbSymbolTableRecord
100
AcDbLayerTableRecord
  2
USP-GEO
 70
     0
 62
     7
  6
CONTINUOUS
  0
LAYER
  5
4
102
{ACAD_XDICTIONARY
360
5
102
}
100
AcDbSymbolTableRecord
100
AcDbLayerTableRecord
  2
USP-TXT
 70
     0
 62
     7
  6
CONTINUOUS
  0
LAYER
  5
1C
102
{ACAD_XDICTIONARY
360
1D
102
}
100
AcDbSymbolTableRecord
100
AcDbLayerTableRecord
  2
USP-HID
 70
     0
 62
     7
  6
HIDDEN
  0
LAYER
  5
11
100
AcDbSymbolTableRecord
100
AcDbLayerTableRecord
  2
USP
 70
     0
 62
     7
  6
CONTINUOUS
  0
ENDTAB
  0
TABLE
  2
STYLE
  5
C9
100
AcDbSymbolTable
 70
     1
  0
STYLE
  5
9
100
AcDbSymbolTableRecord
100
AcDbTextStyleTableRecord
  2
STANDARD
 70
     0
 40
0.0
 41
1.0
 50
0.0
 71
     0
 42
0.5
  3
txt
  4

  0
ENDTAB
  0
TABLE
  2
VIEW
  5
CC
100
AcDbSymbolTable
 70
     0
  0
ENDTAB
  0
TABLE
  2
UCS
  5
CD
100
AcDbSymbolTable
 70
     0
  0
ENDTAB
  0
TABLE
  2
APPID
  5
D1
100
AcDbSymbolTable
 70
     1
  0
APPID
  5
6
100
AcDbSymbolTableRecord
100
AcDbRegAppTableRecord
  2
ACAD
 70
     0
  0
ENDTAB
  0
TABLE
  2
DIMSTYLE
  5
D2
100
AcDbSymbolTable
 70
     1
  0
DIMSTYLE
105
D9
102
{ACAD_XDICTIONARY
360
DA
102
}
100
AcDbSymbolTableRecord
100
AcDbDimStyleTableRecord
  2
FRACTIONAL
 70
     0
  3

  4

  5

  6

  7

 40
3.0
 41
0.09375
 42
0.0625
 43
0.38
 44
0.09375
 45
0.0
 46
0.0
 47
0.0
 48
0.0
140
0.09375
141
0.0
142
0.0
143
25.4
144
1.0
145
0.0
146
1.0
147
0.09
 71
     0
 72
     0
 73
     1
 74
     1
 75
     0
 76
     0
 77
     0
 78
     0
170
     0
171
     2
172
     0
173
     0
174
     0
175
     0
176
     0
177
     0
178
     0
270
     7
271
     4
272
     4
273
     2
274
     2
340
9
275
     0
280
     0
281
     0
282
     0
283
     1
284
     0
285
     0
286
     0
287
     3
288
     0
  0
ENDTAB
  0
TABLE
  2
BLOCK_RECORD
  5
1
100
AcDbSymbolTable
 70
     3
  0
BLOCK_RECORD
  5
2
102
{ACAD_XDICTIONARY
360
C1
102
}
100
AcDbSymbolTableRecord
100
AcDbBlockTableRecord
  2
*MODEL_SPACE
  0
BLOCK_RECORD
  5
C4
102
{ACAD_XDICTIONARY
360
C5
102
}
100
AcDbSymbolTableRecord
100
AcDbBlockTableRecord
  2
*PAPER_SPACE
  0
BLOCK_RECORD
  5
12
100
AcDbSymbolTableRecord
100
AcDbBlockTableRecord
  2
HC520_T
  0
BLOCK_RECORD
  5
5C
100
AcDbSymbolTableRecord
100
AcDbBlockTableRecord
  2
HC520_F
  0
BLOCK_RECORD
  5
94
100
AcDbSymbolTableRecord
100
AcDbBlockTableRecord
  2
HC520_S
  0
ENDTAB
  0
ENDSEC
  0
SECTION
  2
BLOCKS
  0
BLOCK
  5
C2
100
AcDbEntity
  8
0
100
AcDbBlockBegin
  2
*MODEL_SPACE
 70
     0
 10
0.0
 20
0.0
 30
0.0
  3
*MODEL_SPACE
  1

  0
ENDBLK
  5
C3
100
AcDbEntity
  8
0
100
AcDbBlockEnd
  0
BLOCK
  5
C6
100
AcDbEntity
 67
     1
  8
0
100
AcDbBlockBegin
  2
*PAPER_SPACE
 70
     0
 10
0.0
 20
0.0
 30
0.0
  3
*PAPER_SPACE
  1

  0
ENDBLK
  5
C7
100
AcDbEntity
 67
     1
  8
0
100
AcDbBlockEnd
  0
BLOCK
  5
57
100
AcDbEntity
  8
0
100
AcDbBlockBegin
  2
HC520_T
 70
     0
 10
0.0
 20
0.0
 30
0.0
  3
HC520_T
  1

  0
TEXT
  5
13
100
AcDbEntity
  8
USP-TXT
100
AcDbText
 10
-0.0625000000000284
 20
-0.6897188704904096
 30
0.0
 40
0.25
  1
HC520 - TOP ANGLE
 72
     1
 11
1.999999999999971
 21
-0.6897188704904096
 31
0.0
100
AcDbText
  0
LINE
  5
14
100
AcDbEntity
  8
USP-GEO
100
AcDbLine
 10
1.093749999999971
 20
0.0520000000000209
 30
0.0
 11
2.906249999999985
 21
0.0520000000000209
 31
0.0
  0
LINE
  5
17
100
AcDbEntity
  8
USP-GEO
100
AcDbLine
 10
1.093749999999971
 20
0.0000000000000142
 30
0.0
 11
2.906249999999985
 21
0.0000000000000142
 31
0.0
  0
LINE
  5
18
100
AcDbEntity
  8
USP-GEO
100
AcDbLine
 10
1.187499999999985
 20
1.08057059298234
 30
0.0
 11
1.135499999999993
 21
1.08057059298234
 31
0.0
  0
LINE
  5
19
100
AcDbEntity
  8
USP-GEO
100
AcDbLine
 10
1.1875
 20
0.7958906826285812
 30
0.0
 11
1.135499999999993
 21
0.7958906826285812
 31
0.0
  0
LINE
  5
1A
100
AcDbEntity
  8
USP-GEO
100
AcDbLine
 10
1.1875
 20
0.0832500000000352
 30
0.0
 11
1.135500000000007
 21
0.0832500000000352
 31
0.0
  0
LINE
  5
1B
100
AcDbEntity
  8
USP-HID
100
AcDbLine
 10
1.1875
 20
0.4032499999999857
 30
0.0
 11
1.135499999999979
 21
0.4032499999999857
 31
0.0
  0
LINE
  5
1F
100
AcDbEntity
  8
USP-HID
100
AcDbLine
 10
1.1875
 20
0.2632499999999993
 30
0.0
 11
1.135499999999979
 21
0.2632499999999993
 31
0.0
  0
LINE
  5
20
100
AcDbEntity
  8
USP-HID
100
AcDbLine
 10
1.187499999999985
 20
0.9032499999999998
 30
0.0
 11
1.135499999999993
 21
0.9032499999999998
 31
0.0
  0
LINE
  5
21
100
AcDbEntity
  8
USP-HID
100
AcDbLine
 10
1.187499999999985
 20
0.7632500000000136
 30
0.0
 11
1.135499999999993
 21
0.7632500000000136
 31
0.0
  0
LINE
  5
22
100
AcDbEntity
  8
USP-HID
100
AcDbLine
 10
1.1875
 20
0.5907499999999999
 30
0.0
 11
1.135499999999979
 21
0.5907499999999999
 31
0.0
  0
LINE
  5
23
100
AcDbEntity
  8
USP-HID
100
AcDbLine
 10
1.1875
 20
0.4507500000000136
 30
0.0
 11
1.135499999999979
 21
0.4507500000000136
 31
0.0
  0
LINE
  5
24
100
AcDbEntity
  8
USP-GEO
100
AcDbLine
 10
0.0
 20
0.0
 30
0.0
 11
0.0
 21
1.676999999999992
 31
0.0
  0
LINE
  5
25
100
AcDbEntity
  8
USP-GEO
100
AcDbLine
 10
1.09375
 20
2.051999999999992
 30
0.0
 11
1.09375
 21
1.087932244426923
 31
0.0
  0
CIRCLE
  5
26
100
AcDbEntity
  8
USP-GEO
100
AcDbCircle
 10
0.5312499999999858
 20
1.645749999999992
 30
0.0
 40
0.07
  0
LINE
  5
27
100
AcDbEntity
  8
USP-GEO
100
AcDbLine
 10
1.135500000000007
 20
0.795890682628567
 30
0.0
 11
1.135500000000007
 21
0.0832500000000209
 31
0.0
  0
LINE
  5
28
100
AcDbEntity
  8
USP-GEO
100
AcDbLine
 10
1.093749999999985
 20
0.0
 30
0.0
 11
0.0
 21
0.0000000000000142
 31
0.0
  0
LINE
  5
29
100
AcDbEntity
  8
USP-HID
100
AcDbLine
 10
1.09375
 20
0.0520000000000067
 30
0.0
 11
0.0000000000000142
 21
0.0520000000000067
 31
0.0
  0
LINE
  5
2A
100
AcDbEntity
  8
USP-GEO
100
AcDbLine
 10
1.093749999999985
 20
0.0832499999999783
 30
0.0
 11
1.093749999999971
 21
0.0
 31
0.0
  0
LINE
  5
2B
100
AcDbEntity
  8
USP-GEO
100
AcDbLine
 10
1.135499999999993
 20
0.0832499999999783
 30
0.0
 11
1.093749999999985
 21
0.0832499999999783
 31
0.0
  0
LINE
  5
2C
100
AcDbEntity
  8
USP-HID
100
AcDbLine
 10
0.4299999999999784
 20
0.0520000000000209
 30
0.0
 11
0.4299999999999784
 21
0.0
 31
0.0
  0
LINE
  5
2D
100
AcDbEntity
  8
USP-HID
100
AcDbLine
 10
0.5699999999999648
 20
0.0520000000000209
 30
0.0
 11
0.5699999999999648
 21
0.0000000000000142
 31
0.0
  0
LINE
  5
2E
100
AcDbEntity
  8
USP-HID
100
AcDbLine
 10
0.3749999999999716
 20
0.0520000000000067
 30
0.0
 11
0.3749999999999716
 21
0.0000000000000142
 31
0.0
  0
LINE
  5
2F
100
AcDbEntity
  8
USP-GEO
100
AcDbLine
 10
1.093749999999971
 20
1.087932244426923
 30
0.0
 11
1.135499999999993
 21
1.08057059298234
 31
0.0
  0
CIRCLE
  5
30
100
AcDbEntity
  8
USP-GEO
100
AcDbCircle
 10
0.28125
 20
1.051999999999978
 30
0.0
 40
0.07
  0
CIRCLE
  5
31
100
AcDbEntity
  8
USP-GEO
100
AcDbCircle
 10
0.2812500000000142
 20
0.4582500000000067
 30
0.0
 40
0.07
  0
LINE
  5
32
100
AcDbEntity
  8
USP-GEO
100
AcDbLine
 10
1.135499999999993
 20
1.080570592982354
 30
0.0
 11
1.135500000000007
 21
0.795890682628567
 31
0.0
  0
LINE
  5
33
100
AcDbEntity
  8
USP-GEO
100
AcDbLine
 10
-0.0000000000000284
 20
1.676999999999992
 30
0.0
 11
0.3749999999999716
 21
2.052000000000006
 31
0.0
  0
LINE
  5
34
100
AcDbEntity
  8
USP-GEO
100
AcDbLine
 10
0.3749999999999716
 20
2.051999999999992
 30
0.0
 11
1.09375
 21
2.051999999999992
 31
0.0
  0
CIRCLE
  5
35
100
AcDbEntity
  8
USP-GEO
100
AcDbCircle
 10
3.468749999999943
 20
1.645750000000035
 30
0.0
 40
0.07
  0
LINE
  5
36
100
AcDbEntity
  8
USP-GEO
100
AcDbLine
 10
3.999999999999971
 20
1.67700000000002
 30
0.0
 11
3.999999999999985
 21
0.0000000000000142
 31
0.0
  0
LINE
  5
37
100
AcDbEntity
  8
USP-GEO
100
AcDbLine
 10
2.86450000000002
 20
1.219041561798405
 30
0.0
 11
2.86450000000002
 21
2.05200000000002
 31
0.0
  0
LINE
  5
38
100
AcDbEntity
  8
USP-GEO
100
AcDbLine
 10
2.812500000000014
 20
2.05200000000002
 30
0.0
 11
2.812500000000014
 21
1.219041561798405
 31
0.0
  0
LINE
  5
39
100
AcDbEntity
  8
USP-GEO
100
AcDbLine
 10
2.906249999999985
 20
0.0000000000000142
 30
0.0
 11
4.0
 21
0.0000000000000142
 31
0.0
  0
LINE
  5
3A
100
AcDbEntity
  8
USP-HID
100
AcDbLine
 10
2.906249999999971
 20
0.0520000000000351
 30
0.0
 11
4.0
 21
0.0520000000000351
 31
0.0
  0
LINE
  5
3B
100
AcDbEntity
  8
USP-GEO
100
AcDbLine
 10
2.90625
 20
0.0000000000000142
 30
0.0
 11
2.906249999999985
 21
0.9270000000000209
 31
0.0
  0
LINE
  5
3C
100
AcDbEntity
  8
USP-GEO
100
AcDbLine
 10
1.1875
 20
0.0832500000000352
 30
0.0
 11
1.1875
 21
0.7958906826285812
 31
0.0
  0
LINE
  5
3D
100
AcDbEntity
  8
USP-HID
100
AcDbLine
 10
1.929999999999992
 20
0.0520000000000209
 30
0.0
 11
1.929999999999992
 21
0.0000000000000142
 31
0.0
  0
LINE
  5
3E
100
AcDbEntity
  8
USP-HID
100
AcDbLine
 10
2.069999999999978
 20
0.0520000000000209
 30
0.0
 11
2.069999999999978
 21
0.0000000000000142
 31
0.0
  0
LINE
  5
3F
100
AcDbEntity
  8
USP-HID
100
AcDbLine
 10
1.179999999999978
 20
0.0520000000000067
 30
0.0
 11
1.179999999999978
 21
-0.0000000000000142
 31
0.0
  0
LINE
  5
40
100
AcDbEntity
  8
USP-HID
100
AcDbLine
 10
1.319999999999964
 20
0.0520000000000209
 30
0.0
 11
1.319999999999964
 21
0.0000000000000142
 31
0.0
  0
LINE
  5
41
100
AcDbEntity
  8
USP-HID
100
AcDbLine
 10
2.679999999999964
 20
0.0520000000000209
 30
0.0
 11
2.679999999999964
 21
0.0000000000000284
 31
0.0
  0
LINE
  5
42
100
AcDbEntity
  8
USP-HID
100
AcDbLine
 10
2.81999999999995
 20
0.0520000000000209
 30
0.0
 11
2.81999999999995
 21
0.0000000000000142
 31
0.0
  0
LINE
  5
43
100
AcDbEntity
  8
USP-GEO
100
AcDbLine
 10
1.187499999999985
 20
1.08057059298234
 30
0.0
 11
1.1875
 21
0.7958906826285528
 31
0.0
  0
LINE
  5
44
100
AcDbEntity
  8
USP-GEO
100
AcDbLine
 10
2.906249999999985
 20
0.9270000000000067
 30
0.0
 11
2.86450000000002
 21
0.9343616514445756
 31
0.0
  0
LINE
  5
45
100
AcDbEntity
  8
USP-GEO
100
AcDbLine
 10
2.86450000000002
 20
0.9343616514445756
 30
0.0
 11
2.86450000000002
 21
1.219041561798434
 31
0.0
  0
LINE
  5
46
100
AcDbEntity
  8
USP-GEO
100
AcDbLine
 10
2.812500000000028
 20
0.9343616514445614
 30
0.0
 11
2.86450000000002
 21
0.9343616514445614
 31
0.0
  0
LINE
  5
47
100
AcDbEntity
  8
USP-GEO
100
AcDbLine
 10
2.812500000000028
 20
1.219041561798405
 30
0.0
 11
2.86450000000002
 21
1.219041561798405
 31
0.0
  0
LINE
  5
48
100
AcDbEntity
  8
USP-GEO
100
AcDbLine
 10
2.812500000000028
 20
1.21904156179842
 30
0.0
 11
2.812500000000028
 21
0.9343616514445614
 31
0.0
  0
LINE
  5
49
100
AcDbEntity
  8
USP-HID
100
AcDbLine
 10
2.812500000000014
 20
1.575750000000027
 30
0.0
 11
2.86450000000002
 21
1.575750000000027
 31
0.0
  0
LINE
  5
4A
100
AcDbEntity
  8
USP-HID
100
AcDbLine
 10
2.8125
 20
1.263250000000013
 30
0.0
 11
2.86450000000002
 21
1.263250000000013
 31
0.0
  0
LINE
  5
4B
100
AcDbEntity
  8
USP-HID
100
AcDbLine
 10
2.8125
 20
1.403249999999999
 30
0.0
 11
2.86450000000002
 21
1.403249999999999
 31
0.0
  0
LINE
  5
4C
100
AcDbEntity
  8
USP-HID
100
AcDbLine
 10
3.429999999999978
 20
0.0520000000000209
 30
0.0
 11
3.429999999999978
 21
0.0000000000000284
 31
0.0
  0
LINE
  5
4D
100
AcDbEntity
  8
USP-HID
100
AcDbLine
 10
3.569999999999964
 20
0.0520000000000209
 30
0.0
 11
3.569999999999964
 21
0.0000000000000142
 31
0.0
  0
LINE
  5
4E
100
AcDbEntity
  8
USP-HID
100
AcDbLine
 10
3.624999999999957
 20
0.0520000000000209
 30
0.0
 11
3.624999999999957
 21
0.0000000000000142
 31
0.0
  0
CIRCLE
  5
4F
100
AcDbEntity
  8
USP-GEO
100
AcDbCircle
 10
3.718749999999943
 20
1.05200000000002
 30
0.0
 40
0.07
  0
CIRCLE
  5
50
100
AcDbEntity
  8
USP-GEO
100
AcDbCircle
 10
3.718749999999943
 20
0.4582500000000352
 30
0.0
 40
0.07
  0
LINE
  5
51
100
AcDbEntity
  8
USP-GEO
100
AcDbLine
 10
2.86450000000002
 20
2.05200000000002
 30
0.0
 11
3.624999999999971
 21
2.05200000000002
 31
0.0
  0
LINE
  5
52
100
AcDbEntity
  8
USP-GEO
100
AcDbLine
 10
2.812500000000028
 20
2.05200000000002
 30
0.0
 11
2.86450000000002
 21
2.05200000000002
 31
0.0
  0
LINE
  5
53
100
AcDbEntity
  8
USP-HID
100
AcDbLine
 10
2.812500000000014
 20
1.715750000000014
 30
0.0
 11
2.86450000000002
 21
1.715750000000014
 31
0.0
  0
LINE
  5
54
100
AcDbEntity
  8
USP-HID
100
AcDbLine
 10
2.812500000000014
 20
1.763250000000027
 30
0.0
 11
2.86450000000002
 21
1.763250000000027
 31
0.0
  0
LINE
  5
55
100
AcDbEntity
  8
USP-HID
100
AcDbLine
 10
2.812500000000014
 20
1.903250000000014
 30
0.0
 11
2.86450000000002
 21
1.903250000000014
 31
0.0
  0
LINE
  5
56
100
AcDbEntity
  8
USP-GEO
100
AcDbLine
 10
3.624999999999971
 20
2.05200000000002
 30
0.0
 11
3.999999999999971
 21
1.67700000000002
 31
0.0
  0
ENDBLK
  5
5A
100
AcDbEntity
  8
0
100
AcDbBlockEnd
  0
BLOCK
  5
91
100
AcDbEntity
  8
0
100
AcDbBlockBegin
  2
HC520_F
 70
     0
 10
0.0
 20
0.0
 30
0.0
  3
HC520_F
  1

  0
LINE
  5
5D
100
AcDbEntity
  8
USP-GEO
100
AcDbLine
 10
2.906250000000014
 20
1.375
 30
0.0
 11
2.906250000000014
 21
1.551999999999992
 31
0.0
  0
LINE
  5
5E
100
AcDbEntity
  8
USP-GEO
100
AcDbLine
 10
4.000000000000014
 20
1.551999999999978
 30
0.0
 11
4.000000000000028
 21
0.3749999999999858
 31
0.0
  0
LINE
  5
5F
100
AcDbEntity
  8
USP-GEO
100
AcDbLine
 10
0.0000000000000284
 20
0.375
 30
0.0
 11
0.0000000000000284
 21
1.55200000000002
 31
0.0
  0
LINE
  5
60
100
AcDbEntity
  8
USP-GEO
100
AcDbLine
 10
1.093750000000014
 20
1.374999999999985
 30
0.0
 11
1.093750000000014
 21
1.55200000000002
 31
0.0
  0
TEXT
  5
61
100
AcDbEntity
  8
USP-TXT
100
AcDbText
 10
-0.3125
 20
-0.8519571924508255
 30
0.0
 40
0.25
  1
HC520 - FRONT ANGLE
 72
     1
 11
2.0
 21
-0.8519571924508255
 31
0.0
100
AcDbText
  0
LINE
  5
62
100
AcDbEntity
  8
USP-GEO
100
AcDbLine
 10
1.09375
 20
1.374999999999985
 30
0.0
 11
2.906250000000014
 21
1.374999999999985
 31
0.0
  0
LINE
  5
63
100
AcDbEntity
  8
USP-GEO
100
AcDbLine
 10
3.625
 20
0.0
 30
0.0
 11
0.375
 21
0.0
 31
0.0
  0
LINE
  5
64
100
AcDbEntity
  8
USP-GEO
100
AcDbLine
 10
0.375
 20
0.0
 30
0.0
 11
0.0
 21
0.375
 31
0.0
  0
CIRCLE
  5
65
100
AcDbEntity
  8
USP-GEO
100
AcDbCircle
 10
0.5
 20
1.062500000000014
 30
0.0
 40
0.07
  0
CIRCLE
  5
66
100
AcDbEntity
  8
USP-GEO
100
AcDbCircle
 10
1.250000000000014
 20
0.53125
 30
0.0
 40
0.07
  0
CIRCLE
  5
67
100
AcDbEntity
  8
USP-GEO
100
AcDbCircle
 10
2.000000000000028
 20
1.0625
 30
0.0
 40
0.07
  0
CIRCLE
  5
68
100
AcDbEntity
  8
USP-GEO
100
AcDbCircle
 10
2.75
 20
0.53125
 30
0.0
 40
0.07
  0
LINE
  5
69
100
AcDbEntity
  8
USP-GEO
100
AcDbLine
 10
4.000000000000028
 20
0.3749999999999858
 30
0.0
 11
3.625
 21
-0.0000000000000142
 31
0.0
  0
CIRCLE
  5
6A
100
AcDbEntity
  8
USP-GEO
100
AcDbCircle
 10
3.5
 20
1.0625
 30
0.0
 40
0.07
  0
LINE
  5
6B
100
AcDbEntity
  8
USP-GEO
100
AcDbLine
 10
1.1875
 20
1.500000000000014
 30
0.0
 11
1.093750000000014
 21
1.500000000000014
 31
0.0
  0
LINE
  5
6C
100
AcDbEntity
  8
USP-GEO
100
AcDbLine
 10
1.187500000000028
 20
3.166500000000013
 30
0.0
 11
1.135500000000035
 21
3.166500000000013
 31
0.0
  0
LINE
  5
6D
100
AcDbEntity
  8
USP-HID
100
AcDbLine
 10
1.187500000000028
 20
2.267749999999978
 30
0.0
 11
1.135500000000021
 21
2.267749999999978
 31
0.0
  0
LINE
  5
6E
100
AcDbEntity
  8
USP-HID
100
AcDbLine
 10
1.187500000000028
 20
2.127749999999991
 30
0.0
 11
1.135500000000007
 21
2.127749999999991
 31
0.0
  0
LINE
  5
6F
100
AcDbEntity
  8
USP-HID
100
AcDbLine
 10
1.187500000000028
 20
2.892749999999978
 30
0.0
 11
1.135500000000021
 21
2.892749999999978
 31
0.0
  0
LINE
  5
70
100
AcDbEntity
  8
USP-HID
100
AcDbLine
 10
1.187500000000028
 20
2.752749999999991
 30
0.0
 11
1.135500000000007
 21
2.752749999999991
 31
0.0
  0
LINE
  5
71
100
AcDbEntity
  8
USP-HID
100
AcDbLine
 10
1.187500000000014
 20
1.551999999999978
 30
0.0
 11
1.135500000000021
 21
1.551999999999978
 31
0.0
  0
LINE
  5
72
100
AcDbEntity
  8
USP-GEO
100
AcDbLine
 10
1.13550000000005
 20
3.166500000000013
 30
0.0
 11
1.135500000000035
 21
1.55200000000002
 31
0.0
  0
LINE
  5
73
100
AcDbEntity
  8
USP-GEO
100
AcDbLine
 10
1.093750000000014
 20
1.55200000000002
 30
0.0
 11
0.0000000000000284
 21
1.55200000000002
 31
0.0
  0
LINE
  5
74
100
AcDbEntity
  8
USP-HID
100
AcDbLine
 10
1.093750000000028
 20
1.500000000000014
 30
0.0
 11
0.0000000000000426
 21
1.500000000000028
 31
0.0
  0
LINE
  5
75
100
AcDbEntity
  8
USP-GEO
100
AcDbLine
 10
1.135500000000021
 20
1.55200000000002
 30
0.0
 11
1.093750000000014
 21
1.55200000000002
 31
0.0
  0
LINE
  5
76
100
AcDbEntity
  8
USP-HID
100
AcDbLine
 10
0.3512500000000358
 20
1.500000000000014
 30
0.0
 11
0.3512500000000358
 21
1.55200000000002
 31
0.0
  0
LINE
  5
77
100
AcDbEntity
  8
USP-HID
100
AcDbLine
 10
0.2112500000000494
 20
1.500000000000014
 30
0.0
 11
0.2112500000000494
 21
1.55200000000002
 31
0.0
  0
LINE
  5
78
100
AcDbEntity
  8
USP-HID
100
AcDbLine
 10
0.6012500000000074
 20
1.500000000000014
 30
0.0
 11
0.6012500000000074
 21
1.552000000000006
 31
0.0
  0
LINE
  5
79
100
AcDbEntity
  8
USP-HID
100
AcDbLine
 10
0.4612500000000211
 20
1.500000000000014
 30
0.0
 11
0.4612500000000211
 21
1.552000000000006
 31
0.0
  0
LINE
  5
7A
100
AcDbEntity
  8
USP-HID
100
AcDbLine
 10
1.135500000000007
 20
1.499999999999985
 30
0.0
 11
1.135500000000007
 21
1.551999999999978
 31
0.0
  0
LINE
  5
7B
100
AcDbEntity
  8
USP-HID
100
AcDbLine
 10
0.375
 20
1.500000000000014
 30
0.0
 11
0.375
 21
1.552000000000006
 31
0.0
  0
LINE
  5
7C
100
AcDbEntity
  8
USP-GEO
100
AcDbLine
 10
2.906250000000014
 20
1.551999999999992
 30
0.0
 11
4.000000000000028
 21
1.551999999999978
 31
0.0
  0
LINE
  5
7D
100
AcDbEntity
  8
USP-HID
100
AcDbLine
 10
2.90625
 20
1.5
 30
0.0
 11
4.000000000000028
 21
1.5
 31
0.0
  0
LINE
  5
7E
100
AcDbEntity
  8
USP-GEO
100
AcDbLine
 10
1.1875
 20
1.500000000000014
 30
0.0
 11
1.187500000000014
 21
3.166500000000013
 31
0.0
  0
LINE
  5
7F
100
AcDbEntity
  8
USP-GEO
100
AcDbLine
 10
2.864500000000049
 20
1.551999999999992
 30
0.0
 11
2.864500000000049
 21
3.166500000000013
 31
0.0
  0
LINE
  5
80
100
AcDbEntity
  8
USP-GEO
100
AcDbLine
 10
2.812500000000056
 20
3.166500000000013
 30
0.0
 11
2.812500000000056
 21
1.551999999999992
 31
0.0
  0
LINE
  5
81
100
AcDbEntity
  8
USP-GEO
100
AcDbLine
 10
2.906250000000014
 20
1.551999999999992
 30
0.0
 11
2.864500000000049
 21
1.551999999999992
 31
0.0
  0
LINE
  5
82
100
AcDbEntity
  8
USP-GEO
100
AcDbLine
 10
2.864500000000049
 20
1.499999999999985
 30
0.0
 11
2.864500000000049
 21
1.551999999999992
 31
0.0
  0
LINE
  5
83
100
AcDbEntity
  8
USP-GEO
100
AcDbLine
 10
2.864500000000049
 20
1.5
 30
0.0
 11
2.906250000000014
 21
1.5
 31
0.0
  0
LINE
  5
84
100
AcDbEntity
  8
USP-GEO
100
AcDbLine
 10
2.812500000000056
 20
1.551999999999992
 30
0.0
 11
2.864500000000049
 21
1.551999999999992
 31
0.0
  0
LINE
  5
85
100
AcDbEntity
  8
USP-GEO
100
AcDbLine
 10
2.812500000000056
 20
1.551999999999992
 30
0.0
 11
2.812500000000056
 21
1.499999999999985
 31
0.0
  0
LINE
  5
86
100
AcDbEntity
  8
USP-GEO
100
AcDbLine
 10
2.812500000000056
 20
1.499999999999985
 30
0.0
 11
2.864500000000049
 21
1.499999999999985
 31
0.0
  0
LINE
  5
87
100
AcDbEntity
  8
USP-HID
100
AcDbLine
 10
2.812500000000042
 20
2.84650000000002
 30
0.0
 11
2.864500000000049
 21
2.84650000000002
 31
0.0
  0
LINE
  5
88
100
AcDbEntity
  8
USP-HID
100
AcDbLine
 10
2.812500000000028
 20
2.221500000000006
 30
0.0
 11
2.864500000000049
 21
2.221500000000006
 31
0.0
  0
LINE
  5
89
100
AcDbEntity
  8
USP-HID
100
AcDbLine
 10
2.812500000000028
 20
2.361499999999992
 30
0.0
 11
2.864500000000049
 21
2.361499999999992
 31
0.0
  0
LINE
  5
8A
100
AcDbEntity
  8
USP-GEO
100
AcDbLine
 10
2.812500000000056
 20
3.166500000000013
 30
0.0
 11
2.864500000000049
 21
3.166500000000013
 31
0.0
  0
LINE
  5
8B
100
AcDbEntity
  8
USP-HID
100
AcDbLine
 10
2.812500000000042
 20
2.986500000000006
 30
0.0
 11
2.864500000000049
 21
2.986500000000006
 31
0.0
  0
LINE
  5
8C
100
AcDbEntity
  8
USP-HID
100
AcDbLine
 10
3.78874999999995
 20
1.499999999999985
 30
0.0
 11
3.78874999999995
 21
1.551999999999992
 31
0.0
  0
LINE
  5
8D
100
AcDbEntity
  8
USP-HID
100
AcDbLine
 10
3.648749999999964
 20
1.499999999999985
 30
0.0
 11
3.648749999999964
 21
1.551999999999992
 31
0.0
  0
LINE
  5
8E
100
AcDbEntity
  8
USP-HID
100
AcDbLine
 10
3.538749999999964
 20
1.499999999999985
 30
0.0
 11
3.538749999999964
 21
1.551999999999978
 31
0.0
  0
LINE
  5
8F
100
AcDbEntity
  8
USP-HID
100
AcDbLine
 10
3.398749999999978
 20
1.499999999999985
 30
0.0
 11
3.398749999999978
 21
1.551999999999978
 31
0.0
  0
LINE
  5
90
100
AcDbEntity
  8
USP-HID
100
AcDbLine
 10
3.625
 20
1.499999999999985
 30
0.0
 11
3.625
 21
1.551999999999978
 31
0.0
  0
ENDBLK
  5
92
100
AcDbEntity
  8
0
100
AcDbBlockEnd
  0
BLOCK
  5
BF
100
AcDbEntity
  8
0
100
AcDbBlockBegin
  2
HC520_S
 70
     0
 10
0.0
 20
0.0
 30
0.0
  3
HC520_S
  1

  0
TEXT
  5
95
100
AcDbEntity
  8
USP-TXT
100
AcDbText
 10
-1.119833333333323
 20
-0.8519571924508113
 30
0.0
 40
0.25
  1
HC520 - SIDE ANGLE
 72
     1
 11
1.02600000000001
 21
-0.8519571924508113
 31
0.0
100
AcDbText
  0
LINE
  5
96
100
AcDbEntity
  8
USP-GEO
100
AcDbLine
 10
0.0519999999999925
 20
0.375
 30
0.0
 11
0.0519999999999925
 21
1.5
 31
0.0
  0
LINE
  5
97
100
AcDbEntity
  8
USP-GEO
100
AcDbLine
 10
-0.0000000000000142
 20
1.551999999999992
 30
0.0
 11
-0.0000000000000142
 21
0.375
 31
0.0
  0
LINE
  5
98
100
AcDbEntity
  8
USP-GEO
100
AcDbLine
 10
0.0520000000000067
 20
0.375
 30
0.0
 11
0.0520000000000067
 21
-0.0000000000000142
 31
0.0
  0
LINE
  5
99
100
AcDbEntity
  8
USP-GEO
100
AcDbLine
 10
0.0
 20
0.375
 30
0.0
 11
0.0
 21
0.0
 31
0.0
  0
LINE
  5
9A
100
AcDbEntity
  8
USP-GEO
100
AcDbLine
 10
0.0519999999999925
 20
0.0
 30
0.0
 11
0.0
 21
0.0
 31
0.0
  0
LINE
  5
9B
100
AcDbEntity
  8
USP-GEO
100
AcDbLine
 10
0.0519999999999925
 20
0.375
 30
0.0
 11
-0.0000000000000142
 21
0.375
 31
0.0
  0
LINE
  5
9C
100
AcDbEntity
  8
USP-HID
100
AcDbLine
 10
0.0519999999999925
 20
1.132500000000007
 30
0.0
 11
0.0
 21
1.132500000000007
 31
0.0
  0
LINE
  5
9D
100
AcDbEntity
  8
USP-HID
100
AcDbLine
 10
0.0519999999999925
 20
0.992500000000021
 30
0.0
 11
0.0
 21
0.992500000000021
 31
0.0
  0
LINE
  5
9E
100
AcDbEntity
  8
USP-HID
100
AcDbLine
 10
0.0520000000000067
 20
0.6012500000000074
 30
0.0
 11
0.0
 21
0.6012500000000074
 31
0.0
  0
LINE
  5
9F
100
AcDbEntity
  8
USP-HID
100
AcDbLine
 10
0.0520000000000067
 20
0.4612500000000211
 30
0.0
 11
0.0
 21
0.4612500000000211
 31
0.0
  0
LINE
  5
A0
100
AcDbEntity
  8
USP-HID
100
AcDbLine
 10
0.0520000000000067
 20
1.375000000000014
 30
0.0
 11
0.0
 21
1.375000000000014
 31
0.0
  0
LINE
  5
A1
100
AcDbEntity
  8
USP-GEO
100
AcDbLine
 10
1.676999999999992
 20
1.551999999999992
 30
0.0
 11
0.0
 21
1.552000000000006
 31
0.0
  0
LINE
  5
A2
100
AcDbEntity
  8
USP-GEO
100
AcDbLine
 10
0.0520000000000067
 20
1.5
 30
0.0
 11
1.676999999999992
 21
1.499999999999985
 31
0.0
  0
LINE
  5
A3
100
AcDbEntity
  8
USP-GEO
100
AcDbLine
 10
0.0832500000000067
 20
3.166500000000027
 30
0.0
 11
0.7958906826285528
 21
3.166499999999999
 31
0.0
  0
CIRCLE
  5
A4
100
AcDbEntity
  8
USP-GEO
100
AcDbCircle
 10
0.3332499999999641
 20
2.197749999999999
 30
0.0
 40
0.07
  0
LINE
  5
A5
100
AcDbEntity
  8
USP-GEO
100
AcDbLine
 10
0.0832499999999783
 20
1.551999999999992
 30
0.0
 11
0.0832500000000067
 21
3.166500000000027
 31
0.0
  0
LINE
  5
A6
100
AcDbEntity
  8
USP-HID
100
AcDbLine
 10
0.0832499999999783
 20
1.500000000000028
 30
0.0
 11
0.0832499999999783
 21
1.551999999999992
 31
0.0
  0
LINE
  5
A7
100
AcDbEntity
  8
USP-GEO
100
AcDbLine
 10
1.007466122213443
 20
1.966596056004362
 30
0.0
 11
0.7958906826285386
 21
3.166499999999999
 31
0.0
  0
LINE
  5
A8
100
AcDbEntity
  8
USP-GEO
100
AcDbLine
 10
2.052000000000006
 20
3.166500000000027
 30
0.0
 11
2.051999999999992
 21
1.552000000000006
 31
0.0
  0
LINE
  5
A9
100
AcDbEntity
  8
USP-GEO
100
AcDbLine
 10
0.9343616514445471
 20
1.552000000000006
 30
0.0
 11
1.219041561798405
 21
3.166500000000027
 31
0.0
  0
CIRCLE
  5
AA
100
AcDbEntity
  8
USP-GEO
100
AcDbCircle
 10
1.645750000000006
 20
2.916500000000027
 30
0.0
 40
0.07
  0
CIRCLE
  5
AB
100
AcDbEntity
  8
USP-GEO
100
AcDbCircle
 10
1.333249999999978
 20
2.291500000000013
 30
0.0
 40
0.07
  0
CIRCLE
  5
AC
100
AcDbEntity
  8
USP-GEO
100
AcDbCircle
 10
0.5207499999999783
 20
2.822749999999999
 30
0.0
 40
0.07
  0
CIRCLE
  5
AD
100
AcDbEntity
  8
USP-GEO
100
AcDbCircle
 10
0.8332499999999924
 20
2.197749999999984
 30
0.0
 40
0.07
  0
LINE
  5
AE
100
AcDbEntity
  8
USP-HID
100
AcDbLine
 10
0.5282499999999999
 20
1.5
 30
0.0
 11
0.5282499999999999
 21
1.552000000000006
 31
0.0
  0
LINE
  5
AF
100
AcDbEntity
  8
USP-HID
100
AcDbLine
 10
0.3882500000000135
 20
1.5
 30
0.0
 11
0.3882500000000135
 21
1.552000000000006
 31
0.0
  0
LINE
  5
B0
100
AcDbEntity
  8
USP-HID
100
AcDbLine
 10
1.121999999999985
 20
1.5
 30
0.0
 11
1.121999999999985
 21
1.552000000000006
 31
0.0
  0
LINE
  5
B1
100
AcDbEntity
  8
USP-HID
100
AcDbLine
 10
0.9819999999999993
 20
1.5
 30
0.0
 11
0.9819999999999993
 21
1.552000000000006
 31
0.0
  0
LINE
  5
B2
100
AcDbEntity
  8
USP-HID
100
AcDbLine
 10
1.080570592982326
 20
1.5
 30
0.0
 11
1.080570592982326
 21
1.551999999999992
 31
0.0
  0
LINE
  5
B3
100
AcDbEntity
  8
USP-HID
100
AcDbLine
 10
1.080570592982326
 20
1.551999999999992
 30
0.0
 11
1.007466122213443
 21
1.966596056004362
 31
0.0
  0
LINE
  5
B4
100
AcDbEntity
  8
USP-HID
100
AcDbLine
 10
1.087932244426895
 20
1.500000000000028
 30
0.0
 11
1.087932244426895
 21
1.55200000000002
 31
0.0
  0
LINE
  5
B5
100
AcDbEntity
  8
USP-HID
100
AcDbLine
 10
0.9269999999999924
 20
1.500000000000014
 30
0.0
 11
0.9269999999999924
 21
1.552000000000006
 31
0.0
  0
LINE
  5
B6
100
AcDbEntity
  8
USP-HID
100
AcDbLine
 10
0.9343616514445614
 20
1.5
 30
0.0
 11
0.9343616514445614
 21
1.552000000000006
 31
0.0
  0
LINE
  5
B7
100
AcDbEntity
  8
USP-GEO
100
AcDbLine
 10
2.052000000000006
 20
1.551999999999992
 30
0.0
 11
1.677000000000006
 21
1.551999999999992
 31
0.0
  0
LINE
  5
B8
100
AcDbEntity
  8
USP-GEO
100
AcDbLine
 10
1.676999999999992
 20
1.5
 30
0.0
 11
1.676999999999992
 21
1.551999999999992
 31
0.0
  0
LINE
  5
B9
100
AcDbEntity
  8
USP-GEO
100
AcDbLine
 10
2.052000000000006
 20
1.5
 30
0.0
 11
1.677000000000006
 21
1.5
 31
0.0
  0
LINE
  5
BA
100
AcDbEntity
  8
USP-GEO
100
AcDbLine
 10
2.052000000000006
 20
1.5
 30
0.0
 11
2.052000000000006
 21
1.551999999999992
 31
0.0
  0
CIRCLE
  5
BB
100
AcDbEntity
  8
USP-GEO
100
AcDbCircle
 10
1.833249999999992
 20
2.291500000000013
 30
0.0
 40
0.07
  0
LINE
  5
BC
100
AcDbEntity
  8
USP-HID
100
AcDbLine
 10
1.715749999999999
 20
1.5
 30
0.0
 11
1.715749999999999
 21
1.551999999999992
 31
0.0
  0
LINE
  5
BD
100
AcDbEntity
  8
USP-HID
100
AcDbLine
 10
1.575750000000013
 20
1.5
 30
0.0
 11
1.575750000000013
 21
1.551999999999992
 31
0.0
  0
LINE
  5
BE
100
AcDbEntity
  8
USP-GEO
100
AcDbLine
 10
1.219041561798377
 20
3.166500000000041
 30
0.0
 11
2.051999999999992
 21
3.166500000000027
 31
0.0
  0
ENDBLK
  5
C0
100
AcDbEntity
  8
0
100
AcDbBlockEnd
  0
ENDSEC
  0
SECTION
  2
ENTITIES
  0
MTEXT
  5
3
100
AcDbEntity
  8
USP-TXT
100
AcDbMText
 10
125.6088971539397
 20
-43.10848190591153
 30
0.0
 40
0.46875
 41
0.0
 71
     9
 72
     5
  1

1001
ACAD
1000
MTEXTBEGIN
1070
    73
1070
     1
1070
    44
1040
1.0
1070
    74
1070
     0
1000
MTEXTEND
  0
MTEXT
  5
A
100
AcDbEntity
  8
USP-TXT
100
AcDbMText
 10
36.71266756011235
 20
206.5247569679165
 30
0.0
 40
0.65625
 41
0.0
 71
     9
 72
     5
  1

1001
ACAD
1000
MTEXTBEGIN
1070
    73
1070
     1
1070
    44
1040
1.0
1070
    74
1070
     0
1000
MTEXTEND
  0
MTEXT
  5
B
100
AcDbEntity
  8
USP-TXT
100
AcDbMText
 10
144.1509553633036
 20
3.19986588250903
 30
0.0
 40
0.65625
 41
0.0
 71
     9
 72
     5
  1

1001
ACAD
1000
MTEXTBEGIN
1070
    73
1070
     1
1070
    44
1040
1.0
1070
    74
1070
     0
1000
MTEXTEND
  0
MTEXT
  5
C
100
AcDbEntity
  8
USP-TXT
100
AcDbMText
 10
138.6934978635495
 20
5.919219825069305
 30
0.0
 40
0.65625
 41
0.0
 71
     9
 72
     5
  1

1001
ACAD
1000
MTEXTBEGIN
1070
    73
1070
     1
1070
    44
1040
1.0
1070
    74
1070
     0
1000
MTEXTEND
  0
MTEXT
  5
D
100
AcDbEntity
  8
USP-TXT
100
AcDbMText
 10
18.56395374438784
 20
-123.5088415989288
 30
0.0
 40
0.65625
 41
0.0
 71
     9
 72
     5
  1

1001
ACAD
1000
MTEXTBEGIN
1070
    73
1070
     1
1070
    44
1040
1.0
1070
    74
1070
     0
1000
MTEXTEND
  0
MTEXT
  5
E
100
AcDbEntity
  8
USP-TXT
100
AcDbMText
 10
24.35146844001206
 20
-112.2106308507991
 30
0.0
 40
0.65625
 41
0.0
 71
     9
 72
     5
  1

1001
ACAD
1000
MTEXTBEGIN
1070
    73
1070
     1
1070
    44
1040
1.0
1070
    74
1070
     0
1000
MTEXTEND
  0
MTEXT
  5
F
100
AcDbEntity
  8
USP-TXT
100
AcDbMText
 10
66.25951131330015
 20
-43.93094414924521
 30
0.0
 40
0.46875
 41
0.0
 71
     1
 72
     5
  1

1001
ACAD
1000
MTEXTBEGIN
1070
    73
1070
     1
1070
    44
1040
1.0
1070
    74
1070
     0
1000
MTEXTEND
  0
INSERT
  5
10
100
AcDbEntity
  8
USP
100
AcDbBlockReference
  2
HC520_T
 10
0.313754791637308
 20
6.584751836310459
 30
0.0
  0
INSERT
  5
5B
100
AcDbEntity
  8
USP
100
AcDbBlockReference
  2
HC520_F
 10
0.3137547916372796
 20
0.8565131694360985
 30
0.0
  0
INSERT
  5
93
100
AcDbEntity
  8
USP
100
AcDbBlockReference
  2
HC520_S
 10
6.816248050074477
 20
0.8565131694360843
 30
0.0
  0
ENDSEC
  0
SECTION
  2
OBJECTS
  0
DICTIONARY
  5
D6
102
{ACAD_XDICTIONARY
360
D7
102
}
100
AcDbDictionary
  3
ACAD_GROUP
350
D4
  3
ACAD_MLINESTYLE
350
D5
1001
ACAD
1000
TREAT_AS_HARD
1070
     0
  0
DICTIONARY
  5
59
100
AcDbDictionary
280
     1
  0
DICTIONARY
  5
16
100
AcDbDictionary
280
     1
1001
ACAD
1000
TREAT_AS_HARD
1070
     1
  0
DICTIONARY
  5
5
100
AcDbDictionary
280
     1
1001
ACAD
1000
TREAT_AS_HARD
1070
     1
  0
DICTIONARY
  5
1D
100
AcDbDictionary
280
     1
1001
ACAD
1000
TREAT_AS_HARD
1070
     1
  0
DICTIONARY
  5
DA
100
AcDbDictionary
280
     1
  0
DICTIONARY
  5
C1
100
AcDbDictionary
280
     1
1001
ACAD
1000
TREAT_AS_HARD
1070
     1
  0
DICTIONARY
  5
C5
100
AcDbDictionary
280
     1
1001
ACAD
1000
TREAT_AS_HARD
1070
     1
  0
DICTIONARY
  5
D7
100
AcDbDictionary
280
     1
  0
DICTIONARY
  5
D4
102
{ACAD_REACTORS
330
D6
102
}
100
AcDbDictionary
1001
ACAD
1000
TREAT_AS_HARD
1070
     0
  0
DICTIONARY
  5
D5
102
{ACAD_REACTORS
330
D6
102
}
100
AcDbDictionary
  3
STANDARD
350
D8
1001
ACAD
1000
TREAT_AS_HARD
1070
     0
  0
MLINESTYLE
  5
D8
102
{ACAD_REACTORS
330
D5
102
}
100
AcDbMlineStyle
  2
STANDARD
 70
     0
  3

 62
     0
 51
90.0
 52
90.0
 71
     2
 49
0.5
 62
   256
  6
BYLAYER
 49
-0.5
 62
   256
  6
BYLAYER
  0
ENDSEC
  0
EOF
