  0
SECTION
  2
HEADER
  9
$ACADVER
  1
AC1014
  9
$ACADMAINTVER
 70
     8
  9
$DWGCODEPAGE
  3
ANSI_1252
  9
$INSBASE
 10
0.0
 20
0.0
 30
0.0
  9
$EXTMIN
 10
0.0257412792858229
 20
0.0005815372895359
 30
0.0
  9
$EXTMAX
 10
18.03623823974264
 20
17.79585046191917
 30
6.468749999999996
  9
$LIMMIN
 10
0.0
 20
0.0
  9
$LIMMAX
 10
12.0
 20
9.0
  9
$ORTHOMODE
 70
     1
  9
$REGENMODE
 70
     1
  9
$FILLMODE
 70
     1
  9
$QTEXTMODE
 70
     0
  9
$MIRRTEXT
 70
     0
  9
$DRAGMODE
 70
     2
  9
$LTSCALE
 40
1.5
  9
$OSMODE
 70
     0
  9
$ATTMODE
 70
     1
  9
$TEXTSIZE
 40
0.25
  9
$TRACEWID
 40
0.05
  9
$TEXTSTYLE
  7
STANDARD
  9
$CLAYER
  8
USP
  9
$CELTYPE
  6
BYLAYER
  9
$CECOLOR
 62
   256
  9
$CELTSCALE
 40
1.0
  9
$DELOBJ
 70
     1
  9
$DISPSILH
 70
     1
  9
$DIMSCALE
 40
5.0
  9
$DIMASZ
 40
0.125
  9
$DIMEXO
 40
0.0625
  9
$DIMDLI
 40
0.38
  9
$DIMRND
 40
0.0
  9
$DIMDLE
 40
0.0
  9
$DIMEXE
 40
0.09375
  9
$DIMTP
 40
0.0
  9
$DIMTM
 40
0.0
  9
$DIMTXT
 40
0.109375
  9
$DIMCEN
 40
0.0
  9
$DIMTSZ
 40
0.0
  9
$DIMTOL
 70
     0
  9
$DIMLIM
 70
     0
  9
$DIMTIH
 70
     1
  9
$DIMTOH
 70
     1
  9
$DIMSE1
 70
     0
  9
$DIMSE2
 70
     0
  9
$DIMTAD
 70
     0
  9
$DIMZIN
 70
     8
  9
$DIMBLK
  1

  9
$DIMASO
 70
     1
  9
$DIMSHO
 70
     1
  9
$DIMPOST
  1

  9
$DIMAPOST
  1

  9
$DIMALT
 70
     0
  9
$DIMALTD
 70
     2
  9
$DIMALTF
 40
25.4
  9
$DIMLFAC
 40
1.0
  9
$DIMTOFL
 70
     0
  9
$DIMTVP
 40
0.0
  9
$DIMTIX
 70
     0
  9
$DIMSOXD
 70
     0
  9
$DIMSAH
 70
     0
  9
$DIMBLK1
  1

  9
$DIMBLK2
  1

  9
$DIMSTYLE
  2
STANDARD
  9
$DIMCLRD
 70
   256
  9
$DIMCLRE
 70
   256
  9
$DIMCLRT
 70
   256
  9
$DIMTFAC
 40
1.0
  9
$DIMGAP
 40
0.09
  9
$DIMJUST
 70
     0
  9
$DIMSD1
 70
     0
  9
$DIMSD2
 70
     0
  9
$DIMTOLJ
 70
     1
  9
$DIMTZIN
 70
     0
  9
$DIMALTZ
 70
     0
  9
$DIMALTTZ
 70
     0
  9
$DIMFIT
 70
     3
  9
$DIMUPT
 70
     1
  9
$DIMUNIT
 70
     7
  9
$DIMDEC
 70
     4
  9
$DIMTDEC
 70
     4
  9
$DIMALTU
 70
     2
  9
$DIMALTTD
 70
     2
  9
$DIMTXSTY
  7
STANDARD
  9
$DIMAUNIT
 70
     0
  9
$LUNITS
 70
     5
  9
$LUPREC
 70
     6
  9
$SKETCHINC
 40
0.1
  9
$FILLETRAD
 40
0.0
  9
$AUNITS
 70
     0
  9
$AUPREC
 70
     1
  9
$MENU
  1
CUSTOM
  9
$ELEVATION
 40
0.0
  9
$PELEVATION
 40
0.0
  9
$THICKNESS
 40
0.0
  9
$LIMCHECK
 70
     0
  9
$BLIPMODE
 70
     0
  9
$CHAMFERA
 40
0.0
  9
$CHAMFERB
 40
0.0
  9
$CHAMFERC
 40
0.0
  9
$CHAMFERD
 40
0.0
  9
$SKPOLY
 70
     0
  9
$TDCREATE
 40
2451263.621564698
  9
$TDUPDATE
 40
2453354.906859085
  9
$TDINDWG
 40
1.2601762963
  9
$TDUSRTIMER
 40
1.2601762963
  9
$USRTIMER
 70
     1
  9
$ANGBASE
 50
0.0
  9
$ANGDIR
 70
     0
  9
$PDMODE
 70
     0
  9
$PDSIZE
 40
0.0
  9
$PLINEWID
 40
0.0
  9
$COORDS
 70
     0
  9
$SPLFRAME
 70
     0
  9
$SPLINETYPE
 70
     6
  9
$SPLINESEGS
 70
     8
  9
$ATTDIA
 70
     0
  9
$ATTREQ
 70
     1
  9
$HANDLING
 70
     1
  9
$HANDSEED
  5
A7
  9
$SURFTAB1
 70
     6
  9
$SURFTAB2
 70
     6
  9
$SURFTYPE
 70
     6
  9
$SURFU
 70
     6
  9
$SURFV
 70
     6
  9
$UCSNAME
  2

  9
$UCSORG
 10
0.0
 20
0.0
 30
0.0
  9
$UCSXDIR
 10
1.0
 20
0.0
 30
0.0
  9
$UCSYDIR
 10
0.0
 20
1.0
 30
0.0
  9
$PUCSNAME
  2

  9
$PUCSORG
 10
0.0
 20
0.0
 30
0.0
  9
$PUCSXDIR
 10
1.0
 20
0.0
 30
0.0
  9
$PUCSYDIR
 10
0.0
 20
1.0
 30
0.0
  9
$USERI1
 70
     0
  9
$USERI2
 70
     0
  9
$USERI3
 70
     0
  9
$USERI4
 70
     0
  9
$USERI5
 70
     0
  9
$USERR1
 40
0.0
  9
$USERR2
 40
0.0
  9
$USERR3
 40
0.0
  9
$USERR4
 40
0.0
  9
$USERR5
 40
0.0
  9
$WORLDVIEW
 70
     1
  9
$SHADEDGE
 70
     3
  9
$SHADEDIF
 70
    70
  9
$TILEMODE
 70
     1
  9
$MAXACTVP
 70
    16
  9
$PINSBASE
 10
0.0
 20
0.0
 30
0.0
  9
$PLIMCHECK
 70
     0
  9
$PEXTMIN
 10
1.000000000000000E+20
 20
1.000000000000000E+20
 30
1.000000000000000E+20
  9
$PEXTMAX
 10
-1.000000000000000E+20
 20
-1.000000000000000E+20
 30
-1.000000000000000E+20
  9
$PLIMMIN
 10
0.0
 20
0.0
  9
$PLIMMAX
 10
12.0
 20
9.0
  9
$UNITMODE
 70
     0
  9
$VISRETAIN
 70
     0
  9
$PLINEGEN
 70
     0
  9
$PSLTSCALE
 70
     0
  9
$TREEDEPTH
 70
  3020
  9
$PICKSTYLE
 70
     1
  9
$CMLSTYLE
  2
STANDARD
  9
$CMLJUST
 70
     0
  9
$CMLSCALE
 40
1.0
  9
$PROXYGRAPHICS
 70
     1
  9
$MEASUREMENT
 70
     0
  0
ENDSEC
  0
SECTION
  2
CLASSES
  0
CLASS
  1
ACDBDICTIONARYWDFLT
  2
AcDbDictionaryWithDefault
  3
ObjectDBX Classes
 90
        0
280
     0
281
     0
  0
CLASS
  1
ACDBPLACEHOLDER
  2
AcDbPlaceHolder
  3
ObjectDBX Classes
 90
        0
280
     0
281
     0
  0
CLASS
  1
LAYOUT
  2
AcDbLayout
  3
ObjectDBX Classes
 90
        0
280
     0
281
     0
  0
CLASS
  1
DICTIONARYVAR
  2
AcDbDictionaryVar
  3
"AutoCAD"
 90
        0
280
     0
281
     0
  0
CLASS
  1
SORTENTSTABLE
  2
AcDbSortentsTable
  3
"AutoCAD"
 90
        0
280
     0
281
     0
  0
CLASS
  1
XRECORD
  2
AcDbXrecord
  3
"<Built In>"
 90
        0
280
     0
281
     0
  0
ENDSEC
  0
SECTION
  2
TABLES
  0
TABLE
  2
VPORT
  5
95
100
AcDbSymbolTable
 70
     1
  0
VPORT
  5
96
100
AcDbSymbolTableRecord
100
AcDbViewportTableRecord
  2
*ACTIVE
 70
     0
 10
0.0
 20
0.0
 11
1.0
 21
1.0
 12
-14.07763636519388
 22
19.16802943750704
 13
0.0
 23
0.0
 14
1.0
 24
1.0
 15
0.0
 25
0.0
 16
0.0
 26
0.0
 36
1.0
 17
23.09603071721725
 27
-10.27010416511325
 37
-10.44050274849355
 40
17.92574437847091
 41
1.379227053140096
 42
50.0
 43
10.55307667737539
 44
10.55307667737539
 50
0.0
 51
0.0
 71
     0
 72
   100
 73
     1
 74
     1
 75
     0
 76
     0
 77
     0
 78
     0
  0
ENDTAB
  0
TABLE
  2
LTYPE
  5
90
100
AcDbSymbolTable
 70
     1
  0
LTYPE
  5
91
100
AcDbSymbolTableRecord
100
AcDbLinetypeTableRecord
  2
BYBLOCK
 70
     0
  3

 72
    65
 73
     0
 40
0.0
  0
LTYPE
  5
92
100
AcDbSymbolTableRecord
100
AcDbLinetypeTableRecord
  2
BYLAYER
 70
     0
  3

 72
    65
 73
     0
 40
0.0
  0
LTYPE
  5
5
100
AcDbSymbolTableRecord
100
AcDbLinetypeTableRecord
  2
CONTINUOUS
 70
     0
  3
Solid line
 72
    65
 73
     0
 40
0.0
  0
ENDTAB
  0
TABLE
  2
LAYER
  5
8E
100
AcDbSymbolTable
 70
     5
  0
LAYER
  5
2F
100
AcDbSymbolTableRecord
100
AcDbLayerTableRecord
  2
0
 70
     0
 62
     7
  6
CONTINUOUS
  0
LAYER
  5
D
102
{ACAD_XDICTIONARY
360
E
102
}
100
AcDbSymbolTableRecord
100
AcDbLayerTableRecord
  2
USP-GEO
 70
     0
 62
     7
  6
CONTINUOUS
  0
LAYER
  5
8
102
{ACAD_XDICTIONARY
360
9
102
}
100
AcDbSymbolTableRecord
100
AcDbLayerTableRecord
  2
USP-TXT
 70
     0
 62
     7
  6
CONTINUOUS
  0
LAYER
  5
1E
102
{ACAD_XDICTIONARY
360
1F
102
}
100
AcDbSymbolTableRecord
100
AcDbLayerTableRecord
  2
USP-HID
 70
     0
 62
     7
  6
CONTINUOUS
  0
LAYER
  5
4
100
AcDbSymbolTableRecord
100
AcDbLayerTableRecord
  2
USP
 70
     0
 62
     7
  6
CONTINUOUS
  0
ENDTAB
  0
TABLE
  2
STYLE
  5
8F
100
AcDbSymbolTable
 70
     1
  0
STYLE
  5
B
100
AcDbSymbolTableRecord
100
AcDbTextStyleTableRecord
  2
STANDARD
 70
     0
 40
0.0
 41
1.0
 50
0.0
 71
     0
 42
0.25
  3
txt
  4

  0
ENDTAB
  0
TABLE
  2
VIEW
  5
93
100
AcDbSymbolTable
 70
     0
  0
ENDTAB
  0
TABLE
  2
UCS
  5
94
100
AcDbSymbolTable
 70
     0
  0
ENDTAB
  0
TABLE
  2
APPID
  5
97
100
AcDbSymbolTable
 70
     1
  0
APPID
  5
98
100
AcDbSymbolTableRecord
100
AcDbRegAppTableRecord
  2
ACAD
 70
     0
  0
ENDTAB
  0
TABLE
  2
DIMSTYLE
  5
99
100
AcDbSymbolTable
 70
     1
  0
DIMSTYLE
105
A1
102
{ACAD_XDICTIONARY
360
A2
102
}
100
AcDbSymbolTableRecord
100
AcDbDimStyleTableRecord
  2
STANDARD
 70
     0
  3

  4

  5

  6

  7

 40
1.0
 41
0.125
 42
0.0625
 43
0.38
 44
0.09375
 45
0.0
 46
0.0
 47
0.0
 48
0.0
140
0.109375
141
0.0
142
0.0
143
25.4
144
1.0
145
0.0
146
1.0
147
0.09
 71
     0
 72
     0
 73
     1
 74
     1
 75
     0
 76
     0
 77
     0
 78
     8
170
     0
171
     2
172
     0
173
     0
174
     0
175
     0
176
     0
177
     0
178
     0
270
     7
271
     4
272
     4
273
     2
274
     2
340
B
275
     0
280
     0
281
     0
282
     0
283
     1
284
     0
285
     0
286
     0
287
     3
288
     0
  0
ENDTAB
  0
TABLE
  2
BLOCK_RECORD
  5
1
100
AcDbSymbolTable
 70
     3
  0
BLOCK_RECORD
  5
2
102
{ACAD_XDICTIONARY
360
85
102
}
100
AcDbSymbolTableRecord
100
AcDbBlockTableRecord
  2
*MODEL_SPACE
  0
BLOCK_RECORD
  5
89
102
{ACAD_XDICTIONARY
360
8A
102
}
100
AcDbSymbolTableRecord
100
AcDbBlockTableRecord
  2
*PAPER_SPACE
  0
BLOCK_RECORD
  5
6
100
AcDbSymbolTableRecord
100
AcDbBlockTableRecord
  2
GHF31900_T
  0
BLOCK_RECORD
  5
32
100
AcDbSymbolTableRecord
100
AcDbBlockTableRecord
  2
GHF31900_F
  0
BLOCK_RECORD
  5
61
100
AcDbSymbolTableRecord
100
AcDbBlockTableRecord
  2
GHF31900_S
  0
ENDTAB
  0
ENDSEC
  0
SECTION
  2
BLOCKS
  0
BLOCK
  5
87
100
AcDbEntity
  8
0
100
AcDbBlockBegin
  2
*MODEL_SPACE
 70
     0
 10
0.0
 20
0.0
 30
0.0
  3
*MODEL_SPACE
  1

  0
ENDBLK
  5
88
100
AcDbEntity
  8
0
100
AcDbBlockEnd
  0
BLOCK
  5
8C
100
AcDbEntity
 67
     1
  8
0
100
AcDbBlockBegin
  2
*PAPER_SPACE
 70
     0
 10
0.0
 20
0.0
 30
0.0
  3
*PAPER_SPACE
  1

  0
ENDBLK
  5
8D
100
AcDbEntity
 67
     1
  8
0
100
AcDbBlockEnd
  0
BLOCK
  5
2E
100
AcDbEntity
  8
0
100
AcDbBlockBegin
  2
GHF31900_T
 70
     0
 10
0.0
 20
0.0
 30
0.0
  3
GHF31900_T
  1

  0
TEXT
  5
7
100
AcDbEntity
  8
USP-TXT
100
AcDbText
 10
0.0993916666666715
 20
-1.269801221077344
 30
0.0
 40
0.40625
  1
GHF31900 - TOP VIEW
 72
     1
 11
3.823350000000004
 21
-1.269801221077344
 31
0.0
100
AcDbText
  0
LINE
  5
C
100
AcDbEntity
  8
USP-GEO
100
AcDbLine
 10
5.521700000000002
 20
2.499999999999998
 30
0.0
 11
7.646700000000002
 21
2.499999999999998
 31
0.0
  0
LINE
  5
10
100
AcDbEntity
  8
USP-GEO
100
AcDbLine
 10
7.646700000000002
 20
2.604599999999988
 30
0.0
 11
7.646700000000002
 21
2.499999999999998
 31
0.0
  0
LINE
  5
11
100
AcDbEntity
  8
USP-GEO
100
AcDbLine
 10
5.417100000000004
 20
0.0
 30
0.0
 11
5.417100000000005
 21
2.604599999999996
 31
0.0
  0
LINE
  5
12
100
AcDbEntity
  8
USP-GEO
100
AcDbLine
 10
5.417100000000004
 20
0.0
 30
0.0
 11
5.521700000000002
 21
0.0
 31
0.0
  0
LINE
  5
13
100
AcDbEntity
  8
USP-GEO
100
AcDbLine
 10
5.521700000000002
 20
0.0
 30
0.0
 11
5.521700000000003
 21
2.499999999999998
 31
0.0
  0
LINE
  5
14
100
AcDbEntity
  8
USP-GEO
100
AcDbLine
 10
5.417100000000004
 20
2.604599999999996
 30
0.0
 11
7.646700000000002
 21
2.604599999999996
 31
0.0
  0
LINE
  5
15
100
AcDbEntity
  8
USP-GEO
100
AcDbLine
 10
2.229600000000004
 20
0.0
 30
0.0
 11
5.417100000000004
 21
0.0
 31
0.0
  0
LINE
  5
16
100
AcDbEntity
  8
USP-GEO
100
AcDbLine
 10
2.229600000000004
 20
0.0
 30
0.0
 11
2.125
 21
0.0
 31
0.0
  0
LINE
  5
17
100
AcDbEntity
  8
USP-GEO
100
AcDbLine
 10
0.0
 20
2.499999999999998
 30
0.0
 11
2.125
 21
2.499999999999998
 31
0.0
  0
LINE
  5
18
100
AcDbEntity
  8
USP-GEO
100
AcDbLine
 10
0.0000000000000071
 20
2.604599999999996
 30
0.0
 11
0.0000000000000071
 21
2.499999999999998
 31
0.0
  0
LINE
  5
19
100
AcDbEntity
  8
USP-GEO
100
AcDbLine
 10
2.229599999999997
 20
2.604600000000003
 30
0.0
 11
2.229599999999997
 21
-0.0000000000000018
 31
0.0
  0
LINE
  5
1A
100
AcDbEntity
  8
USP-GEO
100
AcDbLine
 10
2.125000000000007
 20
2.499999999999998
 30
0.0
 11
2.125000000000006
 21
-0.0000000000000018
 31
0.0
  0
LINE
  5
1B
100
AcDbEntity
  8
USP-GEO
100
AcDbLine
 10
2.229599999999997
 20
2.604600000000003
 30
0.0
 11
0.0000000000000071
 21
2.604600000000003
 31
0.0
  0
LINE
  5
1C
100
AcDbEntity
  8
USP-GEO
100
AcDbLine
 10
2.229600000000004
 20
2.374999999999998
 30
0.0
 11
5.417100000000004
 21
2.374999999999998
 31
0.0
  0
LINE
  5
1D
100
AcDbEntity
  8
USP-HID
100
AcDbLine
 10
6.537200000000003
 20
2.604599999999988
 30
0.0
 11
6.537200000000003
 21
2.499999999999991
 31
0.0
  0
LINE
  5
21
100
AcDbEntity
  8
USP-HID
100
AcDbLine
 10
6.256200000000002
 20
2.604599999999988
 30
0.0
 11
6.256200000000002
 21
2.499999999999991
 31
0.0
  0
LINE
  5
22
100
AcDbEntity
  8
USP-HID
100
AcDbLine
 10
7.412200000000003
 20
2.604599999999996
 30
0.0
 11
7.412200000000003
 21
2.499999999999998
 31
0.0
  0
LINE
  5
23
100
AcDbEntity
  8
USP-HID
100
AcDbLine
 10
7.131200000000002
 20
2.604599999999996
 30
0.0
 11
7.131200000000002
 21
2.499999999999998
 31
0.0
  0
LINE
  5
24
100
AcDbEntity
  8
USP-HID
100
AcDbLine
 10
5.417100000000004
 20
0.5154999999999923
 30
0.0
 11
5.521700000000002
 21
0.5154999999999923
 31
0.0
  0
LINE
  5
25
100
AcDbEntity
  8
USP-HID
100
AcDbLine
 10
5.417100000000004
 20
0.2344999999999935
 30
0.0
 11
5.521700000000002
 21
0.2344999999999935
 31
0.0
  0
LINE
  5
26
100
AcDbEntity
  8
USP-HID
100
AcDbLine
 10
1.390500000000007
 20
2.604599999999988
 30
0.0
 11
1.390500000000007
 21
2.499999999999998
 31
0.0
  0
LINE
  5
27
100
AcDbEntity
  8
USP-HID
100
AcDbLine
 10
1.109500000000007
 20
2.604599999999988
 30
0.0
 11
1.109500000000007
 21
2.499999999999998
 31
0.0
  0
LINE
  5
28
100
AcDbEntity
  8
USP-HID
100
AcDbLine
 10
0.5155000000000073
 20
2.604599999999996
 30
0.0
 11
0.5155000000000073
 21
2.499999999999998
 31
0.0
  0
LINE
  5
29
100
AcDbEntity
  8
USP-HID
100
AcDbLine
 10
0.234500000000007
 20
2.604599999999996
 30
0.0
 11
0.234500000000007
 21
2.499999999999998
 31
0.0
  0
LINE
  5
2A
100
AcDbEntity
  8
USP-HID
100
AcDbLine
 10
2.229600000000004
 20
0.2345000000000006
 30
0.0
 11
2.125000000000007
 21
0.2345000000000006
 31
0.0
  0
LINE
  5
2B
100
AcDbEntity
  8
USP-HID
100
AcDbLine
 10
2.229600000000004
 20
0.5154999999999994
 30
0.0
 11
2.125000000000007
 21
0.5154999999999994
 31
0.0
  0
LINE
  5
2C
100
AcDbEntity
  8
USP-HID
100
AcDbLine
 10
5.417100000000004
 20
2.374999999999998
 30
0.0
 11
5.521700000000002
 21
2.374999999999998
 31
0.0
  0
LINE
  5
2D
100
AcDbEntity
  8
USP-HID
100
AcDbLine
 10
2.229600000000004
 20
2.374999999999991
 30
0.0
 11
2.125
 21
2.374999999999991
 31
0.0
  0
ENDBLK
  5
30
100
AcDbEntity
  8
0
100
AcDbBlockEnd
  0
BLOCK
  5
5E
100
AcDbEntity
  8
0
100
AcDbBlockBegin
  2
GHF31900_F
 70
     0
 10
0.0
 20
0.0
 30
0.0
  3
GHF31900_F
  1

  0
TEXT
  5
33
100
AcDbEntity
  8
USP-TXT
100
AcDbText
 10
-0.3068583333333326
 20
-1.376298800176924
 30
0.0
 40
0.40625
  1
GHF31900 - FRONT VIEW
 72
     1
 11
3.823350000000001
 21
-1.376298800176924
 31
0.0
100
AcDbText
  0
LINE
  5
34
100
AcDbEntity
  8
USP-GEO
100
AcDbLine
 10
7.646700000000002
 20
1.010849999999997
 30
0.0
 11
5.521700000000002
 21
1.01085
 31
0.0
  0
LINE
  5
35
100
AcDbEntity
  8
USP-GEO
100
AcDbLine
 10
7.646700000000002
 20
8.979599999999997
 30
0.0
 11
7.646700000000001
 21
1.010849999999997
 31
0.0
  0
LINE
  5
36
100
AcDbEntity
  8
USP-GEO
100
AcDbLine
 10
5.521700000000002
 20
8.979599999999997
 30
0.0
 11
7.646700000000002
 21
8.979599999999997
 31
0.0
  0
CIRCLE
  5
37
100
AcDbEntity
  8
USP-GEO
100
AcDbCircle
 10
7.271700000000002
 20
8.604599999999997
 30
0.0
 40
0.1405
  0
CIRCLE
  5
38
100
AcDbEntity
  8
USP-GEO
100
AcDbCircle
 10
7.271700000000002
 20
7.354599999999997
 30
0.0
 40
0.1405
  0
CIRCLE
  5
39
100
AcDbEntity
  8
USP-GEO
100
AcDbCircle
 10
6.396700000000002
 20
7.979599999999994
 30
0.0
 40
0.1405
  0
CIRCLE
  5
3A
100
AcDbEntity
  8
USP-GEO
100
AcDbCircle
 10
7.271700000000002
 20
6.104599999999997
 30
0.0
 40
0.1405
  0
CIRCLE
  5
3B
100
AcDbEntity
  8
USP-GEO
100
AcDbCircle
 10
7.271700000000002
 20
4.854600000000001
 30
0.0
 40
0.1405
  0
CIRCLE
  5
3C
100
AcDbEntity
  8
USP-GEO
100
AcDbCircle
 10
6.396700000000002
 20
6.729599999999997
 30
0.0
 40
0.1405
  0
CIRCLE
  5
3D
100
AcDbEntity
  8
USP-GEO
100
AcDbCircle
 10
6.396700000000002
 20
4.229599999999997
 30
0.0
 40
0.1405
  0
CIRCLE
  5
3E
100
AcDbEntity
  8
USP-GEO
100
AcDbCircle
 10
6.396700000000002
 20
5.479599999999997
 30
0.0
 40
0.1405
  0
LINE
  5
3F
100
AcDbEntity
  8
USP-GEO
100
AcDbLine
 10
5.417100000000004
 20
8.979600000000001
 30
0.0
 11
5.521700000000002
 21
8.979600000000001
 31
0.0
  0
LINE
  5
40
100
AcDbEntity
  8
USP-GEO
100
AcDbLine
 10
5.417100000000004
 20
0.1045999999999978
 30
0.0
 11
5.417100000000005
 21
8.979600000000001
 31
0.0
  0
LINE
  5
41
100
AcDbEntity
  8
USP-GEO
100
AcDbLine
 10
2.125
 20
0.0
 30
0.0
 11
5.521700000000002
 21
-0.0000000000000007
 31
0.0
  0
LINE
  5
42
100
AcDbEntity
  8
USP-GEO
100
AcDbLine
 10
2.229600000000004
 20
0.1045999999999978
 30
0.0
 11
5.417100000000004
 21
0.1045999999999974
 31
0.0
  0
LINE
  5
43
100
AcDbEntity
  8
USP-GEO
100
AcDbLine
 10
2.229600000000004
 20
8.979600000000004
 30
0.0
 11
2.229600000000004
 21
0.1045999999999978
 31
0.0
  0
LINE
  5
44
100
AcDbEntity
  8
USP-GEO
100
AcDbLine
 10
2.229600000000004
 20
8.979600000000004
 30
0.0
 11
2.125
 21
8.979600000000004
 31
0.0
  0
LINE
  5
45
100
AcDbEntity
  8
USP-GEO
100
AcDbLine
 10
2.125
 20
8.979600000000004
 30
0.0
 11
2.125
 21
0.0
 31
0.0
  0
LINE
  5
46
100
AcDbEntity
  8
USP-GEO
100
AcDbLine
 10
5.521700000000002
 20
0.0
 30
0.0
 11
5.521700000000003
 21
8.979600000000001
 31
0.0
  0
LINE
  5
47
100
AcDbEntity
  8
USP-GEO
100
AcDbLine
 10
0.0
 20
8.979600000000001
 30
0.0
 11
2.125
 21
8.979600000000001
 31
0.0
  0
LINE
  5
48
100
AcDbEntity
  8
USP-GEO
100
AcDbLine
 10
0.0
 20
1.010849999999997
 30
0.0
 11
0.0000000000000009
 21
8.979599999999997
 31
0.0
  0
LINE
  5
49
100
AcDbEntity
  8
USP-GEO
100
AcDbLine
 10
2.125
 20
1.010849999999997
 30
0.0
 11
0.0
 21
1.010849999999998
 31
0.0
  0
CIRCLE
  5
4A
100
AcDbEntity
  8
USP-GEO
100
AcDbCircle
 10
0.3750000000000071
 20
4.854600000000001
 30
0.0
 40
0.1405
  0
CIRCLE
  5
4B
100
AcDbEntity
  8
USP-GEO
100
AcDbCircle
 10
1.25
 20
4.229599999999997
 30
0.0
 40
0.1405
  0
CIRCLE
  5
4C
100
AcDbEntity
  8
USP-GEO
100
AcDbCircle
 10
0.3750000000000071
 20
6.104600000000001
 30
0.0
 40
0.1405
  0
CIRCLE
  5
4D
100
AcDbEntity
  8
USP-GEO
100
AcDbCircle
 10
0.3750000000000071
 20
8.604600000000004
 30
0.0
 40
0.1405
  0
CIRCLE
  5
4E
100
AcDbEntity
  8
USP-GEO
100
AcDbCircle
 10
0.3750000000000071
 20
7.354600000000004
 30
0.0
 40
0.1405
  0
CIRCLE
  5
4F
100
AcDbEntity
  8
USP-GEO
100
AcDbCircle
 10
1.25
 20
6.729600000000001
 30
0.0
 40
0.1405
  0
CIRCLE
  5
50
100
AcDbEntity
  8
USP-GEO
100
AcDbCircle
 10
1.250000000000007
 20
7.979600000000001
 30
0.0
 40
0.1405
  0
CIRCLE
  5
51
100
AcDbEntity
  8
USP-GEO
100
AcDbCircle
 10
1.25
 20
5.479600000000001
 30
0.0
 40
0.1405
  0
LINE
  5
52
100
AcDbEntity
  8
USP-HID
100
AcDbLine
 10
5.417100000000004
 20
2.182599999999997
 30
0.0
 11
5.521700000000002
 21
2.182599999999997
 31
0.0
  0
LINE
  5
53
100
AcDbEntity
  8
USP-HID
100
AcDbLine
 10
5.417100000000004
 20
1.901599999999998
 30
0.0
 11
5.521700000000002
 21
1.901599999999998
 31
0.0
  0
LINE
  5
54
100
AcDbEntity
  8
USP-HID
100
AcDbLine
 10
5.417100000000004
 20
4.682599999999998
 30
0.0
 11
5.521700000000002
 21
4.682599999999998
 31
0.0
  0
LINE
  5
55
100
AcDbEntity
  8
USP-HID
100
AcDbLine
 10
5.417100000000004
 20
4.401599999999997
 30
0.0
 11
5.521700000000002
 21
4.401599999999997
 31
0.0
  0
LINE
  5
56
100
AcDbEntity
  8
USP-HID
100
AcDbLine
 10
5.417100000000004
 20
7.1826
 30
0.0
 11
5.521700000000002
 21
7.1826
 31
0.0
  0
LINE
  5
57
100
AcDbEntity
  8
USP-HID
100
AcDbLine
 10
5.417100000000004
 20
6.901600000000001
 30
0.0
 11
5.521700000000002
 21
6.901600000000001
 31
0.0
  0
LINE
  5
58
100
AcDbEntity
  8
USP-HID
100
AcDbLine
 10
2.229600000000004
 20
3.589099999999997
 30
0.0
 11
2.125000000000007
 21
3.589099999999997
 31
0.0
  0
LINE
  5
59
100
AcDbEntity
  8
USP-HID
100
AcDbLine
 10
2.229600000000004
 20
3.870099999999998
 30
0.0
 11
2.125000000000007
 21
3.870099999999998
 31
0.0
  0
LINE
  5
5A
100
AcDbEntity
  8
USP-HID
100
AcDbLine
 10
2.229599999999997
 20
1.089100000000005
 30
0.0
 11
2.125000000000007
 21
1.089100000000005
 31
0.0
  0
LINE
  5
5B
100
AcDbEntity
  8
USP-HID
100
AcDbLine
 10
2.229600000000004
 20
1.370100000000004
 30
0.0
 11
2.125
 21
1.370100000000004
 31
0.0
  0
LINE
  5
5C
100
AcDbEntity
  8
USP-HID
100
AcDbLine
 10
5.417100000000004
 20
1.010849999999997
 30
0.0
 11
5.521700000000002
 21
1.010849999999997
 31
0.0
  0
LINE
  5
5D
100
AcDbEntity
  8
USP-HID
100
AcDbLine
 10
2.229600000000004
 20
1.010849999999997
 30
0.0
 11
2.125
 21
1.010849999999997
 31
0.0
  0
ENDBLK
  5
5F
100
AcDbEntity
  8
0
100
AcDbBlockEnd
  0
BLOCK
  5
83
100
AcDbEntity
  8
0
100
AcDbBlockBegin
  2
GHF31900_S
 70
     0
 10
0.0
 20
0.0
 30
0.0
  3
GHF31900_S
  1

  0
TEXT
  5
62
100
AcDbEntity
  8
USP-TXT
100
AcDbText
 10
-2.609374999999988
 20
-1.376298800176924
 30
0.0
 40
0.40625
  1
GHF31900 - SIDE VIEW
 72
     1
 11
1.250000000000012
 21
-1.376298800176924
 31
0.0
100
AcDbText
  0
LINE
  5
63
100
AcDbEntity
  8
USP-GEO
100
AcDbLine
 10
2.500000000000012
 20
8.979599999999997
 30
0.0
 11
2.500000000000008
 21
1.010849999999997
 31
0.0
  0
LINE
  5
64
100
AcDbEntity
  8
USP-GEO
100
AcDbLine
 10
2.604600000000003
 20
1.010849999999997
 30
0.0
 11
2.500000000000005
 21
1.010849999999997
 31
0.0
  0
LINE
  5
65
100
AcDbEntity
  8
USP-GEO
100
AcDbLine
 10
2.604600000000003
 20
8.979599999999997
 30
0.0
 11
2.604599999999999
 21
1.010849999999997
 31
0.0
  0
LINE
  5
66
100
AcDbEntity
  8
USP-GEO
100
AcDbLine
 10
2.604600000000003
 20
8.979599999999997
 30
0.0
 11
2.500000000000012
 21
8.979599999999997
 31
0.0
  0
LINE
  5
67
100
AcDbEntity
  8
USP-GEO
100
AcDbLine
 10
0.0000000000000142
 20
8.979600000000001
 30
0.0
 11
2.500000000000012
 21
8.979600000000001
 31
0.0
  0
CIRCLE
  5
68
100
AcDbEntity
  8
USP-GEO
100
AcDbCircle
 10
0.3750000000000071
 20
2.042100000000004
 30
0.0
 40
0.1405
  0
CIRCLE
  5
69
100
AcDbEntity
  8
USP-GEO
100
AcDbCircle
 10
0.3750000000000071
 20
4.542099999999997
 30
0.0
 40
0.1405
  0
CIRCLE
  5
6A
100
AcDbEntity
  8
USP-GEO
100
AcDbCircle
 10
0.3750000000000071
 20
7.042100000000001
 30
0.0
 40
0.1405
  0
LINE
  5
6B
100
AcDbEntity
  8
USP-GEO
100
AcDbLine
 10
2.500000000000005
 20
1.010849999999997
 30
0.0
 11
2.375000000000005
 21
1.010849999999997
 31
0.0
  0
LINE
  5
6C
100
AcDbEntity
  8
USP-GEO
100
AcDbLine
 10
0.0
 20
0.0
 30
0.0
 11
2.374999999999998
 21
-0.0000000000000009
 31
0.0
  0
LINE
  5
6D
100
AcDbEntity
  8
USP-GEO
100
AcDbLine
 10
0.0
 20
0.0
 30
0.0
 11
0.0000000000000036
 21
8.979600000000001
 31
0.0
  0
LINE
  5
6E
100
AcDbEntity
  8
USP-GEO
100
AcDbLine
 10
2.375000000000005
 20
1.010849999999997
 30
0.0
 11
2.375000000000003
 21
0.0
 31
0.0
  0
LINE
  5
6F
100
AcDbEntity
  8
USP-HID
100
AcDbLine
 10
2.604600000000003
 20
5.339099999999997
 30
0.0
 11
2.500000000000012
 21
5.339099999999997
 31
0.0
  0
LINE
  5
70
100
AcDbEntity
  8
USP-HID
100
AcDbLine
 10
2.604600000000003
 20
5.620099999999998
 30
0.0
 11
2.500000000000005
 21
5.620099999999998
 31
0.0
  0
LINE
  5
71
100
AcDbEntity
  8
USP-HID
100
AcDbLine
 10
2.604600000000003
 20
4.089100000000001
 30
0.0
 11
2.500000000000005
 21
4.089100000000001
 31
0.0
  0
LINE
  5
72
100
AcDbEntity
  8
USP-HID
100
AcDbLine
 10
2.604600000000003
 20
4.370100000000001
 30
0.0
 11
2.499999999999998
 21
4.370100000000001
 31
0.0
  0
LINE
  5
73
100
AcDbEntity
  8
USP-HID
100
AcDbLine
 10
2.604600000000003
 20
6.589100000000001
 30
0.0
 11
2.500000000000012
 21
6.589100000000001
 31
0.0
  0
LINE
  5
74
100
AcDbEntity
  8
USP-HID
100
AcDbLine
 10
2.604600000000003
 20
6.8701
 30
0.0
 11
2.500000000000012
 21
6.8701
 31
0.0
  0
LINE
  5
75
100
AcDbEntity
  8
USP-HID
100
AcDbLine
 10
2.604600000000003
 20
4.714100000000001
 30
0.0
 11
2.500000000000012
 21
4.714100000000001
 31
0.0
  0
LINE
  5
76
100
AcDbEntity
  8
USP-HID
100
AcDbLine
 10
2.604600000000003
 20
4.995100000000001
 30
0.0
 11
2.500000000000012
 21
4.995100000000001
 31
0.0
  0
LINE
  5
77
100
AcDbEntity
  8
USP-HID
100
AcDbLine
 10
2.604600000000003
 20
5.964099999999997
 30
0.0
 11
2.500000000000012
 21
5.964099999999997
 31
0.0
  0
LINE
  5
78
100
AcDbEntity
  8
USP-HID
100
AcDbLine
 10
2.604600000000003
 20
6.245099999999998
 30
0.0
 11
2.500000000000012
 21
6.245099999999998
 31
0.0
  0
LINE
  5
79
100
AcDbEntity
  8
USP-HID
100
AcDbLine
 10
2.604600000000003
 20
7.839099999999994
 30
0.0
 11
2.500000000000005
 21
7.839099999999994
 31
0.0
  0
LINE
  5
7A
100
AcDbEntity
  8
USP-HID
100
AcDbLine
 10
2.604600000000003
 20
8.120099999999993
 30
0.0
 11
2.500000000000012
 21
8.120099999999993
 31
0.0
  0
LINE
  5
7B
100
AcDbEntity
  8
USP-HID
100
AcDbLine
 10
2.60460000000001
 20
7.214100000000001
 30
0.0
 11
2.500000000000012
 21
7.214100000000001
 31
0.0
  0
LINE
  5
7C
100
AcDbEntity
  8
USP-HID
100
AcDbLine
 10
2.604600000000003
 20
7.4951
 30
0.0
 11
2.500000000000012
 21
7.4951
 31
0.0
  0
LINE
  5
7D
100
AcDbEntity
  8
USP-HID
100
AcDbLine
 10
2.60460000000001
 20
8.464100000000001
 30
0.0
 11
2.500000000000012
 21
8.464100000000001
 31
0.0
  0
LINE
  5
7E
100
AcDbEntity
  8
USP-HID
100
AcDbLine
 10
2.604600000000017
 20
8.7451
 30
0.0
 11
2.500000000000012
 21
8.7451
 31
0.0
  0
LINE
  5
7F
100
AcDbEntity
  8
USP-HID
100
AcDbLine
 10
0.0000000000000142
 20
0.1045999999999982
 30
0.0
 11
2.374999999999998
 21
0.1045999999999976
 31
0.0
  0
CIRCLE
  5
80
100
AcDbEntity
  8
USP-HID
100
AcDbCircle
 10
0.3750000000000142
 20
1.229600000000004
 30
0.0
 40
0.1405
  0
CIRCLE
  5
81
100
AcDbEntity
  8
USP-HID
100
AcDbCircle
 10
0.3750000000000142
 20
3.729599999999997
 30
0.0
 40
0.1405
  0
LINE
  5
82
100
AcDbEntity
  8
USP-GEO
100
AcDbLine
 10
0.0000000000000142
 20
0.1045999999999978
 30
6.468749999999996
 11
2.374999999999998
 21
0.1045999999999978
 31
6.468749999999996
  0
ENDBLK
  5
84
100
AcDbEntity
  8
0
100
AcDbBlockEnd
  0
ENDSEC
  0
SECTION
  2
ENTITIES
  0
INSERT
  5
3
100
AcDbEntity
  8
USP
100
AcDbBlockReference
  2
GHF31900_T
 10
0.3325996126191555
 20
15.19125046191917
 30
0.0
  0
INSERT
  5
31
100
AcDbEntity
  8
USP
100
AcDbBlockReference
  2
GHF31900_F
 10
0.3325996126191555
 20
1.376880337466459
 30
0.0
  0
INSERT
  5
60
100
AcDbEntity
  8
USP
100
AcDbBlockReference
  2
GHF31900_S
 10
12.92686323974262
 20
1.376880337466459
 30
0.0
  0
ENDSEC
  0
SECTION
  2
OBJECTS
  0
DICTIONARY
  5
9D
102
{ACAD_XDICTIONARY
360
9E
102
}
100
AcDbDictionary
  3
ACAD_GROUP
350
9B
  3
ACAD_MLINESTYLE
350
9C
  0
DICTIONARY
  5
E
100
AcDbDictionary
280
     1
  3
ACAD_XREC_ROUNDTRIP
360
F
  0
DICTIONARY
  5
9
100
AcDbDictionary
280
     1
  3
ACAD_XREC_ROUNDTRIP
360
A
  0
DICTIONARY
  5
1F
100
AcDbDictionary
280
     1
  3
ACAD_XREC_ROUNDTRIP
360
20
  0
DICTIONARY
  5
A2
100
AcDbDictionary
280
     1
  3
ACAD_XREC_ROUNDTRIP
360
A3
  0
DICTIONARY
  5
85
100
AcDbDictionary
280
     1
  3
ACAD_LAYOUTSELFREF
360
86
  0
DICTIONARY
  5
8A
100
AcDbDictionary
280
     1
  3
ACAD_LAYOUTSELFREF
360
8B
  0
DICTIONARY
  5
9E
100
AcDbDictionary
280
     1
  3
ACAD_XREC_ROUNDTRIP
360
9F
  0
DICTIONARY
  5
9B
102
{ACAD_REACTORS
330
9D
102
}
100
AcDbDictionary
  0
DICTIONARY
  5
9C
102
{ACAD_REACTORS
330
9D
102
}
100
AcDbDictionary
  3
STANDARD
350
A0
  0
XRECORD
  5
F
102
{ACAD_REACTORS
330
E
102
}
100
AcDbXrecord
102
EXTNAMES
  1
USP-GEO
  2
USP-Geo
  0
XRECORD
  5
A
102
{ACAD_REACTORS
330
9
102
}
100
AcDbXrecord
102
EXTNAMES
  1
USP-TXT
  2
USP-Txt
  0
XRECORD
  5
20
102
{ACAD_REACTORS
330
1F
102
}
100
AcDbXrecord
102
EXTNAMES
  1
USP-HID
  2
USP-Hid
  0
XRECORD
  5
A3
102
{ACAD_REACTORS
330
A2
102
}
100
AcDbXrecord
102
ACADR14ROUNDTRIP
1000
DSTYLE
1002
{
1070
   276
 70
     2
1070
   277
 70
     5
1002
}
  0
XRECORD
  5
86
102
{ACAD_REACTORS
330
85
102
}
100
AcDbXrecord
340
18
  0
XRECORD
  5
8B
102
{ACAD_REACTORS
330
8A
102
}
100
AcDbXrecord
340
15
  0
XRECORD
  5
9F
102
{ACAD_REACTORS
330
9E
102
}
100
AcDbXrecord
102
EXTNAMES
  1
ACADDIM
  2
AcadDim
  1
ACDBVARIABLEDICTIONARY
  2
AcDbVariableDictionary
  1
AUXHDRRNDTRIPDATA
  2
AuxHdrRndTripData
  0
MLINESTYLE
  5
A0
102
{ACAD_REACTORS
330
9C
102
}
100
AcDbMlineStyle
  2
STANDARD
 70
     0
  3

 62
     0
 51
90.0
 52
90.0
 71
     2
 49
0.5
 62
   256
  6
BYLAYER
 49
-0.5
 62
   256
  6
BYLAYER
  0
ENDSEC
  0
EOF
