  0
SECTION
  2
HEADER
  9
$ACADVER
  1
AC1015
  9
$ACADMAINTVER
 70
     6
  9
$DWGCODEPAGE
  3
ANSI_1252
  9
$INSBASE
 10
0.0
 20
0.0
 30
0.0
  9
$EXTMIN
 10
0.0
 20
0.0
 30
0.0
  9
$EXTMAX
 10
8.5
 20
11.0
 30
0.0
  9
$LIMMIN
 10
0.0
 20
0.0
  9
$LIMMAX
 10
8.5
 20
11.0
  9
$ORTHOMODE
 70
     0
  9
$REGENMODE
 70
     1
  9
$FILLMODE
 70
     1
  9
$QTEXTMODE
 70
     0
  9
$MIRRTEXT
 70
     1
  9
$LTSCALE
 40
1.0
  9
$ATTMODE
 70
     1
  9
$TEXTSIZE
 40
0.1388888889
  9
$TRACEWID
 40
0.05
  9
$TEXTSTYLE
  7
Standard
  9
$CLAYER
  8
0
  9
$CELTYPE
  6
ByLayer
  9
$CECOLOR
 62
   256
  9
$CELTSCALE
 40
1.0
  9
$DISPSILH
 70
     0
  9
$DIMSCALE
 40
1.0
  9
$DIMASZ
 40
0.13
  9
$DIMEXO
 40
0.05
  9
$DIMDLI
 40
0.38
  9
$DIMRND
 40
0.0
  9
$DIMDLE
 40
0.0
  9
$DIMEXE
 40
0.125
  9
$DIMTP
 40
0.0
  9
$DIMTM
 40
0.0
  9
$DIMTXT
 40
0.125
  9
$DIMCEN
 40
0.09
  9
$DIMTSZ
 40
0.0
  9
$DIMTOL
 70
     0
  9
$DIMLIM
 70
     0
  9
$DIMTIH
 70
     1
  9
$DIMTOH
 70
     1
  9
$DIMSE1
 70
     0
  9
$DIMSE2
 70
     0
  9
$DIMTAD
 70
     1
  9
$DIMZIN
 70
     0
  9
$DIMBLK
  1

  9
$DIMASO
 70
     1
  9
$DIMSHO
 70
     1
  9
$DIMPOST
  1

  9
$DIMAPOST
  1

  9
$DIMALT
 70
     0
  9
$DIMALTD
 70
     2
  9
$DIMALTF
 40
25.4
  9
$DIMLFAC
 40
4.0
  9
$DIMTOFL
 70
     0
  9
$DIMTVP
 40
0.0
  9
$DIMTIX
 70
     0
  9
$DIMSOXD
 70
     0
  9
$DIMSAH
 70
     0
  9
$DIMBLK1
  1

  9
$DIMBLK2
  1

  9
$DIMSTYLE
  2
Standard
  9
$DIMCLRD
 70
     0
  9
$DIMCLRE
 70
     0
  9
$DIMCLRT
 70
     0
  9
$DIMTFAC
 40
1.0
  9
$DIMGAP
 40
0.06
  9
$DIMJUST
 70
     0
  9
$DIMSD1
 70
     0
  9
$DIMSD2
 70
     0
  9
$DIMTOLJ
 70
     1
  9
$DIMTZIN
 70
     0
  9
$DIMALTZ
 70
     0
  9
$DIMALTTZ
 70
     0
  9
$DIMUPT
 70
     0
  9
$DIMDEC
 70
     3
  9
$DIMTDEC
 70
     3
  9
$DIMALTU
 70
     2
  9
$DIMALTTD
 70
     2
  9
$DIMTXSTY
  7
Standard
  9
$DIMAUNIT
 70
     0
  9
$DIMADEC
 70
     2
  9
$DIMALTRND
 40
0.0
  9
$DIMAZIN
 70
     0
  9
$DIMDSEP
 70
    46
  9
$DIMATFIT
 70
     3
  9
$DIMFRAC
 70
     0
  9
$DIMLDRBLK
  1

  9
$DIMLUNIT
 70
     2
  9
$DIMLWD
 70
    -2
  9
$DIMLWE
 70
    -2
  9
$DIMTMOVE
 70
     0
  9
$LUNITS
 70
     2
  9
$LUPREC
 70
     3
  9
$SKETCHINC
 40
0.1
  9
$FILLETRAD
 40
0.5
  9
$AUNITS
 70
     0
  9
$AUPREC
 70
     2
  9
$MENU
  1
.
  9
$ELEVATION
 40
0.0
  9
$PELEVATION
 40
0.0
  9
$THICKNESS
 40
0.0
  9
$LIMCHECK
 70
     0
  9
$CHAMFERA
 40
0.0
  9
$CHAMFERB
 40
0.0
  9
$CHAMFERC
 40
0.0
  9
$CHAMFERD
 40
0.0
  9
$SKPOLY
 70
     0
  9
$TDCREATE
 40
2457308.614093842
  9
$TDUCREATE
 40
2457308.822427176
  9
$TDUPDATE
 40
2457308.61409912
  9
$TDUUPDATE
 40
2457308.822432454
  9
$TDINDWG
 40
0.0000000116
  9
$TDUSRTIMER
 40
0.0000000116
  9
$USRTIMER
 70
     1
  9
$ANGBASE
 50
0.0
  9
$ANGDIR
 70
     0
  9
$PDMODE
 70
     0
  9
$PDSIZE
 40
-1.0
  9
$PLINEWID
 40
0.0
  9
$SPLFRAME
 70
     0
  9
$SPLINETYPE
 70
     6
  9
$SPLINESEGS
 70
     8
  9
$HANDSEED
  5
295
  9
$SURFTAB1
 70
     6
  9
$SURFTAB2
 70
     6
  9
$SURFTYPE
 70
     6
  9
$SURFU
 70
     6
  9
$SURFV
 70
     6
  9
$UCSBASE
  2

  9
$UCSNAME
  2

  9
$UCSORG
 10
0.0
 20
0.0
 30
0.0
  9
$UCSXDIR
 10
1.0
 20
0.0
 30
0.0
  9
$UCSYDIR
 10
0.0
 20
1.0
 30
0.0
  9
$UCSORTHOREF
  2

  9
$UCSORTHOVIEW
 70
     0
  9
$UCSORGTOP
 10
0.0
 20
0.0
 30
0.0
  9
$UCSORGBOTTOM
 10
0.0
 20
0.0
 30
0.0
  9
$UCSORGLEFT
 10
0.0
 20
0.0
 30
0.0
  9
$UCSORGRIGHT
 10
0.0
 20
0.0
 30
0.0
  9
$UCSORGFRONT
 10
0.0
 20
0.0
 30
0.0
  9
$UCSORGBACK
 10
0.0
 20
0.0
 30
0.0
  9
$PUCSBASE
  2

  9
$PUCSNAME
  2

  9
$PUCSORG
 10
0.0
 20
0.0
 30
0.0
  9
$PUCSXDIR
 10
1.0
 20
0.0
 30
0.0
  9
$PUCSYDIR
 10
0.0
 20
1.0
 30
0.0
  9
$PUCSORTHOREF
  2

  9
$PUCSORTHOVIEW
 70
     0
  9
$PUCSORGTOP
 10
0.0
 20
0.0
 30
0.0
  9
$PUCSORGBOTTOM
 10
0.0
 20
0.0
 30
0.0
  9
$PUCSORGLEFT
 10
0.0
 20
0.0
 30
0.0
  9
$PUCSORGRIGHT
 10
0.0
 20
0.0
 30
0.0
  9
$PUCSORGFRONT
 10
0.0
 20
0.0
 30
0.0
  9
$PUCSORGBACK
 10
0.0
 20
0.0
 30
0.0
  9
$USERI1
 70
     0
  9
$USERI2
 70
     0
  9
$USERI3
 70
     0
  9
$USERI4
 70
     0
  9
$USERI5
 70
     0
  9
$USERR1
 40
0.0
  9
$USERR2
 40
0.0
  9
$USERR3
 40
0.0
  9
$USERR4
 40
0.0
  9
$USERR5
 40
0.0
  9
$WORLDVIEW
 70
     1
  9
$SHADEDGE
 70
     3
  9
$SHADEDIF
 70
    70
  9
$TILEMODE
 70
     1
  9
$MAXACTVP
 70
    64
  9
$PINSBASE
 10
0.0
 20
0.0
 30
0.0
  9
$PLIMCHECK
 70
     0
  9
$PEXTMIN
 10
1.0000000000E+20
 20
1.0000000000E+20
 30
1.0000000000E+20
  9
$PEXTMAX
 10
-1.0000000000E+20
 20
-1.0000000000E+20
 30
-1.0000000000E+20
  9
$PLIMMIN
 10
0.0
 20
0.0
  9
$PLIMMAX
 10
12.0
 20
9.0
  9
$UNITMODE
 70
     0
  9
$VISRETAIN
 70
     1
  9
$PLINEGEN
 70
     0
  9
$PSLTSCALE
 70
     1
  9
$TREEDEPTH
 70
  3020
  9
$CMLSTYLE
  2
Standard
  9
$CMLJUST
 70
     0
  9
$CMLSCALE
 40
1.0
  9
$PROXYGRAPHICS
 70
     1
  9
$MEASUREMENT
 70
     0
  9
$CELWEIGHT
370
    -1
  9
$ENDCAPS
280
     0
  9
$JOINSTYLE
280
     0
  9
$LWDISPLAY
290
     1
  9
$INSUNITS
 70
     1
  9
$HYPERLINKBASE
  1

  9
$STYLESHEET
  1

  9
$XEDIT
290
     1
  9
$CEPSNTYPE
380
     0
  9
$PSTYLEMODE
290
     1
  9
$FINGERPRINTGUID
  2
{BEE5C4D1-1766-4F9E-B02D-4BB5E610C946}
  9
$VERSIONGUID
  2
{FAEB1C32-E019-11D5-929B-00C0DF256EC4}
  9
$EXTNAMES
290
     1
  9
$PSVPSCALE
 40
0.0
  9
$OLESTARTUP
290
     0
  0
ENDSEC
  0
SECTION
  2
CLASSES
  0
CLASS
  1
ACDBDICTIONARYWDFLT
  2
AcDbDictionaryWithDefault
  3
ObjectDBX Classes
 90
        0
280
     0
281
     0
  0
CLASS
  1
VISUALSTYLE
  2
AcDbVisualStyle
  3
ObjectDBX Classes
 90
     4095
280
     0
281
     0
  0
CLASS
  1
MATERIAL
  2
AcDbMaterial
  3
ObjectDBX Classes
 90
     1153
280
     0
281
     0
  0
CLASS
  1
SCALE
  2
AcDbScale
  3
ObjectDBX Classes
 90
     1153
280
     0
281
     0
  0
CLASS
  1
SUN
  2
AcDbSun
  3
SCENEOE
 90
     1153
280
     0
281
     0
  0
CLASS
  1
ACDBPLACEHOLDER
  2
AcDbPlaceHolder
  3
ObjectDBX Classes
 90
        0
280
     0
281
     0
  0
CLASS
  1
LAYOUT
  2
AcDbLayout
  3
ObjectDBX Classes
 90
        0
280
     0
281
     0
  0
ENDSEC
  0
SECTION
  2
TABLES
  0
TABLE
  2
VPORT
  5
8
330
0
100
AcDbSymbolTable
 70
     1
  0
VPORT
  5
29
330
8
100
AcDbSymbolTableRecord
100
AcDbViewportTableRecord
  2
*Active
 70
     0
 10
0.0
 20
0.0
 11
1.0
 21
1.0
 12
4.25
 22
5.5
 13
0.0
 23
0.0
 14
0.5
 24
0.5
 15
0.5
 25
0.5
 16
0.0
 26
0.0
 36
1.0
 17
0.0
 27
0.0
 37
0.0
 40
11.0
 41
0.7727272727
 42
50.0
 43
0.0
 44
0.0
 50
0.0
 51
0.0
 71
     0
 72
  2000
 73
     1
 74
     3
 75
     0
 76
     0
 77
     0
 78
     0
281
     0
 65
     1
110
0.0
120
0.0
130
0.0
111
1.0
121
0.0
131
0.0
112
0.0
122
1.0
132
0.0
 79
     0
146
0.0
  0
ENDTAB
  0
TABLE
  2
LTYPE
  5
5
330
0
100
AcDbSymbolTable
 70
     6
  0
LTYPE
  5
14
330
5
100
AcDbSymbolTableRecord
100
AcDbLinetypeTableRecord
  2
ByBlock
 70
     0
  3

 72
    65
 73
     0
 40
0.0
  0
LTYPE
  5
15
330
5
100
AcDbSymbolTableRecord
100
AcDbLinetypeTableRecord
  2
ByLayer
 70
     0
  3

 72
    65
 73
     0
 40
0.0
  0
LTYPE
  5
16
330
5
100
AcDbSymbolTableRecord
100
AcDbLinetypeTableRecord
  2
Continuous
 70
     0
  3
Solid line
 72
    65
 73
     0
 40
0.0
  0
LTYPE
  5
6A
330
5
100
AcDbSymbolTableRecord
100
AcDbLinetypeTableRecord
  2
HIDDEN
 70
     0
  3
Hidden __ __ __ __ __ __ __ __ __ __ __ __ __ __
 72
    65
 73
     2
 40
0.075
 49
0.05
 74
     0
 49
-0.025
 74
     0
  0
LTYPE
  5
6B
330
5
100
AcDbSymbolTableRecord
100
AcDbLinetypeTableRecord
  2
PHANTOM
 70
     0
  3
Phantom ______  __  __  ______  __  __  ______
 72
    65
 73
     6
 40
0.5
 49
0.25
 74
     0
 49
-0.05
 74
     0
 49
0.05
 74
     0
 49
-0.05
 74
     0
 49
0.05
 74
     0
 49
-0.05
 74
     0
  0
LTYPE
  5
6C
330
5
100
AcDbSymbolTableRecord
100
AcDbLinetypeTableRecord
  2
CENTER
 70
     0
  3
Center ____ _ ____ _ ____ _ ____ _ ____ _ ____
 72
    65
 73
     4
 40
0.4
 49
0.25
 74
     0
 49
-0.05
 74
     0
 49
0.05
 74
     0
 49
-0.05
 74
     0
  0
LTYPE
  5
6D
330
5
100
AcDbSymbolTableRecord
100
AcDbLinetypeTableRecord
  2
CENTERX2
 70
     0
  3
Center (2x) ________  __  ________  __  _____
 72
    65
 73
     4
 40
0.8
 49
0.5
 74
     0
 49
-0.1
 74
     0
 49
0.1
 74
     0
 49
-0.1
 74
     0
  0
LTYPE
  5
6E
330
5
100
AcDbSymbolTableRecord
100
AcDbLinetypeTableRecord
  2
DOT2
 70
     0
  3
Dot (.5x) ........................................
 72
    65
 73
     2
 40
0.025
 49
0.0
 74
     0
 49
-0.025
 74
     0
  0
ENDTAB
  0
TABLE
  2
LAYER
  5
2
330
0
100
AcDbSymbolTable
 70
    26
  0
LAYER
  5
10
330
2
100
AcDbSymbolTableRecord
100
AcDbLayerTableRecord
  2
0
 70
     0
 62
     7
  6
Continuous
370
    -3
390
F
  0
LAYER
  5
6F
330
2
100
AcDbSymbolTableRecord
100
AcDbLayerTableRecord
  2
SLD-0
 70
     0
 62
   179
  6
Continuous
370
    -3
390
F
  0
LAYER
  5
70
330
2
100
AcDbSymbolTableRecord
100
AcDbLayerTableRecord
  2
SLD-DEFPOINTS
 70
     0
 62
   179
  6
Continuous
370
    -3
390
F
  0
LAYER
  5
71
330
2
100
AcDbSymbolTableRecord
100
AcDbLayerTableRecord
  2
OBJ
 70
     0
 62
   179
  6
Continuous
370
    30
390
F
  0
LAYER
  5
72
330
2
100
AcDbSymbolTableRecord
100
AcDbLayerTableRecord
  2
FORMAT
 70
     0
 62
     7
  6
Continuous
370
    -3
390
F
  0
LAYER
  5
73
330
2
100
AcDbSymbolTableRecord
100
AcDbLayerTableRecord
  2
REV-1
 70
     0
 62
    -7
  6
Continuous
370
    -3
390
F
  0
LAYER
  5
74
330
2
100
AcDbSymbolTableRecord
100
AcDbLayerTableRecord
  2
REV-2
 70
     0
 62
    -7
  6
Continuous
370
    -3
390
F
  0
LAYER
  5
75
330
2
100
AcDbSymbolTableRecord
100
AcDbLayerTableRecord
  2
REV-3
 70
     0
 62
    -7
  6
Continuous
370
    -3
390
F
  0
LAYER
  5
76
330
2
100
AcDbSymbolTableRecord
100
AcDbLayerTableRecord
  2
PAINT
 70
     0
 62
    -7
  6
Continuous
370
    -3
390
F
  0
LAYER
  5
77
330
2
100
AcDbSymbolTableRecord
100
AcDbLayerTableRecord
  2
STAMP-AREA
 70
     0
 62
    -7
  6
Continuous
370
    -3
390
F
  0
LAYER
  5
78
330
2
100
AcDbSymbolTableRecord
100
AcDbLayerTableRecord
  2
TOLERANCES
 70
     0
 62
     7
  6
Continuous
370
    -3
390
F
  0
LAYER
  5
79
330
2
100
AcDbSymbolTableRecord
100
AcDbLayerTableRecord
  2
BLANK-SIZE-1
 70
     0
 62
    -7
  6
Continuous
370
    -3
390
F
  0
LAYER
  5
7A
330
2
100
AcDbSymbolTableRecord
100
AcDbLayerTableRecord
  2
BLANK-SIZE-2
 70
     0
 62
    -7
  6
Continuous
370
    -3
390
F
  0
LAYER
  5
7B
330
2
100
AcDbSymbolTableRecord
100
AcDbLayerTableRecord
  2
BLANK-SIZE-3
 70
     0
 62
    -7
  6
Continuous
370
    -3
390
F
  0
LAYER
  5
7C
330
2
100
AcDbSymbolTableRecord
100
AcDbLayerTableRecord
  2
BLANK-SIZE-4
 70
     0
 62
    -7
  6
Continuous
370
    -3
390
F
  0
LAYER
  5
7D
330
2
100
AcDbSymbolTableRecord
100
AcDbLayerTableRecord
  2
BLANK-SIZE-5
 70
     0
 62
    -7
  6
Continuous
370
    -3
390
F
  0
LAYER
  5
7E
330
2
100
AcDbSymbolTableRecord
100
AcDbLayerTableRecord
  2
HDG
 70
     0
 62
    -7
  6
Continuous
370
    -3
390
F
  0
LAYER
  5
7F
330
2
100
AcDbSymbolTableRecord
100
AcDbLayerTableRecord
  2
FAX-NOTE
 70
     0
 62
    -7
  6
Continuous
370
    -3
390
F
  0
LAYER
  5
80
330
2
100
AcDbSymbolTableRecord
100
AcDbLayerTableRecord
  2
TOP_MOUNT_PAINT
 70
     0
 62
    -7
  6
Continuous
370
    -3
390
F
  0
LAYER
  5
81
330
2
100
AcDbSymbolTableRecord
100
AcDbLayerTableRecord
  2
QTY-BLANK-SIZE-1
 70
     0
 62
     7
  6
Continuous
370
    -3
390
F
  0
LAYER
  5
82
330
2
100
AcDbSymbolTableRecord
100
AcDbLayerTableRecord
  2
BOLD
 70
     0
 62
     1
  6
Continuous
370
    30
390
F
  0
LAYER
  5
83
330
2
100
AcDbSymbolTableRecord
100
AcDbLayerTableRecord
  2
BORDER
 70
     0
 62
   179
  6
Continuous
370
    -3
390
F
  0
LAYER
  5
84
330
2
100
AcDbSymbolTableRecord
100
AcDbLayerTableRecord
  2
ITEM_NUMBER
 70
     0
 62
    -7
  6
Continuous
370
    -3
390
F
  0
LAYER
  5
85
330
2
100
AcDbSymbolTableRecord
100
AcDbLayerTableRecord
  2
SLR
 70
     0
 62
    -7
  6
Continuous
370
    -3
390
F
  0
LAYER
  5
86
330
2
100
AcDbSymbolTableRecord
100
AcDbLayerTableRecord
  2
SLL
 70
     0
 62
     7
  6
Continuous
370
    -3
390
F
  0
LAYER
  5
87
330
2
100
AcDbSymbolTableRecord
100
AcDbLayerTableRecord
  2
DASH
 70
     0
 62
     7
  6
HIDDEN
370
    15
390
F
  0
ENDTAB
  0
TABLE
  2
STYLE
  5
3
330
0
100
AcDbSymbolTable
 70
     3
  0
STYLE
  5
11
330
3
100
AcDbSymbolTableRecord
100
AcDbTextStyleTableRecord
  2
Standard
 70
     0
 40
0.0
 41
1.0
 50
0.0
 71
     0
 42
0.1388888889
  3
txt
  4

  0
STYLE
  5
AC
330
3
100
AcDbSymbolTableRecord
100
AcDbTextStyleTableRecord
  2
SLDTEXTSTYLE0
 70
     0
 40
0.0
 41
0.7
 50
0.0
 71
     0
 42
0.1388888889
  3
TXT
  4

  0
STYLE
  5
B4
330
3
100
AcDbSymbolTableRecord
100
AcDbTextStyleTableRecord
  2
SLDTEXTSTYLE1
 70
     0
 40
0.0
 41
0.605
 50
0.0
 71
     0
 42
0.1388888889
  3
TXT
  4

  0
ENDTAB
  0
TABLE
  2
VIEW
  5
6
330
0
100
AcDbSymbolTable
 70
     0
  0
ENDTAB
  0
TABLE
  2
UCS
  5
7
330
0
100
AcDbSymbolTable
 70
     0
  0
ENDTAB
  0
TABLE
  2
APPID
  5
9
330
0
100
AcDbSymbolTable
 70
     1
  0
APPID
  5
12
330
9
100
AcDbSymbolTableRecord
100
AcDbRegAppTableRecord
  2
ACAD
 70
     0
  0
ENDTAB
  0
TABLE
  2
DIMSTYLE
  5
A
330
0
100
AcDbSymbolTable
 70
     1
100
AcDbDimStyleTable
  0
DIMSTYLE
105
27
330
A
100
AcDbSymbolTableRecord
100
AcDbDimStyleTableRecord
  2
Standard
 70
     0
178
     0
340
11
  0
ENDTAB
  0
TABLE
  2
BLOCK_RECORD
  5
1
330
0
100
AcDbSymbolTable
 70
    12
  0
BLOCK_RECORD
  5
1F
330
1
100
AcDbSymbolTableRecord
100
AcDbBlockTableRecord
  2
*Model_Space
340
22
  0
BLOCK_RECORD
  5
1B
330
1
100
AcDbSymbolTableRecord
100
AcDbBlockTableRecord
  2
*Paper_Space
340
1E
  0
BLOCK_RECORD
  5
23
330
1
100
AcDbSymbolTableRecord
100
AcDbBlockTableRecord
  2
*Paper_Space0
340
26
  0
BLOCK_RECORD
  5
B1
330
1
100
AcDbSymbolTableRecord
100
AcDbBlockTableRecord
  2
SW_NOTE_0
340
0
102
{BLKREFS
331
B9
102
}
  0
BLOCK_RECORD
  5
177
330
1
100
AcDbSymbolTableRecord
100
AcDbBlockTableRecord
  2
SW_CENTERMARKSYMBOL_0
340
0
102
{BLKREFS
331
182
102
}
  0
BLOCK_RECORD
  5
183
330
1
100
AcDbSymbolTableRecord
100
AcDbBlockTableRecord
  2
SW_CENTERMARKSYMBOL_1
340
0
102
{BLKREFS
331
18E
102
}
  0
BLOCK_RECORD
  5
18F
330
1
100
AcDbSymbolTableRecord
100
AcDbBlockTableRecord
  2
SW_CENTERMARKSYMBOL_2
340
0
102
{BLKREFS
331
19A
102
}
  0
BLOCK_RECORD
  5
1D5
330
1
100
AcDbSymbolTableRecord
100
AcDbBlockTableRecord
  2
SW_CENTERMARKSYMBOL_3
340
0
102
{BLKREFS
331
1E0
102
}
  0
BLOCK_RECORD
  5
1E1
330
1
100
AcDbSymbolTableRecord
100
AcDbBlockTableRecord
  2
SW_CENTERMARKSYMBOL_4
340
0
102
{BLKREFS
331
1EC
102
}
  0
BLOCK_RECORD
  5
1ED
330
1
100
AcDbSymbolTableRecord
100
AcDbBlockTableRecord
  2
SW_CENTERMARKSYMBOL_5
340
0
102
{BLKREFS
331
1F8
102
}
  0
BLOCK_RECORD
  5
265
330
1
100
AcDbSymbolTableRecord
100
AcDbBlockTableRecord
  2
SW_CENTERMARKSYMBOL_6
340
0
102
{BLKREFS
331
270
102
}
  0
BLOCK_RECORD
  5
271
330
1
100
AcDbSymbolTableRecord
100
AcDbBlockTableRecord
  2
SW_CENTERMARKSYMBOL_7
340
0
102
{BLKREFS
331
27C
102
}
  0
BLOCK_RECORD
  5
27D
330
1
100
AcDbSymbolTableRecord
100
AcDbBlockTableRecord
  2
SW_CENTERMARKSYMBOL_8
340
0
102
{BLKREFS
331
288
102
}
  0
BLOCK_RECORD
  5
289
330
1
100
AcDbSymbolTableRecord
100
AcDbBlockTableRecord
  2
SW_CENTERMARKSYMBOL_9
340
0
102
{BLKREFS
331
294
102
}
  0
ENDTAB
  0
ENDSEC
  0
SECTION
  2
BLOCKS
  0
BLOCK
  5
20
330
1F
100
AcDbEntity
  8
0
100
AcDbBlockBegin
  2
*Model_Space
 70
     0
 10
0.0
 20
0.0
 30
0.0
  3
*Model_Space
  1
*Model_Space
  0
ENDBLK
  5
21
330
1F
100
AcDbEntity
  8
0
100
AcDbBlockEnd
  0
BLOCK
  5
1C
330
1B
100
AcDbEntity
 67
     1
  8
0
100
AcDbBlockBegin
  2
*Paper_Space
 70
     0
 10
0.0
 20
0.0
 30
0.0
  3
*Paper_Space
  1
*Paper_Space
  0
ENDBLK
  5
1D
330
1B
100
AcDbEntity
 67
     1
  8
0
100
AcDbBlockEnd
  0
BLOCK
  5
24
330
23
100
AcDbEntity
  8
0
100
AcDbBlockBegin
  2
*Paper_Space0
 70
     0
 10
0.0
 20
0.0
 30
0.0
  3
*Paper_Space0
  1
*Paper_Space0
  0
ENDBLK
  5
25
330
23
100
AcDbEntity
  8
0
100
AcDbBlockEnd
  0
BLOCK
  5
B2
330
B1
100
AcDbEntity
  8
0
100
AcDbBlockBegin
  2
SW_NOTE_0
 70
     0
 10
0.0
 20
0.0
 30
0.0
  3
SW_NOTE_0
  1
SW_NOTE_0
  0
MTEXT
  5
B5
330
B1
100
AcDbEntity
  8
TOP_MOUNT_PAINT
 62
     0
100
AcDbMText
 10
0.0
 20
0.1342778896
 30
0.0
 40
0.1041666667
 41
0.0
 71
     1
 72
     1
  1
NOTE:
  7
SLDTEXTSTYLE1
 73
     1
 44
1.0
  0
MTEXT
  5
B6
330
B1
100
AcDbEntity
  8
TOP_MOUNT_PAINT
 62
     0
100
AcDbMText
 10
0.0
 20
-0.0046109977
 30
0.0
 40
0.1041666667
 41
0.0
 71
     1
 72
     1
  1
DIMENSIONS IN BRACKETS ARE FOR INFORMATIONAL
  7
SLDTEXTSTYLE1
 73
     1
 44
1.0
  0
MTEXT
  5
B7
330
B1
100
AcDbEntity
  8
TOP_MOUNT_PAINT
 62
     0
100
AcDbMText
 10
0.1171875
 20
-0.1434998849
 30
0.0
 40
0.1041666667
 41
0.0
 71
     1
 72
     1
  1
PURPOSES ONLY. NOT A PRODUCT SPECIFICATION
  7
SLDTEXTSTYLE1
 73
     1
 44
1.0
  0
MTEXT
  5
B8
330
B1
100
AcDbEntity
  8
TOP_MOUNT_PAINT
 62
     0
100
AcDbMText
 10
0.0
 20
-0.2823887721
 30
0.0
 40
0.1041666667
 41
0.0
 71
     1
 72
     1
  1
PAINT PER USP SPECIFICATION AFTER FAGRICATION
  7
SLDTEXTSTYLE1
 73
     1
 44
1.0
  0
ENDBLK
  5
B3
330
B1
100
AcDbEntity
  8
0
100
AcDbBlockEnd
  0
BLOCK
  5
178
330
177
100
AcDbEntity
  8
0
100
AcDbBlockBegin
  2
SW_CENTERMARKSYMBOL_0
 70
     0
 10
0.0
 20
0.0
 30
0.0
  3
SW_CENTERMARKSYMBOL_0
  1
SW_CENTERMARKSYMBOL_0
  0
LINE
  5
17A
330
177
100
AcDbEntity
  8
BLANK-SIZE-2
 62
     0
100
AcDbLine
 10
0.0
 20
0.0
 30
0.0
 11
0.0
 21
0.0222222222
 31
0.0
  0
LINE
  5
17B
330
177
100
AcDbEntity
  8
BLANK-SIZE-2
 62
     0
100
AcDbLine
 10
0.0
 20
0.0
 30
0.0
 11
-0.0222222222
 21
0.0
 31
0.0
  0
LINE
  5
17C
330
177
100
AcDbEntity
  8
BLANK-SIZE-2
 62
     0
100
AcDbLine
 10
0.0
 20
0.0
 30
0.0
 11
0.0
 21
-0.0222222222
 31
0.0
  0
LINE
  5
17D
330
177
100
AcDbEntity
  8
BLANK-SIZE-2
 62
     0
100
AcDbLine
 10
0.0
 20
0.0
 30
0.0
 11
0.0222222222
 21
0.0
 31
0.0
  0
LINE
  5
17E
330
177
100
AcDbEntity
  8
BLANK-SIZE-2
 62
     0
100
AcDbLine
 10
0.0
 20
0.0222222222
 30
0.0
 11
0.0
 21
0.0404444444
 31
0.0
  0
LINE
  5
17F
330
177
100
AcDbEntity
  8
BLANK-SIZE-2
 62
     0
100
AcDbLine
 10
-0.0222222222
 20
0.0
 30
0.0
 11
-0.0404444444
 21
0.0
 31
0.0
  0
LINE
  5
180
330
177
100
AcDbEntity
  8
BLANK-SIZE-2
 62
     0
100
AcDbLine
 10
0.0
 20
-0.0222222222
 30
0.0
 11
0.0
 21
-0.0404444444
 31
0.0
  0
LINE
  5
181
330
177
100
AcDbEntity
  8
BLANK-SIZE-2
 62
     0
100
AcDbLine
 10
0.0222222222
 20
0.0
 30
0.0
 11
0.0404444444
 21
0.0
 31
0.0
  0
ENDBLK
  5
179
330
177
100
AcDbEntity
  8
0
100
AcDbBlockEnd
  0
BLOCK
  5
184
330
183
100
AcDbEntity
  8
0
100
AcDbBlockBegin
  2
SW_CENTERMARKSYMBOL_1
 70
     0
 10
0.0
 20
0.0
 30
0.0
  3
SW_CENTERMARKSYMBOL_1
  1
SW_CENTERMARKSYMBOL_1
  0
LINE
  5
186
330
183
100
AcDbEntity
  8
BLANK-SIZE-2
 62
     0
100
AcDbLine
 10
0.0
 20
0.0
 30
0.0
 11
0.0
 21
0.0222222222
 31
0.0
  0
LINE
  5
187
330
183
100
AcDbEntity
  8
BLANK-SIZE-2
 62
     0
100
AcDbLine
 10
0.0
 20
0.0
 30
0.0
 11
-0.0222222222
 21
0.0
 31
0.0
  0
LINE
  5
188
330
183
100
AcDbEntity
  8
BLANK-SIZE-2
 62
     0
100
AcDbLine
 10
0.0
 20
0.0
 30
0.0
 11
0.0
 21
-0.0222222222
 31
0.0
  0
LINE
  5
189
330
183
100
AcDbEntity
  8
BLANK-SIZE-2
 62
     0
100
AcDbLine
 10
0.0
 20
0.0
 30
0.0
 11
0.0222222222
 21
0.0
 31
0.0
  0
LINE
  5
18A
330
183
100
AcDbEntity
  8
BLANK-SIZE-2
 62
     0
100
AcDbLine
 10
0.0
 20
0.0222222222
 30
0.0
 11
0.0
 21
0.0404444444
 31
0.0
  0
LINE
  5
18B
330
183
100
AcDbEntity
  8
BLANK-SIZE-2
 62
     0
100
AcDbLine
 10
-0.0222222222
 20
0.0
 30
0.0
 11
-0.0404444444
 21
0.0
 31
0.0
  0
LINE
  5
18C
330
183
100
AcDbEntity
  8
BLANK-SIZE-2
 62
     0
100
AcDbLine
 10
0.0
 20
-0.0222222222
 30
0.0
 11
0.0
 21
-0.0404444444
 31
0.0
  0
LINE
  5
18D
330
183
100
AcDbEntity
  8
BLANK-SIZE-2
 62
     0
100
AcDbLine
 10
0.0222222222
 20
0.0
 30
0.0
 11
0.0404444444
 21
0.0
 31
0.0
  0
ENDBLK
  5
185
330
183
100
AcDbEntity
  8
0
100
AcDbBlockEnd
  0
BLOCK
  5
190
330
18F
100
AcDbEntity
  8
0
100
AcDbBlockBegin
  2
SW_CENTERMARKSYMBOL_2
 70
     0
 10
0.0
 20
0.0
 30
0.0
  3
SW_CENTERMARKSYMBOL_2
  1
SW_CENTERMARKSYMBOL_2
  0
LINE
  5
192
330
18F
100
AcDbEntity
  8
BLANK-SIZE-2
 62
     0
100
AcDbLine
 10
0.0
 20
0.0
 30
0.0
 11
0.0
 21
0.0222222222
 31
0.0
  0
LINE
  5
193
330
18F
100
AcDbEntity
  8
BLANK-SIZE-2
 62
     0
100
AcDbLine
 10
0.0
 20
0.0
 30
0.0
 11
-0.0222222222
 21
0.0
 31
0.0
  0
LINE
  5
194
330
18F
100
AcDbEntity
  8
BLANK-SIZE-2
 62
     0
100
AcDbLine
 10
0.0
 20
0.0
 30
0.0
 11
0.0
 21
-0.0222222222
 31
0.0
  0
LINE
  5
195
330
18F
100
AcDbEntity
  8
BLANK-SIZE-2
 62
     0
100
AcDbLine
 10
0.0
 20
0.0
 30
0.0
 11
0.0222222222
 21
0.0
 31
0.0
  0
LINE
  5
196
330
18F
100
AcDbEntity
  8
BLANK-SIZE-2
 62
     0
100
AcDbLine
 10
0.0
 20
0.0222222222
 30
0.0
 11
0.0
 21
0.0404444444
 31
0.0
  0
LINE
  5
197
330
18F
100
AcDbEntity
  8
BLANK-SIZE-2
 62
     0
100
AcDbLine
 10
-0.0222222222
 20
0.0
 30
0.0
 11
-0.0404444444
 21
0.0
 31
0.0
  0
LINE
  5
198
330
18F
100
AcDbEntity
  8
BLANK-SIZE-2
 62
     0
100
AcDbLine
 10
0.0
 20
-0.0222222222
 30
0.0
 11
0.0
 21
-0.0404444444
 31
0.0
  0
LINE
  5
199
330
18F
100
AcDbEntity
  8
BLANK-SIZE-2
 62
     0
100
AcDbLine
 10
0.0222222222
 20
0.0
 30
0.0
 11
0.0404444444
 21
0.0
 31
0.0
  0
ENDBLK
  5
191
330
18F
100
AcDbEntity
  8
0
100
AcDbBlockEnd
  0
BLOCK
  5
1D6
330
1D5
100
AcDbEntity
  8
0
100
AcDbBlockBegin
  2
SW_CENTERMARKSYMBOL_3
 70
     0
 10
0.0
 20
0.0
 30
0.0
  3
SW_CENTERMARKSYMBOL_3
  1
SW_CENTERMARKSYMBOL_3
  0
LINE
  5
1D8
330
1D5
100
AcDbEntity
  8
BLANK-SIZE-2
 62
     0
100
AcDbLine
 10
0.0
 20
0.0
 30
0.0
 11
0.0
 21
0.0222222222
 31
0.0
  0
LINE
  5
1D9
330
1D5
100
AcDbEntity
  8
BLANK-SIZE-2
 62
     0
100
AcDbLine
 10
0.0
 20
0.0
 30
0.0
 11
-0.0222222222
 21
0.0
 31
0.0
  0
LINE
  5
1DA
330
1D5
100
AcDbEntity
  8
BLANK-SIZE-2
 62
     0
100
AcDbLine
 10
0.0
 20
0.0
 30
0.0
 11
0.0
 21
-0.0222222222
 31
0.0
  0
LINE
  5
1DB
330
1D5
100
AcDbEntity
  8
BLANK-SIZE-2
 62
     0
100
AcDbLine
 10
0.0
 20
0.0
 30
0.0
 11
0.0222222222
 21
0.0
 31
0.0
  0
LINE
  5
1DC
330
1D5
100
AcDbEntity
  8
BLANK-SIZE-2
 62
     0
100
AcDbLine
 10
0.0
 20
0.0222222222
 30
0.0
 11
0.0
 21
0.0404444444
 31
0.0
  0
LINE
  5
1DD
330
1D5
100
AcDbEntity
  8
BLANK-SIZE-2
 62
     0
100
AcDbLine
 10
-0.0222222222
 20
0.0
 30
0.0
 11
-0.0404444444
 21
0.0
 31
0.0
  0
LINE
  5
1DE
330
1D5
100
AcDbEntity
  8
BLANK-SIZE-2
 62
     0
100
AcDbLine
 10
0.0
 20
-0.0222222222
 30
0.0
 11
0.0
 21
-0.0404444444
 31
0.0
  0
LINE
  5
1DF
330
1D5
100
AcDbEntity
  8
BLANK-SIZE-2
 62
     0
100
AcDbLine
 10
0.0222222222
 20
0.0
 30
0.0
 11
0.0404444444
 21
0.0
 31
0.0
  0
ENDBLK
  5
1D7
330
1D5
100
AcDbEntity
  8
0
100
AcDbBlockEnd
  0
BLOCK
  5
1E2
330
1E1
100
AcDbEntity
  8
0
100
AcDbBlockBegin
  2
SW_CENTERMARKSYMBOL_4
 70
     0
 10
0.0
 20
0.0
 30
0.0
  3
SW_CENTERMARKSYMBOL_4
  1
SW_CENTERMARKSYMBOL_4
  0
LINE
  5
1E4
330
1E1
100
AcDbEntity
  8
BLANK-SIZE-2
 62
     0
100
AcDbLine
 10
0.0
 20
0.0
 30
0.0
 11
0.0
 21
0.0222222222
 31
0.0
  0
LINE
  5
1E5
330
1E1
100
AcDbEntity
  8
BLANK-SIZE-2
 62
     0
100
AcDbLine
 10
0.0
 20
0.0
 30
0.0
 11
-0.0222222222
 21
0.0
 31
0.0
  0
LINE
  5
1E6
330
1E1
100
AcDbEntity
  8
BLANK-SIZE-2
 62
     0
100
AcDbLine
 10
0.0
 20
0.0
 30
0.0
 11
0.0
 21
-0.0222222222
 31
0.0
  0
LINE
  5
1E7
330
1E1
100
AcDbEntity
  8
BLANK-SIZE-2
 62
     0
100
AcDbLine
 10
0.0
 20
0.0
 30
0.0
 11
0.0222222222
 21
0.0
 31
0.0
  0
LINE
  5
1E8
330
1E1
100
AcDbEntity
  8
BLANK-SIZE-2
 62
     0
100
AcDbLine
 10
0.0
 20
0.0222222222
 30
0.0
 11
0.0
 21
0.0404444444
 31
0.0
  0
LINE
  5
1E9
330
1E1
100
AcDbEntity
  8
BLANK-SIZE-2
 62
     0
100
AcDbLine
 10
-0.0222222222
 20
0.0
 30
0.0
 11
-0.0404444444
 21
0.0
 31
0.0
  0
LINE
  5
1EA
330
1E1
100
AcDbEntity
  8
BLANK-SIZE-2
 62
     0
100
AcDbLine
 10
0.0
 20
-0.0222222222
 30
0.0
 11
0.0
 21
-0.0404444444
 31
0.0
  0
LINE
  5
1EB
330
1E1
100
AcDbEntity
  8
BLANK-SIZE-2
 62
     0
100
AcDbLine
 10
0.0222222222
 20
0.0
 30
0.0
 11
0.0404444444
 21
0.0
 31
0.0
  0
ENDBLK
  5
1E3
330
1E1
100
AcDbEntity
  8
0
100
AcDbBlockEnd
  0
BLOCK
  5
1EE
330
1ED
100
AcDbEntity
  8
0
100
AcDbBlockBegin
  2
SW_CENTERMARKSYMBOL_5
 70
     0
 10
0.0
 20
0.0
 30
0.0
  3
SW_CENTERMARKSYMBOL_5
  1
SW_CENTERMARKSYMBOL_5
  0
LINE
  5
1F0
330
1ED
100
AcDbEntity
  8
BLANK-SIZE-2
 62
     0
100
AcDbLine
 10
0.0
 20
0.0
 30
0.0
 11
0.0
 21
0.0222222222
 31
0.0
  0
LINE
  5
1F1
330
1ED
100
AcDbEntity
  8
BLANK-SIZE-2
 62
     0
100
AcDbLine
 10
0.0
 20
0.0
 30
0.0
 11
-0.0222222222
 21
0.0
 31
0.0
  0
LINE
  5
1F2
330
1ED
100
AcDbEntity
  8
BLANK-SIZE-2
 62
     0
100
AcDbLine
 10
0.0
 20
0.0
 30
0.0
 11
0.0
 21
-0.0222222222
 31
0.0
  0
LINE
  5
1F3
330
1ED
100
AcDbEntity
  8
BLANK-SIZE-2
 62
     0
100
AcDbLine
 10
0.0
 20
0.0
 30
0.0
 11
0.0222222222
 21
0.0
 31
0.0
  0
LINE
  5
1F4
330
1ED
100
AcDbEntity
  8
BLANK-SIZE-2
 62
     0
100
AcDbLine
 10
0.0
 20
0.0222222222
 30
0.0
 11
0.0
 21
0.0404444444
 31
0.0
  0
LINE
  5
1F5
330
1ED
100
AcDbEntity
  8
BLANK-SIZE-2
 62
     0
100
AcDbLine
 10
-0.0222222222
 20
0.0
 30
0.0
 11
-0.0404444444
 21
0.0
 31
0.0
  0
LINE
  5
1F6
330
1ED
100
AcDbEntity
  8
BLANK-SIZE-2
 62
     0
100
AcDbLine
 10
0.0
 20
-0.0222222222
 30
0.0
 11
0.0
 21
-0.0404444444
 31
0.0
  0
LINE
  5
1F7
330
1ED
100
AcDbEntity
  8
BLANK-SIZE-2
 62
     0
100
AcDbLine
 10
0.0222222222
 20
0.0
 30
0.0
 11
0.0404444444
 21
0.0
 31
0.0
  0
ENDBLK
  5
1EF
330
1ED
100
AcDbEntity
  8
0
100
AcDbBlockEnd
  0
BLOCK
  5
266
330
265
100
AcDbEntity
  8
0
100
AcDbBlockBegin
  2
SW_CENTERMARKSYMBOL_6
 70
     0
 10
0.0
 20
0.0
 30
0.0
  3
SW_CENTERMARKSYMBOL_6
  1
SW_CENTERMARKSYMBOL_6
  0
LINE
  5
268
330
265
100
AcDbEntity
  8
BLANK-SIZE-2
 62
     0
100
AcDbLine
 10
0.0
 20
0.0
 30
0.0
 11
0.0
 21
0.0222222222
 31
0.0
  0
LINE
  5
269
330
265
100
AcDbEntity
  8
BLANK-SIZE-2
 62
     0
100
AcDbLine
 10
0.0
 20
0.0
 30
0.0
 11
-0.0222222222
 21
0.0
 31
0.0
  0
LINE
  5
26A
330
265
100
AcDbEntity
  8
BLANK-SIZE-2
 62
     0
100
AcDbLine
 10
0.0
 20
0.0
 30
0.0
 11
0.0
 21
-0.0222222222
 31
0.0
  0
LINE
  5
26B
330
265
100
AcDbEntity
  8
BLANK-SIZE-2
 62
     0
100
AcDbLine
 10
0.0
 20
0.0
 30
0.0
 11
0.0222222222
 21
0.0
 31
0.0
  0
LINE
  5
26C
330
265
100
AcDbEntity
  8
BLANK-SIZE-2
 62
     0
100
AcDbLine
 10
0.0
 20
0.0222222222
 30
0.0
 11
0.0
 21
0.0422222222
 31
0.0
  0
LINE
  5
26D
330
265
100
AcDbEntity
  8
BLANK-SIZE-2
 62
     0
100
AcDbLine
 10
-0.0222222222
 20
0.0
 30
0.0
 11
-0.0422222222
 21
0.0
 31
0.0
  0
LINE
  5
26E
330
265
100
AcDbEntity
  8
BLANK-SIZE-2
 62
     0
100
AcDbLine
 10
0.0
 20
-0.0222222222
 30
0.0
 11
0.0
 21
-0.0422222222
 31
0.0
  0
LINE
  5
26F
330
265
100
AcDbEntity
  8
BLANK-SIZE-2
 62
     0
100
AcDbLine
 10
0.0222222222
 20
0.0
 30
0.0
 11
0.0422222222
 21
0.0
 31
0.0
  0
ENDBLK
  5
267
330
265
100
AcDbEntity
  8
0
100
AcDbBlockEnd
  0
BLOCK
  5
272
330
271
100
AcDbEntity
  8
0
100
AcDbBlockBegin
  2
SW_CENTERMARKSYMBOL_7
 70
     0
 10
0.0
 20
0.0
 30
0.0
  3
SW_CENTERMARKSYMBOL_7
  1
SW_CENTERMARKSYMBOL_7
  0
LINE
  5
274
330
271
100
AcDbEntity
  8
BLANK-SIZE-2
 62
     0
100
AcDbLine
 10
0.0
 20
0.0
 30
0.0
 11
0.0
 21
0.0222222222
 31
0.0
  0
LINE
  5
275
330
271
100
AcDbEntity
  8
BLANK-SIZE-2
 62
     0
100
AcDbLine
 10
0.0
 20
0.0
 30
0.0
 11
-0.0222222222
 21
0.0
 31
0.0
  0
LINE
  5
276
330
271
100
AcDbEntity
  8
BLANK-SIZE-2
 62
     0
100
AcDbLine
 10
0.0
 20
0.0
 30
0.0
 11
0.0
 21
-0.0222222222
 31
0.0
  0
LINE
  5
277
330
271
100
AcDbEntity
  8
BLANK-SIZE-2
 62
     0
100
AcDbLine
 10
0.0
 20
0.0
 30
0.0
 11
0.0222222222
 21
0.0
 31
0.0
  0
LINE
  5
278
330
271
100
AcDbEntity
  8
BLANK-SIZE-2
 62
     0
100
AcDbLine
 10
0.0
 20
0.0222222222
 30
0.0
 11
0.0
 21
0.0422222222
 31
0.0
  0
LINE
  5
279
330
271
100
AcDbEntity
  8
BLANK-SIZE-2
 62
     0
100
AcDbLine
 10
-0.0222222222
 20
0.0
 30
0.0
 11
-0.0422222222
 21
0.0
 31
0.0
  0
LINE
  5
27A
330
271
100
AcDbEntity
  8
BLANK-SIZE-2
 62
     0
100
AcDbLine
 10
0.0
 20
-0.0222222222
 30
0.0
 11
0.0
 21
-0.0422222222
 31
0.0
  0
LINE
  5
27B
330
271
100
AcDbEntity
  8
BLANK-SIZE-2
 62
     0
100
AcDbLine
 10
0.0222222222
 20
0.0
 30
0.0
 11
0.0422222222
 21
0.0
 31
0.0
  0
ENDBLK
  5
273
330
271
100
AcDbEntity
  8
0
100
AcDbBlockEnd
  0
BLOCK
  5
27E
330
27D
100
AcDbEntity
  8
0
100
AcDbBlockBegin
  2
SW_CENTERMARKSYMBOL_8
 70
     0
 10
0.0
 20
0.0
 30
0.0
  3
SW_CENTERMARKSYMBOL_8
  1
SW_CENTERMARKSYMBOL_8
  0
LINE
  5
280
330
27D
100
AcDbEntity
  8
BLANK-SIZE-2
 62
     0
100
AcDbLine
 10
0.0
 20
0.0
 30
0.0
 11
0.0
 21
0.0222222222
 31
0.0
  0
LINE
  5
281
330
27D
100
AcDbEntity
  8
BLANK-SIZE-2
 62
     0
100
AcDbLine
 10
0.0
 20
0.0
 30
0.0
 11
-0.0222222222
 21
0.0
 31
0.0
  0
LINE
  5
282
330
27D
100
AcDbEntity
  8
BLANK-SIZE-2
 62
     0
100
AcDbLine
 10
0.0
 20
0.0
 30
0.0
 11
0.0
 21
-0.0222222222
 31
0.0
  0
LINE
  5
283
330
27D
100
AcDbEntity
  8
BLANK-SIZE-2
 62
     0
100
AcDbLine
 10
0.0
 20
0.0
 30
0.0
 11
0.0222222222
 21
0.0
 31
0.0
  0
LINE
  5
284
330
27D
100
AcDbEntity
  8
BLANK-SIZE-2
 62
     0
100
AcDbLine
 10
0.0
 20
0.0222222222
 30
0.0
 11
0.0
 21
0.0422222222
 31
0.0
  0
LINE
  5
285
330
27D
100
AcDbEntity
  8
BLANK-SIZE-2
 62
     0
100
AcDbLine
 10
-0.0222222222
 20
0.0
 30
0.0
 11
-0.0422222222
 21
0.0
 31
0.0
  0
LINE
  5
286
330
27D
100
AcDbEntity
  8
BLANK-SIZE-2
 62
     0
100
AcDbLine
 10
0.0
 20
-0.0222222222
 30
0.0
 11
0.0
 21
-0.0422222222
 31
0.0
  0
LINE
  5
287
330
27D
100
AcDbEntity
  8
BLANK-SIZE-2
 62
     0
100
AcDbLine
 10
0.0222222222
 20
0.0
 30
0.0
 11
0.0422222222
 21
0.0
 31
0.0
  0
ENDBLK
  5
27F
330
27D
100
AcDbEntity
  8
0
100
AcDbBlockEnd
  0
BLOCK
  5
28A
330
289
100
AcDbEntity
  8
0
100
AcDbBlockBegin
  2
SW_CENTERMARKSYMBOL_9
 70
     0
 10
0.0
 20
0.0
 30
0.0
  3
SW_CENTERMARKSYMBOL_9
  1
SW_CENTERMARKSYMBOL_9
  0
LINE
  5
28C
330
289
100
AcDbEntity
  8
BLANK-SIZE-2
 62
     0
100
AcDbLine
 10
0.0
 20
0.0
 30
0.0
 11
0.0
 21
0.0222222222
 31
0.0
  0
LINE
  5
28D
330
289
100
AcDbEntity
  8
BLANK-SIZE-2
 62
     0
100
AcDbLine
 10
0.0
 20
0.0
 30
0.0
 11
-0.0222222222
 21
0.0
 31
0.0
  0
LINE
  5
28E
330
289
100
AcDbEntity
  8
BLANK-SIZE-2
 62
     0
100
AcDbLine
 10
0.0
 20
0.0
 30
0.0
 11
0.0
 21
-0.0222222222
 31
0.0
  0
LINE
  5
28F
330
289
100
AcDbEntity
  8
BLANK-SIZE-2
 62
     0
100
AcDbLine
 10
0.0
 20
0.0
 30
0.0
 11
0.0222222222
 21
0.0
 31
0.0
  0
LINE
  5
290
330
289
100
AcDbEntity
  8
BLANK-SIZE-2
 62
     0
100
AcDbLine
 10
0.0
 20
0.0222222222
 30
0.0
 11
0.0
 21
0.0422222222
 31
0.0
  0
LINE
  5
291
330
289
100
AcDbEntity
  8
BLANK-SIZE-2
 62
     0
100
AcDbLine
 10
-0.0222222222
 20
0.0
 30
0.0
 11
-0.0422222222
 21
0.0
 31
0.0
  0
LINE
  5
292
330
289
100
AcDbEntity
  8
BLANK-SIZE-2
 62
     0
100
AcDbLine
 10
0.0
 20
-0.0222222222
 30
0.0
 11
0.0
 21
-0.0422222222
 31
0.0
  0
LINE
  5
293
330
289
100
AcDbEntity
  8
BLANK-SIZE-2
 62
     0
100
AcDbLine
 10
0.0222222222
 20
0.0
 30
0.0
 11
0.0422222222
 21
0.0
 31
0.0
  0
ENDBLK
  5
28B
330
289
100
AcDbEntity
  8
0
100
AcDbBlockEnd
  0
ENDSEC
  0
SECTION
  2
ENTITIES
  0
LINE
  5
88
330
1F
100
AcDbEntity
  8
REV-1
 62
     7
100
AcDbLine
 10
4.202
 20
2.4018050662
 30
0.0
 11
0.25
 21
2.4018050662
 31
0.0
  0
LINE
  5
89
330
1F
100
AcDbEntity
  8
REV-1
100
AcDbLine
 10
0.5412821291
 20
2.2143050662
 30
0.0
 11
0.5412821291
 21
2.4018050662
 31
0.0
  0
LINE
  5
8A
330
1F
100
AcDbEntity
  8
REV-1
100
AcDbLine
 10
1.102
 20
2.2143050662
 30
0.0
 11
1.102
 21
2.4018050662
 31
0.0
  0
LINE
  5
8B
330
1F
100
AcDbEntity
  8
REV-1
100
AcDbLine
 10
1.702
 20
2.2143050662
 30
0.0
 11
1.702
 21
2.4018050662
 31
0.0
  0
LINE
  5
8C
330
1F
100
AcDbEntity
  8
REV-1
100
AcDbLine
 10
3.754
 20
2.2143050662
 30
0.0
 11
3.754
 21
2.4018050662
 31
0.0
  0
LINE
  5
8D
330
1F
100
AcDbEntity
  8
REV-1
100
AcDbLine
 10
4.202
 20
2.4018050662
 30
0.0
 11
4.202
 21
2.534634198
 31
0.0
  0
LINE
  5
8E
330
1F
100
AcDbEntity
  8
REV-2
 62
     7
100
AcDbLine
 10
4.202
 20
2.5829623634
 30
0.0
 11
0.25
 21
2.5829623634
 31
0.0
  0
LINE
  5
8F
330
1F
100
AcDbEntity
  8
REV-2
100
AcDbLine
 10
3.754
 20
2.3954623634
 30
0.0
 11
3.754
 21
2.5829623634
 31
0.0
  0
LINE
  5
90
330
1F
100
AcDbEntity
  8
STAMP-AREA
100
AcDbLine
 10
0.25
 20
9.1538174151
 30
0.0
 11
4.5074336972
 21
9.1538174151
 31
0.0
  0
LINE
  5
91
330
1F
100
AcDbEntity
  8
REV-2
100
AcDbLine
 10
1.702
 20
2.3954623634
 30
0.0
 11
1.702
 21
2.5829623634
 31
0.0
  0
LINE
  5
92
330
1F
100
AcDbEntity
  8
REV-2
100
AcDbLine
 10
0.5412821291
 20
2.3954623634
 30
0.0
 11
0.5412821291
 21
2.5829623634
 31
0.0
  0
LINE
  5
93
330
1F
100
AcDbEntity
  8
REV-2
100
AcDbLine
 10
1.102
 20
2.3954623634
 30
0.0
 11
1.102
 21
2.5829623634
 31
0.0
  0
LINE
  5
94
330
1F
100
AcDbEntity
  8
STAMP-AREA
100
AcDbLine
 10
4.5074336972
 20
9.1538174151
 30
0.0
 11
4.5074336972
 21
10.7563677639
 31
0.0
  0
LINE
  5
95
330
1F
100
AcDbEntity
  8
REV-3
100
AcDbLine
 10
3.754
 20
2.5766196606
 30
0.0
 11
3.754
 21
2.7641196606
 31
0.0
  0
LINE
  5
96
330
1F
100
AcDbEntity
  8
REV-3
100
AcDbLine
 10
0.5412821291
 20
2.5766196606
 30
0.0
 11
0.5412821291
 21
2.7641196606
 31
0.0
  0
LINE
  5
97
330
1F
100
AcDbEntity
  8
REV-3
100
AcDbLine
 10
1.102
 20
2.5766196606
 30
0.0
 11
1.102
 21
2.7641196606
 31
0.0
  0
LINE
  5
98
330
1F
100
AcDbEntity
  8
REV-3
100
AcDbLine
 10
0.25
 20
2.7641196606
 30
0.0
 11
4.202
 21
2.7641196606
 31
0.0
  0
LINE
  5
99
330
1F
100
AcDbEntity
  8
REV-3
100
AcDbLine
 10
1.702
 20
2.5766196606
 30
0.0
 11
1.702
 21
2.7641196606
 31
0.0
  0
LINE
  5
9A
330
1F
100
AcDbEntity
  8
REV-2
100
AcDbLine
 10
4.202
 20
2.4018050662
 30
0.0
 11
4.202
 21
2.5829623634
 31
0.0
  0
LINE
  5
9B
330
1F
100
AcDbEntity
  8
REV-3
100
AcDbLine
 10
4.202
 20
2.7641196606
 30
0.0
 11
4.202
 21
2.5829623634
 31
0.0
  0
LINE
  5
9C
330
1F
100
AcDbEntity
  8
BLANK-SIZE-2
100
AcDbLine
 10
0.25
 20
10.2935214866
 30
0.0
 11
1.9802740321
 21
10.2935214866
 31
0.0
  0
LINE
  5
9D
330
1F
100
AcDbEntity
  8
BLANK-SIZE-2
100
AcDbLine
 10
1.9802740321
 20
10.2935214866
 30
0.0
 11
1.9802740321
 21
10.5249446252
 31
0.0
  0
LINE
  5
9E
330
1F
100
AcDbEntity
  8
BLANK-SIZE-2
100
AcDbLine
 10
1.9802740321
 20
10.2935214866
 30
0.0
 11
2.2906228045
 21
10.2935214866
 31
0.0
  0
LINE
  5
9F
330
1F
100
AcDbEntity
  8
BLANK-SIZE-2
100
AcDbLine
 10
2.2906228045
 20
10.2935214866
 30
0.0
 11
2.2906228045
 21
10.5249446252
 31
0.0
  0
LINE
  5
A0
330
1F
100
AcDbEntity
  8
BLANK-SIZE-3
100
AcDbLine
 10
0.25
 20
10.0620983479
 30
0.0
 11
1.9802740321
 21
10.0620983479
 31
0.0
  0
LINE
  5
A1
330
1F
100
AcDbEntity
  8
BLANK-SIZE-3
100
AcDbLine
 10
1.9802740321
 20
10.0620983479
 30
0.0
 11
1.9802740321
 21
10.2935214866
 31
0.0
  0
LINE
  5
A2
330
1F
100
AcDbEntity
  8
BLANK-SIZE-3
100
AcDbLine
 10
1.9802740321
 20
10.0620983479
 30
0.0
 11
2.2906228045
 21
10.0620983479
 31
0.0
  0
LINE
  5
A3
330
1F
100
AcDbEntity
  8
BLANK-SIZE-3
100
AcDbLine
 10
2.2906228045
 20
10.0620983479
 30
0.0
 11
2.2906228045
 21
10.2935214866
 31
0.0
  0
LINE
  5
A4
330
1F
100
AcDbEntity
  8
BLANK-SIZE-4
100
AcDbLine
 10
0.25
 20
9.8306752093
 30
0.0
 11
1.9802740321
 21
9.8306752093
 31
0.0
  0
LINE
  5
A5
330
1F
100
AcDbEntity
  8
BLANK-SIZE-4
100
AcDbLine
 10
1.9802740321
 20
9.8306752093
 30
0.0
 11
1.9802740321
 21
10.0620983479
 31
0.0
  0
LINE
  5
A6
330
1F
100
AcDbEntity
  8
BLANK-SIZE-4
100
AcDbLine
 10
1.9802740321
 20
9.8306752093
 30
0.0
 11
2.2906228045
 21
9.8306752093
 31
0.0
  0
LINE
  5
A7
330
1F
100
AcDbEntity
  8
BLANK-SIZE-4
100
AcDbLine
 10
2.2906228045
 20
9.8306752093
 30
0.0
 11
2.2906228045
 21
10.0620983479
 31
0.0
  0
LINE
  5
A8
330
1F
100
AcDbEntity
  8
BLANK-SIZE-5
100
AcDbLine
 10
0.25
 20
9.5992520706
 30
0.0
 11
1.9802740321
 21
9.5992520706
 31
0.0
  0
LINE
  5
A9
330
1F
100
AcDbEntity
  8
BLANK-SIZE-5
100
AcDbLine
 10
1.9802740321
 20
9.5992520706
 30
0.0
 11
1.9802740321
 21
9.8306752093
 31
0.0
  0
LINE
  5
AA
330
1F
100
AcDbEntity
  8
BLANK-SIZE-5
100
AcDbLine
 10
1.9802740321
 20
9.5992520706
 30
0.0
 11
2.2906228045
 21
9.5992520706
 31
0.0
  0
LINE
  5
AB
330
1F
100
AcDbEntity
  8
BLANK-SIZE-5
100
AcDbLine
 10
2.2906228045
 20
9.5992520706
 30
0.0
 11
2.2906228045
 21
9.8306752093
 31
0.0
  0
MTEXT
  5
AD
330
1F
100
AcDbEntity
  8
REV-1
100
AcDbMText
 10
0.3976847055
 20
2.3453210917
 30
0.0
 40
0.072
 41
0.0
 71
     2
 72
     1
  1
A
  7
SLDTEXTSTYLE0
 73
     1
 44
1.0
  0
MTEXT
  5
AE
330
1F
100
AcDbEntity
  8
REV-2
100
AcDbMText
 10
0.3984784563
 20
2.5264783889
 30
0.0
 40
0.072
 41
0.0
 71
     2
 72
     1
  1
B
  7
SLDTEXTSTYLE0
 73
     1
 44
1.0
  0
MTEXT
  5
AF
330
1F
100
AcDbEntity
  8
REV-3
100
AcDbMText
 10
0.3977972056
 20
2.7076356861
 30
0.0
 40
0.072
 41
0.0
 71
     2
 72
     1
  1
C
  7
SLDTEXTSTYLE0
 73
     1
 44
1.0
  0
MTEXT
  5
B0
330
1F
100
AcDbEntity
  8
STAMP-AREA
100
AcDbMText
 10
1.1373617204
 20
10.113025596
 30
0.0
 40
0.1666666667
 41
0.0
 71
     1
 72
     1
  1
STAMP DETAIL AREA
  7
SLDTEXTSTYLE0
 73
     1
 44
1.0
  0
INSERT
  5
B9
330
1F
100
AcDbEntity
  8
TOP_MOUNT_PAINT
100
AcDbBlockReference
  2
SW_NOTE_0
 10
4.3555985743
 20
2.6546366237
 30
0.0
  0
MTEXT
  5
BA
330
1F
100
AcDbEntity
  8
BLANK-SIZE-2
100
AcDbMText
 10
2.0971479706
 20
10.463222502
 30
0.0
 40
0.1041666667
 41
0.0
 71
     1
 72
     1
  1
--
  7
SLDTEXTSTYLE1
 73
     1
 44
1.0
  0
MTEXT
  5
BB
330
1F
100
AcDbEntity
  8
BLANK-SIZE-2
100
AcDbMText
 10
0.3378807908
 20
10.463222502
 30
0.0
 40
0.1041666667
 41
0.0
 71
     1
 72
     1
  1
--
  7
SLDTEXTSTYLE1
 73
     1
 44
1.0
  0
MTEXT
  5
BC
330
1F
100
AcDbEntity
  8
BLANK-SIZE-3
100
AcDbMText
 10
0.3378807908
 20
10.2317993633
 30
0.0
 40
0.1041666667
 41
0.0
 71
     1
 72
     1
  1
--
  7
SLDTEXTSTYLE1
 73
     1
 44
1.0
  0
MTEXT
  5
BD
330
1F
100
AcDbEntity
  8
BLANK-SIZE-3
100
AcDbMText
 10
2.0971479706
 20
10.2317993633
 30
0.0
 40
0.1041666667
 41
0.0
 71
     1
 72
     1
  1
--
  7
SLDTEXTSTYLE1
 73
     1
 44
1.0
  0
MTEXT
  5
BE
330
1F
100
AcDbEntity
  8
BLANK-SIZE-4
100
AcDbMText
 10
2.0971479706
 20
10.0003762247
 30
0.0
 40
0.1041666667
 41
0.0
 71
     1
 72
     1
  1
--
  7
SLDTEXTSTYLE1
 73
     1
 44
1.0
  0
MTEXT
  5
BF
330
1F
100
AcDbEntity
  8
BLANK-SIZE-4
100
AcDbMText
 10
0.3378807908
 20
10.0003762247
 30
0.0
 40
0.1041666667
 41
0.0
 71
     1
 72
     1
  1
--
  7
SLDTEXTSTYLE1
 73
     1
 44
1.0
  0
MTEXT
  5
C0
330
1F
100
AcDbEntity
  8
BLANK-SIZE-5
100
AcDbMText
 10
0.3378807908
 20
9.768953086
 30
0.0
 40
0.1041666667
 41
0.0
 71
     1
 72
     1
  1
--
  7
SLDTEXTSTYLE1
 73
     1
 44
1.0
  0
MTEXT
  5
C1
330
1F
100
AcDbEntity
  8
BLANK-SIZE-5
100
AcDbMText
 10
2.0971479706
 20
9.768953086
 30
0.0
 40
0.1041666667
 41
0.0
 71
     1
 72
     1
  1
--
  7
SLDTEXTSTYLE1
 73
     1
 44
1.0
  0
MTEXT
  5
C2
330
1F
100
AcDbEntity
  8
BLANK-SIZE-2
100
AcDbMText
 10
0.7735977297
 20
0.9124839756
 30
0.0
 40
0.1041666667
 41
0.0
 71
     1
 72
     1
  1
--
  7
SLDTEXTSTYLE1
 73
     1
 44
1.0
  0
ARC
  5
C3
330
1F
100
AcDbEntity
  8
0
  6
Continuous
 62
     7
370
    30
100
AcDbCircle
 10
4.3306033778
 20
2.5227274062
 30
0.0
 40
0.0311111111111115
100
AcDbArc
 50
270.0
 51
0.0
  0
LINE
  5
C4
330
1F
100
AcDbEntity
  8
0
  6
Continuous
 62
     7
370
    30
100
AcDbLine
 10
4.3306033778
 20
2.5071718506
 30
0.0
 11
4.3306033778
 21
2.491616295
 31
0.0
  0
ARC
  5
C5
330
1F
100
AcDbEntity
  8
0
  6
Continuous
 62
     7
370
    30
100
AcDbCircle
 10
4.3306033778
 20
2.5227274062
 30
0.0
 40
0.0155555555555562
100
AcDbArc
 50
270.0
 51
0.0
  0
LINE
  5
C6
330
1F
100
AcDbEntity
  8
0
  6
Continuous
 62
     7
370
    30
100
AcDbLine
 10
4.3461589334
 20
2.5227274062
 30
0.0
 11
4.361714489
 21
2.5227274062
 31
0.0
  0
LINE
  5
C7
330
1F
100
AcDbEntity
  8
0
  6
Continuous
 62
     7
370
    30
100
AcDbLine
 10
3.8894922667
 20
2.491616295
 30
0.0
 11
4.3306033778
 21
2.491616295
 31
0.0
  0
LINE
  5
C8
330
1F
100
AcDbEntity
  8
0
  6
Continuous
 62
     7
370
    30
100
AcDbLine
 10
3.8894922667
 20
2.5071718506
 30
0.0
 11
3.8894922667
 21
2.491616295
 31
0.0
  0
LINE
  5
C9
330
1F
100
AcDbEntity
  8
0
  6
Continuous
 62
     7
370
    30
100
AcDbLine
 10
3.8894922667
 20
2.5071718506
 30
0.0
 11
4.3306033778
 21
2.5071718506
 31
0.0
  0
LINE
  5
CA
330
1F
100
AcDbEntity
  8
0
  6
Continuous
 62
     7
370
    30
100
AcDbLine
 10
4.361714489
 20
4.7788833939
 30
0.0
 11
4.3461589334
 21
4.7788833939
 31
0.0
  0
LINE
  5
CB
330
1F
100
AcDbEntity
  8
0
  6
Continuous
 62
     7
370
    30
100
AcDbLine
 10
4.361714489
 20
4.7788833939
 30
0.0
 11
4.361714489
 21
2.5227274062
 31
0.0
  0
LINE
  5
CC
330
1F
100
AcDbEntity
  8
0
  6
Continuous
 62
     7
370
    30
100
AcDbLine
 10
4.3461589334
 20
4.7788833939
 30
0.0
 11
4.3461589334
 21
2.5227274062
 31
0.0
  0
ARC
  5
CD
330
1F
100
AcDbEntity
  8
0
  6
Continuous
 62
     7
370
    30
100
AcDbCircle
 10
3.8894922667
 20
2.5227274062
 30
0.0
 40
0.0311111111111115
100
AcDbArc
 50
180.0
 51
270.0
  0
LINE
  5
CE
330
1F
100
AcDbEntity
  8
0
  6
Continuous
 62
     7
370
    30
100
AcDbLine
 10
3.8739367112
 20
2.5227274062
 30
0.0
 11
3.8583811556
 21
2.5227274062
 31
0.0
  0
ARC
  5
CF
330
1F
100
AcDbEntity
  8
0
  6
Continuous
 62
     7
370
    30
100
AcDbCircle
 10
3.8894922667
 20
2.5227274062
 30
0.0
 40
0.0155555555555562
100
AcDbArc
 50
180.0
 51
270.0
  0
LINE
  5
D0
330
1F
100
AcDbEntity
  8
0
  6
Continuous
 62
     7
370
    30
100
AcDbLine
 10
4.3461589334
 20
4.7874671993
 30
0.0
 11
4.361714489
 21
4.7874671993
 31
0.0
  0
LINE
  5
D1
330
1F
100
AcDbEntity
  8
0
  6
Continuous
 62
     7
370
    30
100
AcDbLine
 10
4.361714489
 20
4.7874671993
 30
0.0
 11
4.361714489
 21
4.7788833939
 31
0.0
  0
LINE
  5
D2
330
1F
100
AcDbEntity
  8
0
  6
Continuous
 62
     7
370
    30
100
AcDbLine
 10
4.3461589334
 20
4.7788833939
 30
0.0
 11
4.3461589334
 21
4.7874671993
 31
0.0
  0
LINE
  5
D3
330
1F
100
AcDbEntity
  8
0
  6
Continuous
 62
     7
370
    30
100
AcDbLine
 10
3.8583811556
 20
4.7874671993
 30
0.0
 11
3.8739367112
 21
4.7874671993
 31
0.0
  0
LINE
  5
D4
330
1F
100
AcDbEntity
  8
0
  6
Continuous
 62
     7
370
    30
100
AcDbLine
 10
3.8739367112
 20
4.7788833939
 30
0.0
 11
3.8583811556
 21
4.7788833939
 31
0.0
  0
LINE
  5
D5
330
1F
100
AcDbEntity
  8
0
  6
Continuous
 62
     7
370
    30
100
AcDbLine
 10
3.8583811556
 20
4.7788833939
 30
0.0
 11
3.8583811556
 21
4.7874671993
 31
0.0
  0
LINE
  5
D6
330
1F
100
AcDbEntity
  8
0
  6
Continuous
 62
     7
370
    30
100
AcDbLine
 10
3.8739367112
 20
4.7874671993
 30
0.0
 11
3.8739367112
 21
4.7788833939
 31
0.0
  0
LINE
  5
D7
330
1F
100
AcDbEntity
  8
0
  6
Continuous
 62
     7
370
    30
100
AcDbLine
 10
3.8583811556
 20
2.5227274062
 30
0.0
 11
3.8583811556
 21
4.7788833939
 31
0.0
  0
LINE
  5
D8
330
1F
100
AcDbEntity
  8
0
  6
Continuous
 62
     7
370
    30
100
AcDbLine
 10
3.8739367112
 20
2.5227274062
 30
0.0
 11
3.8739367112
 21
4.7788833939
 31
0.0
  0
LINE
  5
D9
330
1F
100
AcDbEntity
  8
0
  6
Continuous
 62
     7
370
    30
100
AcDbLine
 10
4.361714489
 20
5.8752001004
 30
0.0
 11
4.3461589334
 21
5.8752001004
 31
0.0
  0
LINE
  5
DA
330
1F
100
AcDbEntity
  8
0
  6
Continuous
 62
     7
370
    30
100
AcDbLine
 10
4.361714489
 20
4.7874671993
 30
0.0
 11
4.361714489
 21
5.8752001004
 31
0.0
  0
LINE
  5
DB
330
1F
100
AcDbEntity
  8
0
  6
Continuous
 62
     7
370
    30
100
AcDbLine
 10
4.3461589334
 20
4.7874671993
 30
0.0
 11
4.3461589334
 21
5.8752001004
 31
0.0
  0
LINE
  5
DC
330
1F
100
AcDbEntity
  8
0
  6
Continuous
 62
     7
370
    30
100
AcDbLine
 10
3.8739367112
 20
5.8752001004
 30
0.0
 11
3.8583811556
 21
5.8752001004
 31
0.0
  0
LINE
  5
DD
330
1F
100
AcDbEntity
  8
0
  6
Continuous
 62
     7
370
    30
100
AcDbLine
 10
3.8583811556
 20
5.8752001004
 30
0.0
 11
3.8583811556
 21
4.7874671993
 31
0.0
  0
LINE
  5
DE
330
1F
100
AcDbEntity
  8
0
  6
Continuous
 62
     7
370
    30
100
AcDbLine
 10
3.8739367112
 20
5.8752001004
 30
0.0
 11
3.8739367112
 21
4.7874671993
 31
0.0
  0
LINE
  5
DF
330
1F
100
AcDbEntity
  8
0
  6
Continuous
 62
     7
370
    30
100
AcDbLine
 10
4.3461589334
 20
5.8943940728
 30
0.0
 11
4.361714489
 21
5.8943940728
 31
0.0
  0
LINE
  5
E0
330
1F
100
AcDbEntity
  8
0
  6
Continuous
 62
     7
370
    30
100
AcDbLine
 10
4.361714489
 20
5.8943940728
 30
0.0
 11
4.361714489
 21
5.8752001004
 31
0.0
  0
LINE
  5
E1
330
1F
100
AcDbEntity
  8
0
  6
Continuous
 62
     7
370
    30
100
AcDbLine
 10
4.3461589334
 20
5.8752001004
 30
0.0
 11
4.3461589334
 21
5.8943940728
 31
0.0
  0
LINE
  5
E2
330
1F
100
AcDbEntity
  8
0
  6
Continuous
 62
     7
370
    30
100
AcDbLine
 10
3.8583811556
 20
5.8943940728
 30
0.0
 11
3.8739367112
 21
5.8943940728
 31
0.0
  0
LINE
  5
E3
330
1F
100
AcDbEntity
  8
0
  6
Continuous
 62
     7
370
    30
100
AcDbLine
 10
3.8583811556
 20
5.8752001004
 30
0.0
 11
3.8583811556
 21
5.8943940728
 31
0.0
  0
LINE
  5
E4
330
1F
100
AcDbEntity
  8
0
  6
Continuous
 62
     7
370
    30
100
AcDbLine
 10
3.8739367112
 20
5.8943940728
 30
0.0
 11
3.8739367112
 21
5.8752001004
 31
0.0
  0
LINE
  5
E5
330
1F
100
AcDbEntity
  8
0
  6
Continuous
 62
     7
370
    30
100
AcDbLine
 10
4.3461589334
 20
2.6182829617
 30
0.0
 11
4.3323170064
 21
2.6182829617
 31
0.0
  0
SPLINE
  5
E6
330
1F
100
AcDbEntity
  8
0
  6
Continuous
 62
     7
370
    30
100
AcDbSpline
210
0.0
220
0.0
230
1.0
 70
     8
 71
     3
 72
     8
 73
     4
 74
     0
 42
0.000000001
 43
0.00000001
 40
0.0
 40
0.0
 40
0.0
 40
0.0
 40
1.0
 40
1.0
 40
1.0
 40
1.0
 10
4.332317006434852
 20
2.618282961710177
 30
0.0
 10
4.331748116324556
 20
2.618317701149745
 30
0.0
 10
4.331175751613609
 20
2.618352440124462
 30
0.0
 10
4.330603377843644
 20
2.61838717956403
 30
0.0
  0
LINE
  5
E7
330
1F
100
AcDbEntity
  8
0
  6
Continuous
 62
     7
370
    30
100
AcDbLine
 10
4.3306033778
 20
5.8943940728
 30
0.0
 11
4.3306033778
 21
2.6183871796
 31
0.0
  0
LINE
  5
E8
330
1F
100
AcDbEntity
  8
0
  6
Continuous
 62
     7
370
    30
100
AcDbLine
 10
4.3306033778
 20
5.8943940728
 30
0.0
 11
4.3461589334
 21
5.8943940728
 31
0.0
  0
LINE
  5
E9
330
1F
100
AcDbEntity
  8
0
  6
Continuous
 62
     7
370
    30
100
AcDbLine
 10
3.8739367112
 20
5.8943940728
 30
0.0
 11
3.8894922667
 21
5.8943940728
 31
0.0
  0
LINE
  5
EA
330
1F
100
AcDbEntity
  8
0
  6
Continuous
 62
     7
370
    30
100
AcDbLine
 10
3.8894922667
 20
2.6183871796
 30
0.0
 11
3.8894922667
 21
5.8943940728
 31
0.0
  0
SPLINE
  5
EB
330
1F
100
AcDbEntity
  8
0
  6
Continuous
 62
     7
370
    30
100
AcDbSpline
210
0.0
220
0.0
230
1.0
 70
     8
 71
     3
 72
     8
 73
     4
 74
     0
 42
0.000000001
 43
0.00000001
 40
0.0
 40
0.0
 40
0.0
 40
0.0
 40
1.0
 40
1.0
 40
1.0
 40
1.0
 10
3.889492266732533
 20
2.618387179564032
 30
0.0
 10
3.888919892962569
 20
2.618352440124464
 30
0.0
 10
3.888347528251621
 20
2.618317701149746
 30
0.0
 10
3.887778638141326
 20
2.618282961710177
 30
0.0
  0
LINE
  5
EC
330
1F
100
AcDbEntity
  8
0
  6
Continuous
 62
     7
370
    30
100
AcDbLine
 10
3.8877786381
 20
2.6182829617
 30
0.0
 11
3.8739367112
 21
2.6182829617
 31
0.0
  0
ARC
  5
ED
330
1F
100
AcDbEntity
  8
0
  6
Continuous
 62
     7
370
    30
100
AcDbCircle
 10
3.8870883076
 20
2.6460607395
 30
0.0
 40
0.0277777777777777
100
AcDbArc
 50
274.9647321222
 51
342.0
  0
LINE
  5
EE
330
1F
100
AcDbEntity
  8
0
  6
Continuous
 62
     7
370
    30
100
AcDbLine
 10
3.8894922667
 20
5.8943940728
 30
0.0
 11
4.0739367112
 21
5.8943940728
 31
0.0
  0
LINE
  5
EF
330
1F
100
AcDbEntity
  8
0
  6
Continuous
 62
     7
370
    30
100
AcDbLine
 10
4.0702151946
 20
4.4492099443
 30
0.0
 11
4.0739367112
 21
4.4427640885
 31
0.0
  0
ARC
  5
F0
330
1F
100
AcDbEntity
  8
0
  6
Continuous
 62
     7
370
    30
100
AcDbCircle
 10
4.0461589334
 20
4.4353210554
 30
0.0
 40
0.0277777777777786
100
AcDbArc
 50
30.0
 51
180.0
  0
LINE
  5
F1
330
1F
100
AcDbEntity
  8
0
  6
Continuous
 62
     7
370
    30
100
AcDbLine
 10
4.0183811556
 20
4.4353210554
 30
0.0
 11
4.0183811556
 21
2.964647367
 31
0.0
  0
ARC
  5
F2
330
1F
100
AcDbEntity
  8
0
  6
Continuous
 62
     7
370
    30
100
AcDbCircle
 10
3.9906033778
 20
2.964647367
 30
0.0
 40
0.0277777777777777
100
AcDbArc
 50
342.0
 51
0.0
  0
LINE
  5
F3
330
1F
100
AcDbEntity
  8
0
  6
Continuous
 62
     7
370
    30
100
AcDbLine
 10
3.9135065442
 20
2.6374769341
 30
0.0
 11
4.0170216144
 21
2.9560635616
 31
0.0
  0
SPLINE
  5
F4
330
1F
100
AcDbEntity
  8
0
  6
Continuous
 62
     7
370
    30
100
AcDbSpline
210
0.0
220
0.0
230
1.0
 70
     8
 71
     3
 72
    14
 73
    10
 74
     0
 42
0.000000001
 43
0.00000001
 40
0.0
 40
0.0
 40
0.0
 40
0.0
 40
0.25
 40
0.25
 40
0.5
 40
0.5
 40
0.75
 40
0.75
 40
1.0
 40
1.0
 40
1.0
 40
1.0
 10
4.089492266732523
 20
4.383513309310663
 30
0.0
 10
4.089492266732523
 20
4.388450874246635
 30
0.0
 10
4.089087397258474
 20
4.393388439182606
 30
0.0
 10
4.0875289438847
 20
4.403263569054548
 30
0.0
 10
4.086375973169827
 20
4.40820113399052
 30
0.0
 10
4.083496326821021
 20
4.418076263862461
 30
0.0
 10
4.081770784204958
 20
4.423013828798434
 30
0.0
 10
4.078008344933666
 20
4.432888958670376
 30
0.0
 10
4.075972928637626
 20
4.437826523606347
 30
0.0
 10
4.073936711176966
 20
4.442764088542318
 30
0.0
  0
SPLINE
  5
F5
330
1F
100
AcDbEntity
  8
0
  6
Continuous
 62
     7
370
    30
100
AcDbSpline
210
0.0
220
0.0
230
1.0
 70
     8
 71
     3
 72
    14
 73
    10
 74
     0
 42
0.000000001
 43
0.00000001
 40
0.0
 40
0.0
 40
0.0
 40
0.0
 40
0.25
 40
0.25
 40
0.5
 40
0.5
 40
0.75
 40
0.75
 40
1.0
 40
1.0
 40
1.0
 40
1.0
 10
4.105047822288078
 20
4.383513309310663
 30
0.0
 10
4.105047822288078
 20
4.388451234663442
 30
0.0
 10
4.104238083339982
 20
4.393388439182606
 30
0.0
 10
4.101121176592432
 20
4.403263569054548
 30
0.0
 10
4.098815235162688
 20
4.408201133990519
 30
0.0
 10
4.093055942465075
 20
4.418076263862462
 30
0.0
 10
4.089604857232949
 20
4.423013828798434
 30
0.0
 10
4.082079978690365
 20
4.432888958670376
 30
0.0
 10
4.078009443365056
 20
4.43782616318954
 30
0.0
 10
4.073936711176964
 20
4.442764088542318
 30
0.0
  0
LINE
  5
F6
330
1F
100
AcDbEntity
  8
0
  6
Continuous
 62
     7
370
    30
100
AcDbLine
 10
4.0894922667
 20
4.3835133093
 30
0.0
 11
4.1050478223
 21
4.3835133093
 31
0.0
  0
LINE
  5
F7
330
1F
100
AcDbEntity
  8
0
  6
Continuous
 62
     7
370
    30
100
AcDbLine
 10
4.0739367112
 20
5.8943940728
 30
0.0
 11
4.1050478223
 21
5.8943940728
 31
0.0
  0
LINE
  5
F8
330
1F
100
AcDbEntity
  8
0
  6
Continuous
 62
     7
370
    30
100
AcDbLine
 10
4.1050478223
 20
4.3835133093
 30
0.0
 11
4.1050478223
 21
5.8943940728
 31
0.0
  0
ARC
  5
F9
330
1F
100
AcDbEntity
  8
0
  6
Continuous
 62
     7
370
    30
100
AcDbCircle
 10
4.1739367112
 20
4.4630988332
 30
0.0
 40
0.0277777777777786
100
AcDbArc
 50
0.0
 51
150.0
  0
LINE
  5
FA
330
1F
100
AcDbEntity
  8
0
  6
Continuous
 62
     7
370
    30
100
AcDbLine
 10
4.1461589334
 20
4.4705418663
 30
0.0
 11
4.14988045
 21
4.4769877221
 31
0.0
  0
LINE
  5
FB
330
1F
100
AcDbEntity
  8
0
  6
Continuous
 62
     7
370
    30
100
AcDbLine
 10
4.1461589334
 20
5.8943940728
 30
0.0
 11
4.3306033778
 21
5.8943940728
 31
0.0
  0
ARC
  5
FC
330
1F
100
AcDbEntity
  8
0
  6
Continuous
 62
     7
370
    30
100
AcDbCircle
 10
4.333007337
 20
2.6460607395
 30
0.0
 40
0.0277777777777777
100
AcDbArc
 50
198.0
 51
265.0352678778
  0
LINE
  5
FD
330
1F
100
AcDbEntity
  8
0
  6
Continuous
 62
     7
370
    30
100
AcDbLine
 10
4.2030740302
 20
2.9560635616
 30
0.0
 11
4.3065891004
 21
2.6374769341
 31
0.0
  0
ARC
  5
FE
330
1F
100
AcDbEntity
  8
0
  6
Continuous
 62
     7
370
    30
100
AcDbCircle
 10
4.2294922667
 20
2.964647367
 30
0.0
 40
0.0277777777777774
100
AcDbArc
 50
180.0
 51
198.0
  0
LINE
  5
FF
330
1F
100
AcDbEntity
  8
0
  6
Continuous
 62
     7
370
    30
100
AcDbLine
 10
4.201714489
 20
2.964647367
 30
0.0
 11
4.201714489
 21
4.4630988332
 31
0.0
  0
SPLINE
  5
100
330
1F
100
AcDbEntity
  8
0
  6
Continuous
 62
     7
370
    30
100
AcDbSpline
210
0.0
220
0.0
230
1.0
 70
     8
 71
     3
 72
    14
 73
    10
 74
     0
 42
0.000000001
 43
0.00000001
 40
0.0
 40
0.0
 40
0.0
 40
0.0
 40
0.25
 40
0.25
 40
0.5
 40
0.5
 40
0.75
 40
0.75
 40
1.0
 40
1.0
 40
1.0
 40
1.0
 10
4.146158933399211
 20
4.470541866320088
 30
0.0
 10
4.144122715938551
 20
4.465604301384118
 30
0.0
 10
4.142087299642512
 20
4.460666736448147
 30
0.0
 10
4.138324860371219
 20
4.450791606576204
 30
0.0
 10
4.136599317755157
 20
4.445854041640233
 30
0.0
 10
4.13371967140635
 20
4.435978911768292
 30
0.0
 10
4.132566700691479
 20
4.431041346832321
 30
0.0
 10
4.131008247317704
 20
4.421166216960379
 30
0.0
 10
4.130603377843656
 20
4.416228652024408
 30
0.0
 10
4.130603377843656
 20
4.411291087088436
 30
0.0
  0
LINE
  5
101
330
1F
100
AcDbEntity
  8
0
  6
Continuous
 62
     7
370
    30
100
AcDbLine
 10
4.1306033778
 20
4.4112910871
 30
0.0
 11
4.1150478223
 21
4.4112910871
 31
0.0
  0
SPLINE
  5
102
330
1F
100
AcDbEntity
  8
0
  6
Continuous
 62
     7
370
    30
100
AcDbSpline
210
0.0
220
0.0
230
1.0
 70
     8
 71
     3
 72
    14
 73
    10
 74
     0
 42
0.000000001
 43
0.00000001
 40
0.0
 40
0.0
 40
0.0
 40
0.0
 40
0.25
 40
0.25
 40
0.5
 40
0.5
 40
0.75
 40
0.75
 40
1.0
 40
1.0
 40
1.0
 40
1.0
 10
4.146158933399211
 20
4.470541866320088
 30
0.0
 10
4.142086201211119
 20
4.465603940967311
 30
0.0
 10
4.138015665885812
 20
4.460666736448147
 30
0.0
 10
4.130490787343227
 20
4.450791606576204
 30
0.0
 10
4.127039702111102
 20
4.445854041640233
 30
0.0
 10
4.12128040941349
 20
4.435978911768292
 30
0.0
 10
4.118974467983746
 20
4.431041346832321
 30
0.0
 10
4.115857561236197
 20
4.421166216960379
 30
0.0
 10
4.1150478222881
 20
4.416229012441215
 30
0.0
 10
4.1150478222881
 20
4.411291087088437
 30
0.0
  0
LINE
  5
103
330
1F
100
AcDbEntity
  8
0
  6
Continuous
 62
     7
370
    30
100
AcDbLine
 10
4.1150478223
 20
5.8943940728
 30
0.0
 11
4.1461589334
 21
5.8943940728
 31
0.0
  0
LINE
  5
104
330
1F
100
AcDbEntity
  8
0
  6
Continuous
 62
     7
370
    30
100
AcDbLine
 10
4.1150478223
 20
5.8943940728
 30
0.0
 11
4.1150478223
 21
4.4112910871
 31
0.0
  0
LINE
  5
105
330
1F
100
AcDbEntity
  8
0
  6
Continuous
 62
     7
370
    30
100
AcDbLine
 10
4.1306033778
 20
4.1721718506
 30
0.0
 11
4.1150478223
 21
4.1721718506
 31
0.0
  0
LINE
  5
106
330
1F
100
AcDbEntity
  8
0
  6
Continuous
 62
     7
370
    30
100
AcDbLine
 10
4.1150478223
 20
4.4112910871
 30
0.0
 11
4.1150478223
 21
4.1721718506
 31
0.0
  0
LINE
  5
107
330
1F
100
AcDbEntity
  8
0
  6
Continuous
 62
     7
370
    30
100
AcDbLine
 10
4.1306033778
 20
4.4112910871
 30
0.0
 11
4.1306033778
 21
4.1721718506
 31
0.0
  0
LINE
  5
108
330
1F
100
AcDbEntity
  8
0
  6
Continuous
 62
     7
370
    30
100
AcDbLine
 10
4.0894922667
 20
4.1443940728
 30
0.0
 11
4.1050478223
 21
4.1443940728
 31
0.0
  0
LINE
  5
109
330
1F
100
AcDbEntity
  8
0
  6
Continuous
 62
     7
370
    30
100
AcDbLine
 10
4.0894922667
 20
4.1443940728
 30
0.0
 11
4.0894922667
 21
4.3835133093
 31
0.0
  0
LINE
  5
10A
330
1F
100
AcDbEntity
  8
0
  6
Continuous
 62
     7
370
    30
100
AcDbLine
 10
4.1050478223
 20
4.1443940728
 30
0.0
 11
4.1050478223
 21
4.3835133093
 31
0.0
  0
LINE
  5
10B
330
1F
100
AcDbEntity
  8
0
  6
Continuous
 62
     7
370
    30
100
AcDbLine
 10
4.1050478223
 20
5.9499496284
 30
0.0
 11
4.0894922667
 21
5.9499496284
 31
0.0
  0
LINE
  5
10C
330
1F
100
AcDbEntity
  8
0
  6
Continuous
 62
     7
370
    30
100
AcDbLine
 10
4.0894922667
 20
5.8943940728
 30
0.0
 11
4.0894922667
 21
5.9499496284
 31
0.0
  0
LINE
  5
10D
330
1F
100
AcDbEntity
  8
0
  6
Continuous
 62
     7
370
    30
100
AcDbLine
 10
4.1050478223
 20
5.8943940728
 30
0.0
 11
4.1050478223
 21
5.9499496284
 31
0.0
  0
LINE
  5
10E
330
1F
100
AcDbEntity
  8
0
  6
Continuous
 62
     7
370
    30
100
AcDbLine
 10
4.0894922667
 20
5.9777274062
 30
0.0
 11
4.1050478223
 21
5.9777274062
 31
0.0
  0
LINE
  5
10F
330
1F
100
AcDbEntity
  8
0
  6
Continuous
 62
     7
370
    30
100
AcDbLine
 10
4.0894922667
 20
5.9499496284
 30
0.0
 11
4.0894922667
 21
5.9777274062
 31
0.0
  0
LINE
  5
110
330
1F
100
AcDbEntity
  8
0
  6
Continuous
 62
     7
370
    30
100
AcDbLine
 10
4.1050478223
 20
5.9777274062
 30
0.0
 11
4.1050478223
 21
5.9499496284
 31
0.0
  0
LINE
  5
111
330
1F
100
AcDbEntity
  8
0
  6
Continuous
 62
     7
370
    30
100
AcDbLine
 10
4.1150478223
 20
5.9777274062
 30
0.0
 11
4.1306033778
 21
5.9777274062
 31
0.0
  0
LINE
  5
112
330
1F
100
AcDbEntity
  8
0
  6
Continuous
 62
     7
370
    30
100
AcDbLine
 10
4.1306033778
 20
5.9499496284
 30
0.0
 11
4.1150478223
 21
5.9499496284
 31
0.0
  0
LINE
  5
113
330
1F
100
AcDbEntity
  8
0
  6
Continuous
 62
     7
370
    30
100
AcDbLine
 10
4.1150478223
 20
5.9499496284
 30
0.0
 11
4.1150478223
 21
5.9777274062
 31
0.0
  0
LINE
  5
114
330
1F
100
AcDbEntity
  8
0
  6
Continuous
 62
     7
370
    30
100
AcDbLine
 10
4.1306033778
 20
5.9777274062
 30
0.0
 11
4.1306033778
 21
5.9499496284
 31
0.0
  0
LINE
  5
115
330
1F
100
AcDbEntity
  8
0
  6
Continuous
 62
     7
370
    30
100
AcDbLine
 10
4.1150478223
 20
5.9499496284
 30
0.0
 11
4.1150478223
 21
5.8943940728
 31
0.0
  0
LINE
  5
116
330
1F
100
AcDbEntity
  8
0
  6
Continuous
 62
     7
370
    30
100
AcDbLine
 10
4.1306033778
 20
5.9499496284
 30
0.0
 11
4.1306033778
 21
5.8943940728
 31
0.0
  0
LINE
  5
117
330
1F
100
AcDbEntity
  8
0
  6
Continuous
 62
     7
370
    30
100
AcDbLine
 10
4.1461589334
 20
5.9777274062
 30
0.0
 11
4.1306033778
 21
5.9777274062
 31
0.0
  0
LINE
  5
118
330
1F
100
AcDbEntity
  8
0
  6
Continuous
 62
     7
370
    30
100
AcDbLine
 10
4.1461589334
 20
5.8943940728
 30
0.0
 11
4.1461589334
 21
5.9777274062
 31
0.0
  0
LINE
  5
119
330
1F
100
AcDbEntity
  8
0
  6
Continuous
 62
     7
370
    30
100
AcDbLine
 10
4.0739367112
 20
5.9777274062
 30
0.0
 11
4.0739367112
 21
5.8943940728
 31
0.0
  0
LINE
  5
11A
330
1F
100
AcDbEntity
  8
0
  6
Continuous
 62
     7
370
    30
100
AcDbLine
 10
4.0894922667
 20
5.9777274062
 30
0.0
 11
4.0739367112
 21
5.9777274062
 31
0.0
  0
LINE
  5
11B
330
1F
100
AcDbEntity
  8
0
  6
Continuous
 62
     7
370
    30
100
AcDbLine
 10
3.4241851413
 20
5.7790987241
 30
0.0
 11
3.8583811556
 21
4.4427807989
 31
0.0
  0
ARC
  5
11C
330
1F
100
AcDbEntity
  8
0
  6
Continuous
 62
     7
370
    30
100
AcDbCircle
 10
3.4506033778
 20
5.7876825295
 30
0.0
 40
0.0277777777777777
100
AcDbArc
 50
180.0
 51
198.0
  0
LINE
  5
11D
330
1F
100
AcDbEntity
  8
0
  6
Continuous
 62
     7
370
    30
100
AcDbLine
 10
3.4228256001
 20
5.7876825295
 30
0.0
 11
3.4228256001
 21
6.0332829617
 31
0.0
  0
LINE
  5
11E
330
1F
100
AcDbEntity
  8
0
  6
Continuous
 62
     7
370
    30
100
AcDbLine
 10
4.0339367112
 20
6.0332829617
 30
0.0
 11
4.0339367112
 21
6.0055051839
 31
0.0
  0
ARC
  5
11F
330
1F
100
AcDbEntity
  8
0
  6
Continuous
 62
     7
370
    30
100
AcDbCircle
 10
4.061714489
 20
6.0055051839
 30
0.0
 40
0.0277777777777786
100
AcDbArc
 50
180.0
 51
270.0
  0
LINE
  5
120
330
1F
100
AcDbEntity
  8
0
  6
Continuous
 62
     7
370
    30
100
AcDbLine
 10
4.061714489
 20
5.9777274062
 30
0.0
 11
4.0739367112
 21
5.9777274062
 31
0.0
  0
LINE
  5
121
330
1F
100
AcDbEntity
  8
0
  6
Continuous
 62
     7
370
    30
100
AcDbLine
 10
3.617776538
 20
5.5488385173
 30
0.0
 11
3.5894922667
 21
5.5771227885
 31
0.0
  0
LINE
  5
122
330
1F
100
AcDbEntity
  8
0
  6
Continuous
 62
     7
370
    30
100
AcDbLine
 10
3.5894922667
 20
5.5771227885
 30
0.0
 11
3.5612079955
 21
5.5488385173
 31
0.0
  0
LINE
  5
123
330
1F
100
AcDbEntity
  8
0
  6
Continuous
 62
     7
370
    30
100
AcDbLine
 10
3.5612079955
 20
5.5488385173
 30
0.0
 11
3.5894922667
 21
5.520554246
 31
0.0
  0
LINE
  5
124
330
1F
100
AcDbEntity
  8
0
  6
Continuous
 62
     7
370
    30
100
AcDbLine
 10
3.5894922667
 20
5.520554246
 30
0.0
 11
3.617776538
 21
5.5488385173
 31
0.0
  0
LINE
  5
125
330
1F
100
AcDbEntity
  8
0
  6
Continuous
 62
     7
370
    30
100
AcDbLine
 10
4.6306033778
 20
5.5771227885
 30
0.0
 11
4.6588876491
 21
5.5488385173
 31
0.0
  0
LINE
  5
126
330
1F
100
AcDbEntity
  8
0
  6
Continuous
 62
     7
370
    30
100
AcDbLine
 10
4.6023191066
 20
5.5488385173
 30
0.0
 11
4.6306033778
 21
5.5771227885
 31
0.0
  0
LINE
  5
127
330
1F
100
AcDbEntity
  8
0
  6
Continuous
 62
     7
370
    30
100
AcDbLine
 10
4.6306033778
 20
5.520554246
 30
0.0
 11
4.6023191066
 21
5.5488385173
 31
0.0
  0
LINE
  5
128
330
1F
100
AcDbEntity
  8
0
  6
Continuous
 62
     7
370
    30
100
AcDbLine
 10
4.6588876491
 20
5.5488385173
 30
0.0
 11
4.6306033778
 21
5.520554246
 31
0.0
  0
LINE
  5
129
330
1F
100
AcDbEntity
  8
0
  6
Continuous
 62
     7
370
    30
100
AcDbLine
 10
4.1461589334
 20
5.9777274062
 30
0.0
 11
4.1583811556
 21
5.9777274062
 31
0.0
  0
ARC
  5
12A
330
1F
100
AcDbEntity
  8
0
  6
Continuous
 62
     7
370
    30
100
AcDbCircle
 10
4.1583811556
 20
6.0055051839
 30
0.0
 40
0.0277777777777786
100
AcDbArc
 50
270.0
 51
0.0
  0
LINE
  5
12B
330
1F
100
AcDbEntity
  8
0
  6
Continuous
 62
     7
370
    30
100
AcDbLine
 10
4.1861589334
 20
6.0055051839
 30
0.0
 11
4.1861589334
 21
6.0332829617
 31
0.0
  0
LINE
  5
12C
330
1F
100
AcDbEntity
  8
0
  6
Continuous
 62
     7
370
    30
100
AcDbLine
 10
4.7972700445
 20
6.0332829617
 30
0.0
 11
4.7972700445
 21
5.7876825295
 31
0.0
  0
ARC
  5
12D
330
1F
100
AcDbEntity
  8
0
  6
Continuous
 62
     7
370
    30
100
AcDbCircle
 10
4.7694922667
 20
5.7876825295
 30
0.0
 40
0.0277777777777786
100
AcDbArc
 50
342.0
 51
0.0
  0
LINE
  5
12E
330
1F
100
AcDbEntity
  8
0
  6
Continuous
 62
     7
370
    30
100
AcDbLine
 10
4.361714489
 20
4.4427807989
 30
0.0
 11
4.7959105033
 21
5.7790987241
 31
0.0
  0
LINE
  5
12F
330
1F
100
AcDbEntity
  8
0
  6
Continuous
 62
     7
370
    30
100
AcDbLine
 10
4.1861589334
 20
6.0643940728
 30
0.0
 11
4.1861589334
 21
6.0332829617
 31
0.0
  0
LINE
  5
130
330
1F
100
AcDbEntity
  8
0
  6
Continuous
 62
     7
370
    30
100
AcDbLine
 10
4.7972700445
 20
6.0643940728
 30
0.0
 11
4.1861589334
 21
6.0643940728
 31
0.0
  0
LINE
  5
131
330
1F
100
AcDbEntity
  8
0
  6
Continuous
 62
     7
370
    30
100
AcDbLine
 10
4.7972700445
 20
6.0332829617
 30
0.0
 11
4.7972700445
 21
6.0643940728
 31
0.0
  0
LINE
  5
132
330
1F
100
AcDbEntity
  8
0
  6
Continuous
 62
     7
370
    30
100
AcDbLine
 10
3.4228256001
 20
6.0643940728
 30
0.0
 11
3.4228256001
 21
6.0332829617
 31
0.0
  0
LINE
  5
133
330
1F
100
AcDbEntity
  8
0
  6
Continuous
 62
     7
370
    30
100
AcDbLine
 10
4.0339367112
 20
6.0643940728
 30
0.0
 11
3.4228256001
 21
6.0643940728
 31
0.0
  0
LINE
  5
134
330
1F
100
AcDbEntity
  8
0
  6
Continuous
 62
     7
370
    30
100
AcDbLine
 10
4.0339367112
 20
6.0332829617
 30
0.0
 11
4.0339367112
 21
6.0643940728
 31
0.0
  0
LINE
  5
135
330
1F
100
AcDbEntity
  8
OBJ
  6
CENTERX2
100
AcDbLine
 10
3.437816178
 20
6.0488385173
 30
0.0
 11
4.0145367331
 21
6.0488385173
 31
0.0
  0
LINE
  5
136
330
1F
100
AcDbEntity
  8
OBJ
  6
CENTERX2
100
AcDbLine
 10
4.2026515923
 20
6.0488385173
 30
0.0
 11
4.7694713653
 21
6.0488385173
 31
0.0
  0
LINE
  5
137
330
1F
100
AcDbEntity
  8
0
  6
Continuous
 62
     7
370
    30
100
AcDbLine
 10
2.2992693525
 20
6.0643940728
 30
0.0
 11
2.2992693525
 21
6.0488385173
 31
0.0
  0
LINE
  5
138
330
1F
100
AcDbEntity
  8
0
  6
Continuous
 62
     7
370
    30
100
AcDbLine
 10
2.2992693525
 20
6.0488385173
 30
0.0
 11
2.2714915748
 21
6.0488385173
 31
0.0
  0
LINE
  5
139
330
1F
100
AcDbEntity
  8
0
  6
Continuous
 62
     7
370
    30
100
AcDbLine
 10
2.2714915748
 20
6.0488385173
 30
0.0
 11
2.2714915748
 21
6.0643940728
 31
0.0
  0
LINE
  5
13A
330
1F
100
AcDbEntity
  8
0
  6
Continuous
 62
     7
370
    30
100
AcDbLine
 10
2.2714915748
 20
6.0643940728
 30
0.0
 11
2.2992693525
 21
6.0643940728
 31
0.0
  0
LINE
  5
13B
330
1F
100
AcDbEntity
  8
0
  6
Continuous
 62
     7
370
    30
100
AcDbLine
 10
1.7314915748
 20
6.0488385173
 30
0.0
 11
1.7314915748
 21
6.0643940728
 31
0.0
  0
LINE
  5
13C
330
1F
100
AcDbEntity
  8
0
  6
Continuous
 62
     7
370
    30
100
AcDbLine
 10
1.7314915748
 20
6.0488385173
 30
0.0
 11
2.2714915748
 21
6.0488385173
 31
0.0
  0
LINE
  5
13D
330
1F
100
AcDbEntity
  8
0
  6
Continuous
 62
     7
370
    30
100
AcDbLine
 10
1.7314915748
 20
6.0643940728
 30
0.0
 11
2.2714915748
 21
6.0643940728
 31
0.0
  0
LINE
  5
13E
330
1F
100
AcDbEntity
  8
0
  6
Continuous
 62
     7
370
    30
100
AcDbLine
 10
1.7003804637
 20
6.0332829617
 30
0.0
 11
1.7159360192
 21
6.0332829617
 31
0.0
  0
LINE
  5
13F
330
1F
100
AcDbEntity
  8
0
  6
Continuous
 62
     7
370
    30
100
AcDbLine
 10
1.7159360192
 20
6.0332829617
 30
0.0
 11
1.7159360192
 21
5.7876825295
 31
0.0
  0
LINE
  5
140
330
1F
100
AcDbEntity
  8
0
  6
Continuous
 62
     7
370
    30
100
AcDbLine
 10
1.7003804637
 20
5.7876825295
 30
0.0
 11
1.7159360192
 21
5.7876825295
 31
0.0
  0
LINE
  5
141
330
1F
100
AcDbEntity
  8
0
  6
Continuous
 62
     7
370
    30
100
AcDbLine
 10
1.7003804637
 20
6.0332829617
 30
0.0
 11
1.7003804637
 21
5.7876825295
 31
0.0
  0
LINE
  5
142
330
1F
100
AcDbEntity
  8
0
  6
Continuous
 62
     7
370
    30
100
AcDbLine
 10
1.7159360192
 20
5.7876825295
 30
0.0
 11
1.7159360192
 21
5.7790987241
 31
0.0
  0
LINE
  5
143
330
1F
100
AcDbEntity
  8
0
  6
Continuous
 62
     7
370
    30
100
AcDbLine
 10
1.7159360192
 20
5.7790987241
 30
0.0
 11
1.7003804637
 21
5.7790987241
 31
0.0
  0
LINE
  5
144
330
1F
100
AcDbEntity
  8
0
  6
Continuous
 62
     7
370
    30
100
AcDbLine
 10
1.7003804637
 20
5.7790987241
 30
0.0
 11
1.7003804637
 21
5.7876825295
 31
0.0
  0
ARC
  5
145
330
1F
100
AcDbEntity
  8
0
  6
Continuous
 62
     7
370
    30
100
AcDbCircle
 10
1.7314915748
 20
6.0332829617
 30
0.0
 40
0.0155555555555553
100
AcDbArc
 50
90.0
 51
180.0
  0
ARC
  5
146
330
1F
100
AcDbEntity
  8
0
  6
Continuous
 62
     7
370
    30
100
AcDbCircle
 10
1.7314915748
 20
6.0332829617
 30
0.0
 40
0.0311111111111111
100
AcDbArc
 50
90.0
 51
180.0
  0
LINE
  5
147
330
1F
100
AcDbEntity
  8
0
  6
Continuous
 62
     7
370
    30
100
AcDbLine
 10
1.7003804637
 20
4.1358102674
 30
0.0
 11
1.7159360192
 21
4.1358102674
 31
0.0
  0
LINE
  5
148
330
1F
100
AcDbEntity
  8
0
  6
Continuous
 62
     7
370
    30
100
AcDbLine
 10
1.7159360192
 20
4.1358102674
 30
0.0
 11
1.7159360192
 21
5.7790987241
 31
0.0
  0
LINE
  5
149
330
1F
100
AcDbEntity
  8
0
  6
Continuous
 62
     7
370
    30
100
AcDbLine
 10
1.7003804637
 20
4.1358102674
 30
0.0
 11
1.7003804637
 21
5.7790987241
 31
0.0
  0
LINE
  5
14A
330
1F
100
AcDbEntity
  8
0
  6
Continuous
 62
     7
370
    30
100
AcDbLine
 10
1.3931582414
 20
2.6183871796
 30
0.0
 11
1.3931582414
 21
5.8943940728
 31
0.0
  0
SPLINE
  5
14B
330
1F
100
AcDbEntity
  8
0
  6
Continuous
 62
     7
370
    30
100
AcDbSpline
210
0.0
220
0.0
230
1.0
 70
     8
 71
     3
 72
     8
 73
     4
 74
     0
 42
0.000000001
 43
0.00000001
 40
0.0
 40
0.0
 40
0.0
 40
0.0
 40
1.0
 40
1.0
 40
1.0
 40
1.0
 10
1.392968888720696
 20
2.618282961710177
 30
0.0
 10
1.393094995651262
 20
2.618317700994796
 30
0.0
 10
1.393158241428161
 20
2.618352440279414
 30
0.0
 10
1.393158241428161
 20
2.618387179564031
 30
0.0
  0
LINE
  5
14C
330
1F
100
AcDbEntity
  8
0
  6
Continuous
 62
     7
370
    30
100
AcDbLine
 10
1.3620471303
 20
2.6182829617
 30
0.0
 11
1.3929688887
 21
2.6182829617
 31
0.0
  0
LINE
  5
14D
330
1F
100
AcDbEntity
  8
0
  6
Continuous
 62
     7
370
    30
100
AcDbLine
 10
1.3931582414
 20
5.8943940728
 30
0.0
 11
1.3620471303
 21
5.8943940728
 31
0.0
  0
LINE
  5
14E
330
1F
100
AcDbEntity
  8
0
  6
Continuous
 62
     7
370
    30
100
AcDbLine
 10
1.3498249081
 20
2.6182829617
 30
0.0
 11
1.3620471303
 21
2.6182829617
 31
0.0
  0
ARC
  5
14F
330
1F
100
AcDbEntity
  8
0
  6
Continuous
 62
     7
370
    30
100
AcDbCircle
 10
1.3498249081
 20
2.5905051839
 30
0.0
 40
0.0277777777777779
100
AcDbArc
 50
90.0
 51
180.0
  0
LINE
  5
150
330
1F
100
AcDbEntity
  8
0
  6
Continuous
 62
     7
370
    30
100
AcDbLine
 10
1.3220471303
 20
2.5227274062
 30
0.0
 11
1.3220471303
 21
2.5905051839
 31
0.0
  0
LINE
  5
151
330
1F
100
AcDbEntity
  8
0
  6
Continuous
 62
     7
370
    30
100
AcDbLine
 10
0.8776026859
 20
4.7788833939
 30
0.0
 11
0.8776026859
 21
2.5227274062
 31
0.0
  0
ARC
  5
152
330
1F
100
AcDbEntity
  8
0
  6
Continuous
 62
     7
370
    30
100
AcDbCircle
 10
0.9053804637
 20
4.7788833939
 30
0.0
 40
0.0277777777777778
100
AcDbArc
 50
162.0
 51
180.0
  0
LINE
  5
153
330
1F
100
AcDbEntity
  8
0
  6
Continuous
 62
     7
370
    30
100
AcDbLine
 10
0.8789622271
 20
4.7874671993
 30
0.0
 11
1.2323880709
 21
5.8752001004
 31
0.0
  0
ARC
  5
154
330
1F
100
AcDbEntity
  8
0
  6
Continuous
 62
     7
370
    30
100
AcDbCircle
 10
1.2588063075
 20
5.866616295
 30
0.0
 40
0.0277777777777777
100
AcDbArc
 50
90.0
 51
162.0
  0
LINE
  5
155
330
1F
100
AcDbEntity
  8
0
  6
Continuous
 62
     7
370
    30
100
AcDbLine
 10
1.3620471303
 20
5.8943940728
 30
0.0
 11
1.2588063075
 21
5.8943940728
 31
0.0
  0
CIRCLE
  5
156
330
1F
100
AcDbEntity
  8
0
  6
Continuous
 62
     7
370
    30
100
AcDbCircle
 10
0.9331582414
 20
2.6182829617
 30
0.0
 40
0.0182222222222221
  0
CIRCLE
  5
157
330
1F
100
AcDbEntity
  8
0
  6
Continuous
 62
     7
370
    30
100
AcDbCircle
 10
1.1553804637
 20
2.7293940728
 30
0.0
 40
0.0182222222222221
  0
CIRCLE
  5
158
330
1F
100
AcDbEntity
  8
0
  6
Continuous
 62
     7
370
    30
100
AcDbCircle
 10
1.2109360192
 20
3.1738385173
 30
0.0
 40
0.0182222222222226
  0
LINE
  5
159
330
1F
100
AcDbEntity
  8
0
  6
Continuous
 62
     7
370
    30
100
AcDbLine
 10
0.8776026859
 20
2.5227274062
 30
0.0
 11
0.8776026859
 21
2.491616295
 31
0.0
  0
LINE
  5
15A
330
1F
100
AcDbEntity
  8
0
  6
Continuous
 62
     7
370
    30
100
AcDbLine
 10
1.3220471303
 20
2.491616295
 30
0.0
 11
1.3220471303
 21
2.5227274062
 31
0.0
  0
LINE
  5
15B
330
1F
100
AcDbEntity
  8
0
  6
Continuous
 62
     7
370
    30
100
AcDbLine
 10
1.3220471303
 20
2.491616295
 30
0.0
 11
0.8776026859
 21
2.491616295
 31
0.0
  0
LINE
  5
15C
330
1F
100
AcDbEntity
  8
0
  6
Continuous
 62
     7
370
    30
100
AcDbLine
 10
1.7159360192
 20
4.116616295
 30
0.0
 11
1.7003804637
 21
4.116616295
 31
0.0
  0
LINE
  5
15D
330
1F
100
AcDbEntity
  8
0
  6
Continuous
 62
     7
370
    30
100
AcDbLine
 10
1.7159360192
 20
4.1358102674
 30
0.0
 11
1.7159360192
 21
4.116616295
 31
0.0
  0
LINE
  5
15E
330
1F
100
AcDbEntity
  8
0
  6
Continuous
 62
     7
370
    30
100
AcDbLine
 10
1.7003804637
 20
4.116616295
 30
0.0
 11
1.7003804637
 21
4.1358102674
 31
0.0
  0
SPLINE
  5
15F
330
1F
100
AcDbEntity
  8
0
  6
Continuous
 62
     7
370
    30
100
AcDbSpline
210
0.0
220
0.0
230
1.0
 70
     8
 71
     3
 72
    14
 73
    10
 74
     0
 42
0.000000001
 43
0.00000001
 40
0.0
 40
0.0
 40
0.0
 40
0.0
 40
0.25
 40
0.25
 40
0.5
 40
0.5
 40
0.75
 40
0.75
 40
1.0
 40
1.0
 40
1.0
 40
1.0
 10
1.393158241428161
 20
4.470541866320089
 30
0.0
 10
1.393158241428161
 20
4.465604301384118
 30
0.0
 10
1.39356311090221
 20
4.460666736448148
 30
0.0
 10
1.395121564275984
 20
4.450791606576205
 30
0.0
 10
1.396274534990856
 20
4.445854041640235
 30
0.0
 10
1.399154181339662
 20
4.435978911768292
 30
0.0
 10
1.400879723955724
 20
4.431041346832322
 30
0.0
 10
1.404642163227016
 20
4.42116621696038
 30
0.0
 10
1.406677579523056
 20
4.416228652024409
 30
0.0
 10
1.408713796983716
 20
4.411291087088437
 30
0.0
  0
SPLINE
  5
160
330
1F
100
AcDbEntity
  8
0
  6
Continuous
 62
     7
370
    30
100
AcDbSpline
210
0.0
220
0.0
230
1.0
 70
     8
 71
     3
 72
     9
 73
     5
 74
     0
 42
0.000000001
 43
0.00000001
 40
0.0
 40
0.0
 40
0.0
 40
0.0
 40
0.2655783714907006
 40
1.0
 40
1.0
 40
1.0
 40
1.0
 10
1.39315824142816
 20
4.431460284498894
 30
0.0
 10
1.394345845841795
 20
4.429674783631379
 30
0.0
 10
1.398817612149301
 20
4.422951717827893
 30
0.0
 10
1.404523367123609
 20
4.416228652024409
 30
0.0
 10
1.408713796983716
 20
4.411291087088437
 30
0.0
  0
LINE
  5
161
330
1F
100
AcDbEntity
  8
0
  6
Continuous
 62
     7
370
    30
100
AcDbLine
 10
1.408713797
 20
5.8943940728
 30
0.0
 11
1.3931582414
 21
5.8943940728
 31
0.0
  0
LINE
  5
162
330
1F
100
AcDbEntity
  8
0
  6
Continuous
 62
     7
370
    30
100
AcDbLine
 10
1.408713797
 20
4.4112910871
 30
0.0
 11
1.408713797
 21
5.8943940728
 31
0.0
  0
SPLINE
  5
163
330
1F
100
AcDbEntity
  8
0
  6
Continuous
 62
     7
370
    30
100
AcDbSpline
210
0.0
220
0.0
230
1.0
 70
     8
 71
     3
 72
    14
 73
    10
 74
     0
 42
0.000000001
 43
0.00000001
 40
0.0
 40
0.0
 40
0.0
 40
0.0
 40
0.25
 40
0.25
 40
0.5
 40
0.5
 40
0.75
 40
0.75
 40
1.0
 40
1.0
 40
1.0
 40
1.0
 10
1.684824908094827
 20
4.411291087088435
 30
0.0
 10
1.686861125555487
 20
4.416228652024405
 30
0.0
 10
1.688896541851527
 20
4.421166216960377
 30
0.0
 10
1.692658981122819
 20
4.431041346832318
 30
0.0
 10
1.694384523738881
 20
4.43597891176829
 30
0.0
 10
1.697264170087688
 20
4.445854041640232
 30
0.0
 10
1.698417140802561
 20
4.450791606576202
 30
0.0
 10
1.699975594176335
 20
4.460666736448145
 30
0.0
 10
1.700380463650383
 20
4.465604301384116
 30
0.0
 10
1.700380463650383
 20
4.470541866320087
 30
0.0
  0
SPLINE
  5
164
330
1F
100
AcDbEntity
  8
0
  6
Continuous
 62
     7
370
    30
100
AcDbSpline
210
0.0
220
0.0
230
1.0
 70
     8
 71
     3
 72
     9
 73
     5
 74
     0
 42
0.000000001
 43
0.00000001
 40
0.0
 40
0.0
 40
0.0
 40
0.0
 40
0.7344216285092828
 40
1.0
 40
1.0
 40
1.0
 40
1.0
 10
1.684824908094826
 20
4.411291087088435
 30
0.0
 10
1.689015337954933
 20
4.416228652024406
 30
0.0
 10
1.694721092929241
 20
4.422951717827892
 30
0.0
 10
1.699192859236748
 20
4.429674783631377
 30
0.0
 10
1.700380463650383
 20
4.431460284498892
 30
0.0
  0
LINE
  5
165
330
1F
100
AcDbEntity
  8
0
  6
Continuous
 62
     7
370
    30
100
AcDbLine
 10
1.6848249081
 20
5.9777274062
 30
0.0
 11
1.6848249081
 21
4.4112910871
 31
0.0
  0
LINE
  5
166
330
1F
100
AcDbEntity
  8
0
  6
Continuous
 62
     7
370
    30
100
AcDbLine
 10
1.7003804637
 20
5.9777274062
 30
0.0
 11
1.6848249081
 21
5.9777274062
 31
0.0
  0
LINE
  5
167
330
1F
100
AcDbEntity
  8
0
  6
Continuous
 62
     7
370
    30
100
AcDbLine
 10
1.5467693525
 20
4.1721718506
 30
0.0
 11
1.6848249081
 21
4.4112910871
 31
0.0
  0
LINE
  5
168
330
1F
100
AcDbEntity
  8
0
  6
Continuous
 62
     7
370
    30
100
AcDbLine
 10
1.408713797
 20
4.4112910871
 30
0.0
 11
1.5467693525
 21
4.1721718506
 31
0.0
  0
LINE
  5
169
330
1F
100
AcDbEntity
  8
0
  6
Continuous
 62
     7
370
    30
100
AcDbLine
 10
1.408713797
 20
5.8943940728
 30
0.0
 11
1.4331582414
 21
5.8943940728
 31
0.0
  0
LINE
  5
16A
330
1F
100
AcDbEntity
  8
0
  6
Continuous
 62
     7
370
    30
100
AcDbLine
 10
1.4331582414
 20
5.9499496284
 30
0.0
 11
1.4331582414
 21
5.8943940728
 31
0.0
  0
ARC
  5
16B
330
1F
100
AcDbEntity
  8
0
  6
Continuous
 62
     7
370
    30
100
AcDbCircle
 10
1.4609360192
 20
5.9499496284
 30
0.0
 40
0.0277777777777786
100
AcDbArc
 50
90.0
 51
180.0
  0
LINE
  5
16C
330
1F
100
AcDbEntity
  8
0
  6
Continuous
 62
     7
370
    30
100
AcDbLine
 10
1.6848249081
 20
5.9777274062
 30
0.0
 11
1.4609360192
 21
5.9777274062
 31
0.0
  0
CIRCLE
  5
16D
330
1F
100
AcDbEntity
  8
0
  6
Continuous
 62
     7
370
    30
100
AcDbCircle
 10
1.5467693525
 20
5.4088385173
 30
0.0
 40
0.0277777777777777
  0
CIRCLE
  5
16E
330
1F
100
AcDbEntity
  8
0
  6
Continuous
 62
     7
370
    30
100
AcDbCircle
 10
1.5467693525
 20
4.7421718506
 30
0.0
 40
0.0277777777777777
  0
CIRCLE
  5
16F
330
1F
100
AcDbEntity
  8
0
  6
Continuous
 62
     7
370
    30
100
AcDbCircle
 10
1.5467693525
 20
4.9643940728
 30
0.0
 40
0.041666666666667
  0
CIRCLE
  5
170
330
1F
100
AcDbEntity
  8
0
  6
Continuous
 62
     7
370
    30
100
AcDbCircle
 10
1.5467693525
 20
4.5199496284
 30
0.0
 40
0.041666666666667
  0
LINE
  5
171
330
1F
100
AcDbEntity
  8
0
  6
Continuous
 62
     7
370
    30
100
AcDbLine
 10
1.408713797
 20
4.3835133093
 30
0.0
 11
1.408713797
 21
4.4112910871
 31
0.0
  0
SPLINE
  5
172
330
1F
100
AcDbEntity
  8
0
  6
Continuous
 62
     7
370
    30
100
AcDbSpline
210
0.0
220
0.0
230
1.0
 70
     8
 71
     3
 72
     9
 73
     5
 74
     0
 42
0.000000001
 43
0.00000001
 40
0.0
 40
0.0
 40
0.0
 40
0.0
 40
0.7344216285093701
 40
1.0
 40
1.0
 40
1.0
 40
1.0
 10
1.408713796983716
 20
4.383513309310665
 30
0.0
 10
1.404523367123609
 20
4.388450874246636
 30
0.0
 10
1.398817612149301
 20
4.395173940050121
 30
0.0
 10
1.394345845841795
 20
4.401897005853606
 30
0.0
 10
1.39315824142816
 20
4.40368250672112
 30
0.0
  0
LINE
  5
173
330
1F
100
AcDbEntity
  8
0
  6
Continuous
 62
     7
370
    30
100
AcDbLine
 10
1.6848249081
 20
4.3835133093
 30
0.0
 11
1.6848249081
 21
4.4112910871
 31
0.0
  0
LINE
  5
174
330
1F
100
AcDbEntity
  8
0
  6
Continuous
 62
     7
370
    30
100
AcDbLine
 10
1.6848249081
 20
4.3835133093
 30
0.0
 11
1.5467693525
 21
4.1443940728
 31
0.0
  0
LINE
  5
175
330
1F
100
AcDbEntity
  8
0
  6
Continuous
 62
     7
370
    30
100
AcDbLine
 10
1.5467693525
 20
4.1443940728
 30
0.0
 11
1.408713797
 21
4.3835133093
 31
0.0
  0
SPLINE
  5
176
330
1F
100
AcDbEntity
  8
0
  6
Continuous
 62
     7
370
    30
100
AcDbSpline
210
0.0
220
0.0
230
1.0
 70
     8
 71
     3
 72
     9
 73
     5
 74
     0
 42
0.000000001
 43
0.00000001
 40
0.0
 40
0.0
 40
0.0
 40
0.0
 40
0.2655783714906839
 40
1.0
 40
1.0
 40
1.0
 40
1.0
 10
1.700380463650383
 20
4.403682506721116
 30
0.0
 10
1.699192859236748
 20
4.401897005853601
 30
0.0
 10
1.694721092929241
 20
4.395173940050116
 30
0.0
 10
1.689015337954933
 20
4.38845087424663
 30
0.0
 10
1.684824908094827
 20
4.38351330931066
 30
0.0
  0
INSERT
  5
182
330
1F
100
AcDbEntity
  8
BLANK-SIZE-2
100
AcDbBlockReference
  2
SW_CENTERMARKSYMBOL_0
 10
0.9331582414
 20
2.6182829617
 30
0.0
  0
INSERT
  5
18E
330
1F
100
AcDbEntity
  8
BLANK-SIZE-2
100
AcDbBlockReference
  2
SW_CENTERMARKSYMBOL_1
 10
1.1553804637
 20
2.7293940728
 30
0.0
  0
INSERT
  5
19A
330
1F
100
AcDbEntity
  8
BLANK-SIZE-2
100
AcDbBlockReference
  2
SW_CENTERMARKSYMBOL_2
 10
1.2109360192
 20
3.1738385173
 30
0.0
  0
LINE
  5
19B
330
1F
100
AcDbEntity
  8
0
  6
Continuous
 62
     7
370
    30
100
AcDbLine
 10
6.2834721749
 20
5.7790987241
 30
0.0
 11
6.2679166193
 21
5.7790987241
 31
0.0
  0
LINE
  5
19C
330
1F
100
AcDbEntity
  8
0
  6
Continuous
 62
     7
370
    30
100
AcDbLine
 10
6.2679166193
 20
5.7790987241
 30
0.0
 11
6.2679166193
 21
5.7876825295
 31
0.0
  0
LINE
  5
19D
330
1F
100
AcDbEntity
  8
0
  6
Continuous
 62
     7
370
    30
100
AcDbLine
 10
6.2679166193
 20
5.7876825295
 30
0.0
 11
6.2834721749
 21
5.7876825295
 31
0.0
  0
LINE
  5
19E
330
1F
100
AcDbEntity
  8
0
  6
Continuous
 62
     7
370
    30
100
AcDbLine
 10
6.2834721749
 20
5.7876825295
 30
0.0
 11
6.2834721749
 21
5.7790987241
 31
0.0
  0
LINE
  5
19F
330
1F
100
AcDbEntity
  8
0
  6
Continuous
 62
     7
370
    30
100
AcDbLine
 10
6.2834721749
 20
6.0332829617
 30
0.0
 11
6.2679166193
 21
6.0332829617
 31
0.0
  0
LINE
  5
1A0
330
1F
100
AcDbEntity
  8
0
  6
Continuous
 62
     7
370
    30
100
AcDbLine
 10
6.2834721749
 20
5.7876825295
 30
0.0
 11
6.2834721749
 21
6.0332829617
 31
0.0
  0
LINE
  5
1A1
330
1F
100
AcDbEntity
  8
0
  6
Continuous
 62
     7
370
    30
100
AcDbLine
 10
6.2679166193
 20
5.7876825295
 30
0.0
 11
6.2679166193
 21
6.0332829617
 31
0.0
  0
ARC
  5
1A2
330
1F
100
AcDbEntity
  8
0
  6
Continuous
 62
     7
370
    30
100
AcDbCircle
 10
6.2523610638
 20
6.0332829617
 30
0.0
 40
0.0311111111111106
100
AcDbArc
 50
0.0
 51
90.0
  0
ARC
  5
1A3
330
1F
100
AcDbEntity
  8
0
  6
Continuous
 62
     7
370
    30
100
AcDbCircle
 10
6.2523610638
 20
6.0332829617
 30
0.0
 40
0.0155555555555562
100
AcDbArc
 50
0.0
 51
90.0
  0
LINE
  5
1A4
330
1F
100
AcDbEntity
  8
0
  6
Continuous
 62
     7
370
    30
100
AcDbLine
 10
6.2523610638
 20
6.0488385173
 30
0.0
 11
6.2523610638
 21
6.0643940728
 31
0.0
  0
LINE
  5
1A5
330
1F
100
AcDbEntity
  8
0
  6
Continuous
 62
     7
370
    30
100
AcDbLine
 10
5.7123610638
 20
6.0488385173
 30
0.0
 11
6.2523610638
 21
6.0488385173
 31
0.0
  0
LINE
  5
1A6
330
1F
100
AcDbEntity
  8
0
  6
Continuous
 62
     7
370
    30
100
AcDbLine
 10
5.7123610638
 20
6.0643940728
 30
0.0
 11
5.7123610638
 21
6.0488385173
 31
0.0
  0
LINE
  5
1A7
330
1F
100
AcDbEntity
  8
0
  6
Continuous
 62
     7
370
    30
100
AcDbLine
 10
5.7123610638
 20
6.0643940728
 30
0.0
 11
6.2523610638
 21
6.0643940728
 31
0.0
  0
LINE
  5
1A8
330
1F
100
AcDbEntity
  8
0
  6
Continuous
 62
     7
370
    30
100
AcDbLine
 10
5.684583286
 20
6.0488385173
 30
0.0
 11
5.684583286
 21
6.0643940728
 31
0.0
  0
LINE
  5
1A9
330
1F
100
AcDbEntity
  8
0
  6
Continuous
 62
     7
370
    30
100
AcDbLine
 10
5.7123610638
 20
6.0488385173
 30
0.0
 11
5.684583286
 21
6.0488385173
 31
0.0
  0
LINE
  5
1AA
330
1F
100
AcDbEntity
  8
0
  6
Continuous
 62
     7
370
    30
100
AcDbLine
 10
5.684583286
 20
6.0643940728
 30
0.0
 11
5.7123610638
 21
6.0643940728
 31
0.0
  0
LINE
  5
1AB
330
1F
100
AcDbEntity
  8
0
  6
Continuous
 62
     7
370
    30
100
AcDbLine
 10
6.2679166193
 20
4.1358102674
 30
0.0
 11
6.2834721749
 21
4.1358102674
 31
0.0
  0
LINE
  5
1AC
330
1F
100
AcDbEntity
  8
0
  6
Continuous
 62
     7
370
    30
100
AcDbLine
 10
6.2679166193
 20
5.7790987241
 30
0.0
 11
6.2679166193
 21
4.1358102674
 31
0.0
  0
LINE
  5
1AD
330
1F
100
AcDbEntity
  8
0
  6
Continuous
 62
     7
370
    30
100
AcDbLine
 10
6.2834721749
 20
5.7790987241
 30
0.0
 11
6.2834721749
 21
4.1358102674
 31
0.0
  0
LINE
  5
1AE
330
1F
100
AcDbEntity
  8
0
  6
Continuous
 62
     7
370
    30
100
AcDbLine
 10
6.5908837498
 20
2.6182829617
 30
0.0
 11
6.6218055082
 21
2.6182829617
 31
0.0
  0
SPLINE
  5
1AF
330
1F
100
AcDbEntity
  8
0
  6
Continuous
 62
     7
370
    30
100
AcDbSpline
210
0.0
220
0.0
230
1.0
 70
     8
 71
     3
 72
     8
 73
     4
 74
     0
 42
0.000000001
 43
0.00000001
 40
0.0
 40
0.0
 40
0.0
 40
0.0
 40
1.0
 40
1.0
 40
1.0
 40
1.0
 10
6.590694397088967
 20
2.618387179564032
 30
0.0
 10
6.590694397088967
 20
2.618352440279414
 30
0.0
 10
6.590757642865865
 20
2.618317700994796
 30
0.0
 10
6.590883749796432
 20
2.618282961710177
 30
0.0
  0
LINE
  5
1B0
330
1F
100
AcDbEntity
  8
0
  6
Continuous
 62
     7
370
    30
100
AcDbLine
 10
6.5906943971
 20
5.8943940728
 30
0.0
 11
6.5906943971
 21
2.6183871796
 31
0.0
  0
LINE
  5
1B1
330
1F
100
AcDbEntity
  8
0
  6
Continuous
 62
     7
370
    30
100
AcDbLine
 10
6.6218055082
 20
5.8943940728
 30
0.0
 11
6.5906943971
 21
5.8943940728
 31
0.0
  0
LINE
  5
1B2
330
1F
100
AcDbEntity
  8
0
  6
Continuous
 62
     7
370
    30
100
AcDbLine
 10
6.6618055082
 20
2.5905051839
 30
0.0
 11
6.6618055082
 21
2.5227274062
 31
0.0
  0
ARC
  5
1B3
330
1F
100
AcDbEntity
  8
0
  6
Continuous
 62
     7
370
    30
100
AcDbCircle
 10
6.6340277304
 20
2.5905051839
 30
0.0
 40
0.0277777777777777
100
AcDbArc
 50
0.0
 51
90.0
  0
LINE
  5
1B4
330
1F
100
AcDbEntity
  8
0
  6
Continuous
 62
     7
370
    30
100
AcDbLine
 10
6.6218055082
 20
2.6182829617
 30
0.0
 11
6.6340277304
 21
2.6182829617
 31
0.0
  0
ARC
  5
1B5
330
1F
100
AcDbEntity
  8
0
  6
Continuous
 62
     7
370
    30
100
AcDbCircle
 10
6.7250463311
 20
5.866616295
 30
0.0
 40
0.0277777777777786
100
AcDbArc
 50
18.0
 51
90.0
  0
LINE
  5
1B6
330
1F
100
AcDbEntity
  8
0
  6
Continuous
 62
     7
370
    30
100
AcDbLine
 10
6.7514645676
 20
5.8752001004
 30
0.0
 11
7.1048904114
 21
4.7874671993
 31
0.0
  0
ARC
  5
1B7
330
1F
100
AcDbEntity
  8
0
  6
Continuous
 62
     7
370
    30
100
AcDbCircle
 10
7.0784721749
 20
4.7788833939
 30
0.0
 40
0.0277777777777768
100
AcDbArc
 50
0.0
 51
18.0
  0
LINE
  5
1B8
330
1F
100
AcDbEntity
  8
0
  6
Continuous
 62
     7
370
    30
100
AcDbLine
 10
7.1062499526
 20
2.5227274062
 30
0.0
 11
7.1062499526
 21
4.7788833939
 31
0.0
  0
CIRCLE
  5
1B9
330
1F
100
AcDbEntity
  8
0
  6
Continuous
 62
     7
370
    30
100
AcDbCircle
 10
6.8284721749
 20
3.1182829617
 30
0.0
 40
0.0182222222222226
  0
CIRCLE
  5
1BA
330
1F
100
AcDbEntity
  8
0
  6
Continuous
 62
     7
370
    30
100
AcDbCircle
 10
6.8006943971
 20
2.7849496284
 30
0.0
 40
0.0182222222222221
  0
CIRCLE
  5
1BB
330
1F
100
AcDbEntity
  8
0
  6
Continuous
 62
     7
370
    30
100
AcDbCircle
 10
7.0229166193
 20
2.6738385173
 30
0.0
 40
0.0182222222222221
  0
LINE
  5
1BC
330
1F
100
AcDbEntity
  8
0
  6
Continuous
 62
     7
370
    30
100
AcDbLine
 10
6.7250463311
 20
5.8943940728
 30
0.0
 11
6.6218055082
 21
5.8943940728
 31
0.0
  0
LINE
  5
1BD
330
1F
100
AcDbEntity
  8
0
  6
Continuous
 62
     7
370
    30
100
AcDbLine
 10
7.1062499526
 20
2.491616295
 30
0.0
 11
6.6618055082
 21
2.491616295
 31
0.0
  0
LINE
  5
1BE
330
1F
100
AcDbEntity
  8
0
  6
Continuous
 62
     7
370
    30
100
AcDbLine
 10
7.1062499526
 20
2.491616295
 30
0.0
 11
7.1062499526
 21
2.5227274062
 31
0.0
  0
LINE
  5
1BF
330
1F
100
AcDbEntity
  8
0
  6
Continuous
 62
     7
370
    30
100
AcDbLine
 10
6.6618055082
 20
2.5227274062
 30
0.0
 11
6.6618055082
 21
2.491616295
 31
0.0
  0
LINE
  5
1C0
330
1F
100
AcDbEntity
  8
0
  6
Continuous
 62
     7
370
    30
100
AcDbLine
 10
6.2834721749
 20
4.116616295
 30
0.0
 11
6.2679166193
 21
4.116616295
 31
0.0
  0
LINE
  5
1C1
330
1F
100
AcDbEntity
  8
0
  6
Continuous
 62
     7
370
    30
100
AcDbLine
 10
6.2679166193
 20
4.116616295
 30
0.0
 11
6.2679166193
 21
4.1358102674
 31
0.0
  0
LINE
  5
1C2
330
1F
100
AcDbEntity
  8
0
  6
Continuous
 62
     7
370
    30
100
AcDbLine
 10
6.2834721749
 20
4.1358102674
 30
0.0
 11
6.2834721749
 21
4.116616295
 31
0.0
  0
SPLINE
  5
1C3
330
1F
100
AcDbEntity
  8
0
  6
Continuous
 62
     7
370
    30
100
AcDbSpline
210
0.0
220
0.0
230
1.0
 70
     8
 71
     3
 72
    14
 73
    10
 74
     0
 42
0.000000001
 43
0.00000001
 40
0.0
 40
0.0
 40
0.0
 40
0.0
 40
0.25
 40
0.25
 40
0.5
 40
0.5
 40
0.75
 40
0.75
 40
1.0
 40
1.0
 40
1.0
 40
1.0
 10
6.575138841533412
 20
4.383513309310663
 30
0.0
 10
6.577175058994071
 20
4.388450874246635
 30
0.0
 10
6.579210475290112
 20
4.393388439182606
 30
0.0
 10
6.582972914561404
 20
4.403263569054548
 30
0.0
 10
6.584698457177466
 20
4.40820113399052
 30
0.0
 10
6.587578103526273
 20
4.418076263862461
 30
0.0
 10
6.588731074241146
 20
4.423013828798434
 30
0.0
 10
6.590289527614919
 20
4.432888958670376
 30
0.0
 10
6.590694397088967
 20
4.437826523606347
 30
0.0
 10
6.590694397088967
 20
4.442764088542318
 30
0.0
  0
SPLINE
  5
1C4
330
1F
100
AcDbEntity
  8
0
  6
Continuous
 62
     7
370
    30
100
AcDbSpline
210
0.0
220
0.0
230
1.0
 70
     8
 71
     3
 72
     9
 73
     5
 74
     0
 42
0.000000001
 43
0.00000001
 40
0.0
 40
0.0
 40
0.0
 40
0.0
 40
0.7344216285093323
 40
1.0
 40
1.0
 40
1.0
 40
1.0
 10
6.575138841533412
 20
4.383513309310664
 30
0.0
 10
6.579329271393518
 20
4.388450874246636
 30
0.0
 10
6.585035026367827
 20
4.395173940050121
 30
0.0
 10
6.589506792675333
 20
4.401897005853606
 30
0.0
 10
6.590694397088968
 20
4.40368250672112
 30
0.0
  0
LINE
  5
1C5
330
1F
100
AcDbEntity
  8
0
  6
Continuous
 62
     7
370
    30
100
AcDbLine
 10
6.5751388415
 20
5.8943940728
 30
0.0
 11
6.5751388415
 21
4.3835133093
 31
0.0
  0
LINE
  5
1C6
330
1F
100
AcDbEntity
  8
0
  6
Continuous
 62
     7
370
    30
100
AcDbLine
 10
6.5906943971
 20
5.8943940728
 30
0.0
 11
6.5751388415
 21
5.8943940728
 31
0.0
  0
SPLINE
  5
1C7
330
1F
100
AcDbEntity
  8
0
  6
Continuous
 62
     7
370
    30
100
AcDbSpline
210
0.0
220
0.0
230
1.0
 70
     8
 71
     3
 72
    14
 73
    10
 74
     0
 42
0.000000001
 43
0.00000001
 40
0.0
 40
0.0
 40
0.0
 40
0.0
 40
0.25
 40
0.25
 40
0.5
 40
0.5
 40
0.75
 40
0.75
 40
1.0
 40
1.0
 40
1.0
 40
1.0
 10
6.283472174866745
 20
4.442764088542311
 30
0.0
 10
6.283472174866745
 20
4.437826523606341
 30
0.0
 10
6.283877044340794
 20
4.432888958670369
 30
0.0
 10
6.285435497714567
 20
4.423013828798426
 30
0.0
 10
6.28658846842944
 20
4.418076263862456
 30
0.0
 10
6.289468114778247
 20
4.408201133990514
 30
0.0
 10
6.291193657394309
 20
4.403263569054543
 30
0.0
 10
6.294956096665601
 20
4.3933884391826
 30
0.0
 10
6.296991512961641
 20
4.388450874246629
 30
0.0
 10
6.299027730422301
 20
4.383513309310659
 30
0.0
  0
SPLINE
  5
1C8
330
1F
100
AcDbEntity
  8
0
  6
Continuous
 62
     7
370
    30
100
AcDbSpline
210
0.0
220
0.0
230
1.0
 70
     8
 71
     3
 72
     9
 73
     5
 74
     0
 42
0.000000001
 43
0.00000001
 40
0.0
 40
0.0
 40
0.0
 40
0.0
 40
0.2655783714907255
 40
1.0
 40
1.0
 40
1.0
 40
1.0
 10
6.283472174866745
 20
4.403682506721116
 30
0.0
 10
6.284659779280379
 20
4.401897005853601
 30
0.0
 10
6.289131545587886
 20
4.395173940050116
 30
0.0
 10
6.294837300562195
 20
4.388450874246629
 30
0.0
 10
6.299027730422301
 20
4.38351330931066
 30
0.0
  0
LINE
  5
1C9
330
1F
100
AcDbEntity
  8
0
  6
Continuous
 62
     7
370
    30
100
AcDbLine
 10
6.2990277304
 20
5.9777274062
 30
0.0
 11
6.2834721749
 21
5.9777274062
 31
0.0
  0
LINE
  5
1CA
330
1F
100
AcDbEntity
  8
0
  6
Continuous
 62
     7
370
    30
100
AcDbLine
 10
6.2990277304
 20
4.3835133093
 30
0.0
 11
6.2990277304
 21
5.9777274062
 31
0.0
  0
LINE
  5
1CB
330
1F
100
AcDbEntity
  8
0
  6
Continuous
 62
     7
370
    30
100
AcDbLine
 10
6.5506943971
 20
5.8943940728
 30
0.0
 11
6.5751388415
 21
5.8943940728
 31
0.0
  0
LINE
  5
1CC
330
1F
100
AcDbEntity
  8
0
  6
Continuous
 62
     7
370
    30
100
AcDbLine
 10
6.2990277304
 20
4.3835133093
 30
0.0
 11
6.437083286
 21
4.1443940728
 31
0.0
  0
LINE
  5
1CD
330
1F
100
AcDbEntity
  8
0
  6
Continuous
 62
     7
370
    30
100
AcDbLine
 10
6.5229166193
 20
5.9777274062
 30
0.0
 11
6.2990277304
 21
5.9777274062
 31
0.0
  0
ARC
  5
1CE
330
1F
100
AcDbEntity
  8
0
  6
Continuous
 62
     7
370
    30
100
AcDbCircle
 10
6.5229166193
 20
5.9499496284
 30
0.0
 40
0.0277777777777768
100
AcDbArc
 50
0.0
 51
90.0
  0
LINE
  5
1CF
330
1F
100
AcDbEntity
  8
0
  6
Continuous
 62
     7
370
    30
100
AcDbLine
 10
6.5506943971
 20
5.8943940728
 30
0.0
 11
6.5506943971
 21
5.9499496284
 31
0.0
  0
CIRCLE
  5
1D0
330
1F
100
AcDbEntity
  8
0
  6
Continuous
 62
     7
370
    30
100
AcDbCircle
 10
6.437083286
 20
5.4088385173
 30
0.0
 40
0.0277777777777768
  0
CIRCLE
  5
1D1
330
1F
100
AcDbEntity
  8
0
  6
Continuous
 62
     7
370
    30
100
AcDbCircle
 10
6.437083286
 20
4.7421718506
 30
0.0
 40
0.0277777777777777
  0
CIRCLE
  5
1D2
330
1F
100
AcDbEntity
  8
0
  6
Continuous
 62
     7
370
    30
100
AcDbCircle
 10
6.437083286
 20
4.9643940728
 30
0.0
 40
0.0416666666666679
  0
CIRCLE
  5
1D3
330
1F
100
AcDbEntity
  8
0
  6
Continuous
 62
     7
370
    30
100
AcDbCircle
 10
6.437083286
 20
4.5199496284
 30
0.0
 40
0.041666666666667
  0
LINE
  5
1D4
330
1F
100
AcDbEntity
  8
0
  6
Continuous
 62
     7
370
    30
100
AcDbLine
 10
6.437083286
 20
4.1443940728
 30
0.0
 11
6.5751388415
 21
4.3835133093
 31
0.0
  0
INSERT
  5
1E0
330
1F
100
AcDbEntity
  8
BLANK-SIZE-2
100
AcDbBlockReference
  2
SW_CENTERMARKSYMBOL_3
 10
6.8284721749
 20
3.1182829617
 30
0.0
  0
INSERT
  5
1EC
330
1F
100
AcDbEntity
  8
BLANK-SIZE-2
100
AcDbBlockReference
  2
SW_CENTERMARKSYMBOL_4
 10
6.8006943971
 20
2.7849496284
 30
0.0
  0
INSERT
  5
1F8
330
1F
100
AcDbEntity
  8
BLANK-SIZE-2
100
AcDbBlockReference
  2
SW_CENTERMARKSYMBOL_5
 10
7.0229166193
 20
2.6738385173
 30
0.0
  0
LINE
  5
1F9
330
1F
100
AcDbEntity
  8
0
  6
Continuous
 62
     7
370
    30
100
AcDbLine
 10
4.1861589334
 20
10.0182797937
 30
0.0
 11
4.1861589334
 21
9.4782797937
 31
0.0
  0
ARC
  5
1FA
330
1F
100
AcDbEntity
  8
0
  6
Continuous
 62
     7
370
    30
100
AcDbCircle
 10
4.2139367112
 20
10.0182797937
 30
0.0
 40
0.0277777777777777
100
AcDbArc
 50
90.0
 51
180.0
  0
LINE
  5
1FB
330
1F
100
AcDbEntity
  8
0
  6
Continuous
 62
     7
370
    30
100
AcDbLine
 10
4.7694922667
 20
10.0460575715
 30
0.0
 11
4.2139367112
 21
10.0460575715
 31
0.0
  0
ARC
  5
1FC
330
1F
100
AcDbEntity
  8
0
  6
Continuous
 62
     7
370
    30
100
AcDbCircle
 10
4.7694922667
 20
10.0182797937
 30
0.0
 40
0.0277777777777786
100
AcDbArc
 50
0.0
 51
90.0
  0
LINE
  5
1FD
330
1F
100
AcDbEntity
  8
0
  6
Continuous
 62
     7
370
    30
100
AcDbLine
 10
4.7972700445
 20
9.4782797937
 30
0.0
 11
4.7972700445
 21
10.0182797937
 31
0.0
  0
CIRCLE
  5
1FE
330
1F
100
AcDbEntity
  8
0
  6
Continuous
 62
     7
370
    30
100
AcDbCircle
 10
4.7139367112
 20
10.0043909048
 30
0.0
 40
0.0199999999999996
  0
CIRCLE
  5
1FF
330
1F
100
AcDbEntity
  8
0
  6
Continuous
 62
     7
370
    30
100
AcDbCircle
 10
4.5472700445
 20
9.9210575715
 30
0.0
 40
0.0200000000000014
  0
CIRCLE
  5
200
330
1F
100
AcDbEntity
  8
0
  6
Continuous
 62
     7
370
    30
100
AcDbCircle
 10
4.3806033778
 20
9.976613127
 30
0.0
 40
0.0199999999999996
  0
LINE
  5
201
330
1F
100
AcDbEntity
  8
0
  6
Continuous
 62
     7
370
    30
100
AcDbLine
 10
3.4228256001
 20
10.0182797937
 30
0.0
 11
3.4228256001
 21
9.4782797937
 31
0.0
  0
ARC
  5
202
330
1F
100
AcDbEntity
  8
0
  6
Continuous
 62
     7
370
    30
100
AcDbCircle
 10
3.4506033778
 20
10.0182797937
 30
0.0
 40
0.0277777777777786
100
AcDbArc
 50
90.0
 51
180.0
  0
LINE
  5
203
330
1F
100
AcDbEntity
  8
0
  6
Continuous
 62
     7
370
    30
100
AcDbLine
 10
4.0061589334
 20
10.0460575715
 30
0.0
 11
3.4506033778
 21
10.0460575715
 31
0.0
  0
ARC
  5
204
330
1F
100
AcDbEntity
  8
0
  6
Continuous
 62
     7
370
    30
100
AcDbCircle
 10
4.0061589334
 20
10.0182797937
 30
0.0
 40
0.0277777777777777
100
AcDbArc
 50
360.0
 51
90.0
  0
LINE
  5
205
330
1F
100
AcDbEntity
  8
0
  6
Continuous
 62
     7
370
    30
100
AcDbLine
 10
4.0339367112
 20
9.4782797937
 30
0.0
 11
4.0339367112
 21
10.0182797937
 31
0.0
  0
CIRCLE
  5
206
330
1F
100
AcDbEntity
  8
0
  6
Continuous
 62
     7
370
    30
100
AcDbCircle
 10
3.8394922667
 20
9.9488353492
 30
0.0
 40
0.0199999999999978
  0
CIRCLE
  5
207
330
1F
100
AcDbEntity
  8
0
  6
Continuous
 62
     7
370
    30
100
AcDbCircle
 10
3.6728256001
 20
9.8932797937
 30
0.0
 40
0.0200000000000014
  0
CIRCLE
  5
208
330
1F
100
AcDbEntity
  8
0
  6
Continuous
 62
     7
370
    30
100
AcDbCircle
 10
3.5061589334
 20
10.0043909048
 30
0.0
 40
0.0199999999999996
  0
LINE
  5
209
330
1F
100
AcDbEntity
  8
0
  6
Continuous
 62
     7
370
    30
100
AcDbLine
 10
4.0339367112
 20
9.4471686826
 30
0.0
 11
4.0339367112
 21
9.4782797937
 31
0.0
  0
LINE
  5
20A
330
1F
100
AcDbEntity
  8
0
  6
Continuous
 62
     7
370
    30
100
AcDbLine
 10
3.4228256001
 20
9.4471686826
 30
0.0
 11
4.0339367112
 21
9.4471686826
 31
0.0
  0
LINE
  5
20B
330
1F
100
AcDbEntity
  8
0
  6
Continuous
 62
     7
370
    30
100
AcDbLine
 10
3.4228256001
 20
9.4782797937
 30
0.0
 11
3.4228256001
 21
9.4471686826
 31
0.0
  0
LINE
  5
20C
330
1F
100
AcDbEntity
  8
0
  6
Continuous
 62
     7
370
    30
100
AcDbLine
 10
4.7972700445
 20
9.4471686826
 30
0.0
 11
4.7972700445
 21
9.4782797937
 31
0.0
  0
LINE
  5
20D
330
1F
100
AcDbEntity
  8
0
  6
Continuous
 62
     7
370
    30
100
AcDbLine
 10
4.1861589334
 20
9.4471686826
 30
0.0
 11
4.7972700445
 21
9.4471686826
 31
0.0
  0
LINE
  5
20E
330
1F
100
AcDbEntity
  8
0
  6
Continuous
 62
     7
370
    30
100
AcDbLine
 10
4.1861589334
 20
9.4782797937
 30
0.0
 11
4.1861589334
 21
9.4471686826
 31
0.0
  0
LINE
  5
20F
330
1F
100
AcDbEntity
  8
0
  6
Continuous
 62
     7
370
    30
100
AcDbLine
 10
4.061714489
 20
9.4627242381
 30
0.0
 11
4.061714489
 21
9.4471686826
 31
0.0
  0
LINE
  5
210
330
1F
100
AcDbEntity
  8
0
  6
Continuous
 62
     7
370
    30
100
AcDbLine
 10
4.0339367112
 20
9.4627242381
 30
0.0
 11
4.061714489
 21
9.4627242381
 31
0.0
  0
LINE
  5
211
330
1F
100
AcDbEntity
  8
0
  6
Continuous
 62
     7
370
    30
100
AcDbLine
 10
4.061714489
 20
9.4471686826
 30
0.0
 11
4.0339367112
 21
9.4471686826
 31
0.0
  0
LINE
  5
212
330
1F
100
AcDbEntity
  8
0
  6
Continuous
 62
     7
370
    30
100
AcDbLine
 10
4.1583811556
 20
9.4471686826
 30
0.0
 11
4.1583811556
 21
9.4627242381
 31
0.0
  0
LINE
  5
213
330
1F
100
AcDbEntity
  8
0
  6
Continuous
 62
     7
370
    30
100
AcDbLine
 10
4.1861589334
 20
9.4471686826
 30
0.0
 11
4.1583811556
 21
9.4471686826
 31
0.0
  0
LINE
  5
214
330
1F
100
AcDbEntity
  8
0
  6
Continuous
 62
     7
370
    30
100
AcDbLine
 10
4.1583811556
 20
9.4627242381
 30
0.0
 11
4.1861589334
 21
9.4627242381
 31
0.0
  0
LINE
  5
215
330
1F
100
AcDbEntity
  8
0
  6
Continuous
 62
     7
370
    30
100
AcDbLine
 10
4.1461589334
 20
9.4471686826
 30
0.0
 11
4.1461589334
 21
9.4627242381
 31
0.0
  0
LINE
  5
216
330
1F
100
AcDbEntity
  8
0
  6
Continuous
 62
     7
370
    30
100
AcDbLine
 10
4.1461589334
 20
9.4471686826
 30
0.0
 11
4.1583811556
 21
9.4471686826
 31
0.0
  0
LINE
  5
217
330
1F
100
AcDbEntity
  8
0
  6
Continuous
 62
     7
370
    30
100
AcDbLine
 10
4.1461589334
 20
9.4627242381
 30
0.0
 11
4.1583811556
 21
9.4627242381
 31
0.0
  0
LINE
  5
218
330
1F
100
AcDbEntity
  8
0
  6
Continuous
 62
     7
370
    30
100
AcDbLine
 10
4.0739367112
 20
9.4471686826
 30
0.0
 11
4.0739367112
 21
9.4627242381
 31
0.0
  0
LINE
  5
219
330
1F
100
AcDbEntity
  8
0
  6
Continuous
 62
     7
370
    30
100
AcDbLine
 10
4.061714489
 20
9.4627242381
 30
0.0
 11
4.0739367112
 21
9.4627242381
 31
0.0
  0
LINE
  5
21A
330
1F
100
AcDbEntity
  8
0
  6
Continuous
 62
     7
370
    30
100
AcDbLine
 10
4.061714489
 20
9.4471686826
 30
0.0
 11
4.0739367112
 21
9.4471686826
 31
0.0
  0
LINE
  5
21B
330
1F
100
AcDbEntity
  8
0
  6
Continuous
 62
     7
370
    30
100
AcDbLine
 10
4.1150478223
 20
9.431613127
 30
0.0
 11
4.1306033778
 21
9.431613127
 31
0.0
  0
ARC
  5
21C
330
1F
100
AcDbEntity
  8
0
  6
Continuous
 62
     7
370
    30
100
AcDbCircle
 10
4.1461589334
 20
9.431613127
 30
0.0
 40
0.0155555555555562
100
AcDbArc
 50
90.0
 51
180.0
  0
ARC
  5
21D
330
1F
100
AcDbEntity
  8
0
  6
Continuous
 62
     7
370
    30
100
AcDbCircle
 10
4.1461589334
 20
9.431613127
 30
0.0
 40
0.0311111111111106
100
AcDbArc
 50
90.0
 51
180.0
  0
LINE
  5
21E
330
1F
100
AcDbEntity
  8
0
  6
Continuous
 62
     7
370
    30
100
AcDbLine
 10
4.1050478223
 20
9.1799464604
 30
0.0
 11
4.0894922667
 21
9.1799464604
 31
0.0
  0
LINE
  5
21F
330
1F
100
AcDbEntity
  8
0
  6
Continuous
 62
     7
370
    30
100
AcDbLine
 10
4.0894922667
 20
9.2077242381
 30
0.0
 11
4.1050478223
 21
9.2077242381
 31
0.0
  0
LINE
  5
220
330
1F
100
AcDbEntity
  8
0
  6
Continuous
 62
     7
370
    30
100
AcDbLine
 10
4.0894922667
 20
9.1799464604
 30
0.0
 11
4.0894922667
 21
9.2077242381
 31
0.0
  0
LINE
  5
221
330
1F
100
AcDbEntity
  8
0
  6
Continuous
 62
     7
370
    30
100
AcDbLine
 10
4.1050478223
 20
9.2077242381
 30
0.0
 11
4.1050478223
 21
9.1799464604
 31
0.0
  0
LINE
  5
222
330
1F
100
AcDbEntity
  8
0
  6
Continuous
 62
     7
370
    30
100
AcDbLine
 10
4.1150478223
 20
9.2077242381
 30
0.0
 11
4.1306033778
 21
9.2077242381
 31
0.0
  0
LINE
  5
223
330
1F
100
AcDbEntity
  8
0
  6
Continuous
 62
     7
370
    30
100
AcDbLine
 10
4.1150478223
 20
9.431613127
 30
0.0
 11
4.1150478223
 21
9.2077242381
 31
0.0
  0
LINE
  5
224
330
1F
100
AcDbEntity
  8
0
  6
Continuous
 62
     7
370
    30
100
AcDbLine
 10
4.1306033778
 20
9.431613127
 30
0.0
 11
4.1306033778
 21
9.2077242381
 31
0.0
  0
LINE
  5
225
330
1F
100
AcDbEntity
  8
0
  6
Continuous
 62
     7
370
    30
100
AcDbLine
 10
4.1306033778
 20
9.1799464604
 30
0.0
 11
4.1150478223
 21
9.1799464604
 31
0.0
  0
LINE
  5
226
330
1F
100
AcDbEntity
  8
0
  6
Continuous
 62
     7
370
    30
100
AcDbLine
 10
4.1150478223
 20
9.1799464604
 30
0.0
 11
4.1150478223
 21
9.2077242381
 31
0.0
  0
LINE
  5
227
330
1F
100
AcDbEntity
  8
0
  6
Continuous
 62
     7
370
    30
100
AcDbLine
 10
4.1306033778
 20
9.2077242381
 30
0.0
 11
4.1306033778
 21
9.1799464604
 31
0.0
  0
LINE
  5
228
330
1F
100
AcDbEntity
  8
0
  6
Continuous
 62
     7
370
    30
100
AcDbLine
 10
4.1050478223
 20
9.431613127
 30
0.0
 11
4.0894922667
 21
9.431613127
 31
0.0
  0
LINE
  5
229
330
1F
100
AcDbEntity
  8
0
  6
Continuous
 62
     7
370
    30
100
AcDbLine
 10
4.0894922667
 20
9.2077242381
 30
0.0
 11
4.0894922667
 21
9.431613127
 31
0.0
  0
LINE
  5
22A
330
1F
100
AcDbEntity
  8
0
  6
Continuous
 62
     7
370
    30
100
AcDbLine
 10
4.1050478223
 20
9.2077242381
 30
0.0
 11
4.1050478223
 21
9.431613127
 31
0.0
  0
ARC
  5
22B
330
1F
100
AcDbEntity
  8
0
  6
Continuous
 62
     7
370
    30
100
AcDbCircle
 10
4.0739367112
 20
9.431613127
 30
0.0
 40
0.0311111111111115
100
AcDbArc
 50
360.0
 51
90.0
  0
ARC
  5
22C
330
1F
100
AcDbEntity
  8
0
  6
Continuous
 62
     7
370
    30
100
AcDbCircle
 10
4.0739367112
 20
9.431613127
 30
0.0
 40
0.0155555555555553
100
AcDbArc
 50
0.0
 51
90.0
  0
LINE
  5
22D
330
1F
100
AcDbEntity
  8
0
  6
Continuous
 62
     7
370
    30
100
AcDbLine
 10
4.361714489
 20
8.9791762898
 30
0.0
 11
4.3461589334
 21
8.9791762898
 31
0.0
  0
LINE
  5
22E
330
1F
100
AcDbEntity
  8
0
  6
Continuous
 62
     7
370
    30
100
AcDbLine
 10
4.3461589334
 20
8.9791762898
 30
0.0
 11
4.3461589334
 21
9.0055945264
 31
0.0
  0
LINE
  5
22F
330
1F
100
AcDbEntity
  8
0
  6
Continuous
 62
     7
370
    30
100
AcDbLine
 10
4.3461589334
 20
9.0055945264
 30
0.0
 11
4.361714489
 21
9.0055945264
 31
0.0
  0
LINE
  5
230
330
1F
100
AcDbEntity
  8
0
  6
Continuous
 62
     7
370
    30
100
AcDbLine
 10
4.361714489
 20
9.0055945264
 30
0.0
 11
4.361714489
 21
8.9791762898
 31
0.0
  0
LINE
  5
231
330
1F
100
AcDbEntity
  8
0
  6
Continuous
 62
     7
370
    30
100
AcDbLine
 10
3.8739367112
 20
9.1088353492
 30
0.0
 11
3.8583811556
 21
9.1088353492
 31
0.0
  0
LINE
  5
232
330
1F
100
AcDbEntity
  8
0
  6
Continuous
 62
     7
370
    30
100
AcDbLine
 10
3.8739367112
 20
9.0055945264
 30
0.0
 11
3.8739367112
 21
9.1088353492
 31
0.0
  0
LINE
  5
233
330
1F
100
AcDbEntity
  8
0
  6
Continuous
 62
     7
370
    30
100
AcDbLine
 10
3.8583811556
 20
9.0055945264
 30
0.0
 11
3.8739367112
 21
9.0055945264
 31
0.0
  0
LINE
  5
234
330
1F
100
AcDbEntity
  8
0
  6
Continuous
 62
     7
370
    30
100
AcDbLine
 10
3.8583811556
 20
9.0055945264
 30
0.0
 11
3.8583811556
 21
9.1088353492
 31
0.0
  0
LINE
  5
235
330
1F
100
AcDbEntity
  8
0
  6
Continuous
 62
     7
370
    30
100
AcDbLine
 10
3.8739367112
 20
9.0055945264
 30
0.0
 11
3.8739367112
 21
8.9791762898
 31
0.0
  0
LINE
  5
236
330
1F
100
AcDbEntity
  8
0
  6
Continuous
 62
     7
370
    30
100
AcDbLine
 10
3.8739367112
 20
8.9791762898
 30
0.0
 11
3.8583811556
 21
8.9791762898
 31
0.0
  0
LINE
  5
237
330
1F
100
AcDbEntity
  8
0
  6
Continuous
 62
     7
370
    30
100
AcDbLine
 10
3.8583811556
 20
8.9791762898
 30
0.0
 11
3.8583811556
 21
9.0055945264
 31
0.0
  0
LINE
  5
238
330
1F
100
AcDbEntity
  8
0
  6
Continuous
 62
     7
370
    30
100
AcDbLine
 10
4.3461589334
 20
9.1088353492
 30
0.0
 11
4.361714489
 21
9.1088353492
 31
0.0
  0
LINE
  5
239
330
1F
100
AcDbEntity
  8
0
  6
Continuous
 62
     7
370
    30
100
AcDbLine
 10
4.3461589334
 20
9.1088353492
 30
0.0
 11
4.3461589334
 21
9.0055945264
 31
0.0
  0
LINE
  5
23A
330
1F
100
AcDbEntity
  8
0
  6
Continuous
 62
     7
370
    30
100
AcDbLine
 10
4.361714489
 20
9.1088353492
 30
0.0
 11
4.361714489
 21
9.0055945264
 31
0.0
  0
LINE
  5
23B
330
1F
100
AcDbEntity
  8
0
  6
Continuous
 62
     7
370
    30
100
AcDbLine
 10
3.8894922667
 20
9.1243909048
 30
0.0
 11
3.8894922667
 21
9.1399464604
 31
0.0
  0
ARC
  5
23C
330
1F
100
AcDbEntity
  8
0
  6
Continuous
 62
     7
370
    30
100
AcDbCircle
 10
3.8894922667
 20
9.1088353492
 30
0.0
 40
0.0311111111111111
100
AcDbArc
 50
90.0
 51
180.0
  0
ARC
  5
23D
330
1F
100
AcDbEntity
  8
0
  6
Continuous
 62
     7
370
    30
100
AcDbCircle
 10
3.8894922667
 20
9.1088353492
 30
0.0
 40
0.0155555555555553
100
AcDbArc
 50
90.0
 51
180.0
  0
LINE
  5
23E
330
1F
100
AcDbEntity
  8
0
  6
Continuous
 62
     7
370
    30
100
AcDbLine
 10
4.0894922667
 20
9.1555020159
 30
0.0
 11
4.1050478223
 21
9.1555020159
 31
0.0
  0
LINE
  5
23F
330
1F
100
AcDbEntity
  8
0
  6
Continuous
 62
     7
370
    30
100
AcDbLine
 10
4.0894922667
 20
9.1799464604
 30
0.0
 11
4.0894922667
 21
9.1555020159
 31
0.0
  0
LINE
  5
240
330
1F
100
AcDbEntity
  8
0
  6
Continuous
 62
     7
370
    30
100
AcDbLine
 10
4.1050478223
 20
9.1799464604
 30
0.0
 11
4.1050478223
 21
9.1555020159
 31
0.0
  0
LINE
  5
241
330
1F
100
AcDbEntity
  8
0
  6
Continuous
 62
     7
370
    30
100
AcDbLine
 10
4.0739367112
 20
9.1243909048
 30
0.0
 11
4.0739367112
 21
9.1399464604
 31
0.0
  0
ARC
  5
242
330
1F
100
AcDbEntity
  8
0
  6
Continuous
 62
     7
370
    30
100
AcDbCircle
 10
4.0739367112
 20
9.1555020159
 30
0.0
 40
0.0311111111111115
100
AcDbArc
 50
270.0
 51
0.0
  0
ARC
  5
243
330
1F
100
AcDbEntity
  8
0
  6
Continuous
 62
     7
370
    30
100
AcDbCircle
 10
4.0739367112
 20
9.1555020159
 30
0.0
 40
0.0155555555555562
100
AcDbArc
 50
270.0
 51
0.0
  0
LINE
  5
244
330
1F
100
AcDbEntity
  8
0
  6
Continuous
 62
     7
370
    30
100
AcDbLine
 10
3.8894922667
 20
9.1243909048
 30
0.0
 11
4.0739367112
 21
9.1243909048
 31
0.0
  0
LINE
  5
245
330
1F
100
AcDbEntity
  8
0
  6
Continuous
 62
     7
370
    30
100
AcDbLine
 10
3.8894922667
 20
9.1399464604
 30
0.0
 11
4.0739367112
 21
9.1399464604
 31
0.0
  0
LINE
  5
246
330
1F
100
AcDbEntity
  8
0
  6
Continuous
 62
     7
370
    30
100
AcDbLine
 10
4.1306033778
 20
9.1555020159
 30
0.0
 11
4.1150478223
 21
9.1555020159
 31
0.0
  0
LINE
  5
247
330
1F
100
AcDbEntity
  8
0
  6
Continuous
 62
     7
370
    30
100
AcDbLine
 10
4.1461589334
 20
9.1243909048
 30
0.0
 11
4.1461589334
 21
9.1399464604
 31
0.0
  0
ARC
  5
248
330
1F
100
AcDbEntity
  8
0
  6
Continuous
 62
     7
370
    30
100
AcDbCircle
 10
4.1461589334
 20
9.1555020159
 30
0.0
 40
0.0155555555555553
100
AcDbArc
 50
180.0
 51
270.0
  0
ARC
  5
249
330
1F
100
AcDbEntity
  8
0
  6
Continuous
 62
     7
370
    30
100
AcDbCircle
 10
4.1461589334
 20
9.1555020159
 30
0.0
 40
0.0311111111111106
100
AcDbArc
 50
180.0
 51
270.0
  0
LINE
  5
24A
330
1F
100
AcDbEntity
  8
0
  6
Continuous
 62
     7
370
    30
100
AcDbLine
 10
4.3306033778
 20
9.1243909048
 30
0.0
 11
4.3306033778
 21
9.1399464604
 31
0.0
  0
LINE
  5
24B
330
1F
100
AcDbEntity
  8
0
  6
Continuous
 62
     7
370
    30
100
AcDbLine
 10
4.1461589334
 20
9.1399464604
 30
0.0
 11
4.3306033778
 21
9.1399464604
 31
0.0
  0
LINE
  5
24C
330
1F
100
AcDbEntity
  8
0
  6
Continuous
 62
     7
370
    30
100
AcDbLine
 10
4.1461589334
 20
9.1243909048
 30
0.0
 11
4.3306033778
 21
9.1243909048
 31
0.0
  0
LINE
  5
24D
330
1F
100
AcDbEntity
  8
0
  6
Continuous
 62
     7
370
    30
100
AcDbLine
 10
4.1150478223
 20
9.1555020159
 30
0.0
 11
4.1150478223
 21
9.1799464604
 31
0.0
  0
LINE
  5
24E
330
1F
100
AcDbEntity
  8
0
  6
Continuous
 62
     7
370
    30
100
AcDbLine
 10
4.1306033778
 20
9.1555020159
 30
0.0
 11
4.1306033778
 21
9.1799464604
 31
0.0
  0
ARC
  5
24F
330
1F
100
AcDbEntity
  8
0
  6
Continuous
 62
     7
370
    30
100
AcDbCircle
 10
4.3306033778
 20
9.1088353492
 30
0.0
 40
0.0311111111111106
100
AcDbArc
 50
0.0
 51
90.0
  0
ARC
  5
250
330
1F
100
AcDbEntity
  8
0
  6
Continuous
 62
     7
370
    30
100
AcDbCircle
 10
4.3306033778
 20
9.1088353492
 30
0.0
 40
0.0155555555555553
100
AcDbArc
 50
360.0
 51
90.0
  0
LINE
  5
251
330
1F
100
AcDbEntity
  8
0
  6
Continuous
 62
     7
370
    30
100
AcDbLine
 10
3.8583811556
 20
8.625750446
 30
0.0
 11
3.8739367112
 21
8.625750446
 31
0.0
  0
LINE
  5
252
330
1F
100
AcDbEntity
  8
0
  6
Continuous
 62
     7
370
    30
100
AcDbLine
 10
3.8739367112
 20
8.9791762898
 30
0.0
 11
3.8739367112
 21
8.625750446
 31
0.0
  0
LINE
  5
253
330
1F
100
AcDbEntity
  8
0
  6
Continuous
 62
     7
370
    30
100
AcDbLine
 10
3.8583811556
 20
8.9791762898
 30
0.0
 11
3.8583811556
 21
8.625750446
 31
0.0
  0
LINE
  5
254
330
1F
100
AcDbEntity
  8
0
  6
Continuous
 62
     7
370
    30
100
AcDbLine
 10
4.3461589334
 20
8.625750446
 30
0.0
 11
4.361714489
 21
8.625750446
 31
0.0
  0
LINE
  5
255
330
1F
100
AcDbEntity
  8
0
  6
Continuous
 62
     7
370
    30
100
AcDbLine
 10
4.3461589334
 20
8.625750446
 30
0.0
 11
4.3461589334
 21
8.9791762898
 31
0.0
  0
LINE
  5
256
330
1F
100
AcDbEntity
  8
0
  6
Continuous
 62
     7
370
    30
100
AcDbLine
 10
4.361714489
 20
8.625750446
 30
0.0
 11
4.361714489
 21
8.9791762898
 31
0.0
  0
LINE
  5
257
330
1F
100
AcDbEntity
  8
0
  6
Continuous
 62
     7
370
    30
100
AcDbLine
 10
4.361714489
 20
8.6243909048
 30
0.0
 11
4.3461589334
 21
8.6243909048
 31
0.0
  0
LINE
  5
258
330
1F
100
AcDbEntity
  8
0
  6
Continuous
 62
     7
370
    30
100
AcDbLine
 10
4.3461589334
 20
8.6243909048
 30
0.0
 11
4.3461589334
 21
8.625750446
 31
0.0
  0
LINE
  5
259
330
1F
100
AcDbEntity
  8
0
  6
Continuous
 62
     7
370
    30
100
AcDbLine
 10
4.361714489
 20
8.625750446
 30
0.0
 11
4.361714489
 21
8.6243909048
 31
0.0
  0
LINE
  5
25A
330
1F
100
AcDbEntity
  8
0
  6
Continuous
 62
     7
370
    30
100
AcDbLine
 10
3.8739367112
 20
8.6243909048
 30
0.0
 11
3.8583811556
 21
8.6243909048
 31
0.0
  0
LINE
  5
25B
330
1F
100
AcDbEntity
  8
0
  6
Continuous
 62
     7
370
    30
100
AcDbLine
 10
3.8739367112
 20
8.625750446
 30
0.0
 11
3.8739367112
 21
8.6243909048
 31
0.0
  0
LINE
  5
25C
330
1F
100
AcDbEntity
  8
0
  6
Continuous
 62
     7
370
    30
100
AcDbLine
 10
3.8583811556
 20
8.6243909048
 30
0.0
 11
3.8583811556
 21
8.625750446
 31
0.0
  0
LINE
  5
25D
330
1F
100
AcDbEntity
  8
0
  6
Continuous
 62
     7
370
    30
100
AcDbLine
 10
3.8894922667
 20
8.6243909048
 30
0.0
 11
3.8894922667
 21
9.0688353492
 31
0.0
  0
LINE
  5
25E
330
1F
100
AcDbEntity
  8
0
  6
Continuous
 62
     7
370
    30
100
AcDbLine
 10
3.8894922667
 20
8.6243909048
 30
0.0
 11
3.8739367112
 21
8.6243909048
 31
0.0
  0
LINE
  5
25F
330
1F
100
AcDbEntity
  8
0
  6
Continuous
 62
     7
370
    30
100
AcDbLine
 10
3.8739367112
 20
9.0688353492
 30
0.0
 11
3.8894922667
 21
9.0688353492
 31
0.0
  0
LINE
  5
260
330
1F
100
AcDbEntity
  8
0
  6
Continuous
 62
     7
370
    30
100
AcDbLine
 10
4.3306033778
 20
9.0688353492
 30
0.0
 11
4.3306033778
 21
8.6243909048
 31
0.0
  0
LINE
  5
261
330
1F
100
AcDbEntity
  8
0
  6
Continuous
 62
     7
370
    30
100
AcDbLine
 10
4.3306033778
 20
9.0688353492
 30
0.0
 11
4.3461589334
 21
9.0688353492
 31
0.0
  0
LINE
  5
262
330
1F
100
AcDbEntity
  8
0
  6
Continuous
 62
     7
370
    30
100
AcDbLine
 10
4.3461589334
 20
8.6243909048
 30
0.0
 11
4.3306033778
 21
8.6243909048
 31
0.0
  0
LINE
  5
263
330
1F
100
AcDbEntity
  8
0
  6
Continuous
 62
     7
370
    30
100
AcDbLine
 10
4.3306033778
 20
9.0688353492
 30
0.0
 11
3.8894922667
 21
9.0688353492
 31
0.0
  0
LINE
  5
264
330
1F
100
AcDbEntity
  8
0
  6
Continuous
 62
     7
370
    30
100
AcDbLine
 10
3.8894922667
 20
8.6243909048
 30
0.0
 11
4.3306033778
 21
8.6243909048
 31
0.0
  0
INSERT
  5
270
330
1F
100
AcDbEntity
  8
BLANK-SIZE-2
100
AcDbBlockReference
  2
SW_CENTERMARKSYMBOL_6
 10
3.8394922667
 20
9.9488353492
 30
0.0
  0
INSERT
  5
27C
330
1F
100
AcDbEntity
  8
BLANK-SIZE-2
100
AcDbBlockReference
  2
SW_CENTERMARKSYMBOL_7
 10
3.6728256001
 20
9.8932797937
 30
0.0
  0
INSERT
  5
288
330
1F
100
AcDbEntity
  8
BLANK-SIZE-2
100
AcDbBlockReference
  2
SW_CENTERMARKSYMBOL_8
 10
4.3806033778
 20
9.976613127
 30
0.0
  0
INSERT
  5
294
330
1F
100
AcDbEntity
  8
BLANK-SIZE-2
100
AcDbBlockReference
  2
SW_CENTERMARKSYMBOL_9
 10
4.5472700445
 20
9.9210575715
 30
0.0
  0
ENDSEC
  0
SECTION
  2
OBJECTS
  0
DICTIONARY
  5
C
330
0
100
AcDbDictionary
281
     1
  3
ACAD_GROUP
350
D
  3
ACAD_LAYOUT
350
1A
  3
ACAD_MLINESTYLE
350
17
  3
ACAD_PLOTSETTINGS
350
19
  3
ACAD_PLOTSTYLENAME
350
E
  3
ACAD_SCALELIST
350
47
  0
DICTIONARY
  5
D
102
{ACAD_REACTORS
330
C
102
}
330
C
100
AcDbDictionary
281
     1
  0
DICTIONARY
  5
1A
102
{ACAD_REACTORS
330
C
102
}
330
C
100
AcDbDictionary
281
     1
  3
Layout1
350
1E
  3
Layout2
350
26
  3
Model
350
22
  0
DICTIONARY
  5
17
102
{ACAD_REACTORS
330
C
102
}
330
C
100
AcDbDictionary
281
     1
  3
Standard
350
18
  0
DICTIONARY
  5
19
102
{ACAD_REACTORS
330
C
102
}
330
C
100
AcDbDictionary
281
     1
  0
ACDBDICTIONARYWDFLT
  5
E
102
{ACAD_REACTORS
330
C
102
}
330
C
100
AcDbDictionary
281
     1
  3
Normal
350
F
100
AcDbDictionaryWithDefault
340
F
  0
DICTIONARY
  5
47
102
{ACAD_REACTORS
330
C
102
}
330
C
100
AcDbDictionary
281
     1
  3
A0
350
48
  3
A1
350
49
  3
A2
350
4A
  3
A3
350
4B
  3
A4
350
4C
  3
A5
350
4D
  3
A6
350
4E
  3
A7
350
4F
  3
A8
350
50
  3
A9
350
51
  3
B0
350
52
  3
B1
350
53
  3
B2
350
54
  3
B3
350
55
  3
B4
350
56
  3
B5
350
57
  3
B6
350
58
  3
B7
350
59
  3
B8
350
5A
  3
B9
350
5B
  3
C0
350
5C
  3
C1
350
5D
  3
C2
350
5E
  3
C3
350
5F
  3
C4
350
60
  3
C5
350
61
  3
C6
350
62
  3
C7
350
63
  3
C8
350
64
  3
C9
350
65
  3
D0
350
66
  3
D1
350
67
  3
D2
350
68
  0
LAYOUT
  5
1E
102
{ACAD_REACTORS
330
1A
102
}
330
1A
100
AcDbPlotSettings
  1

  2
none_device
  4

  6

 40
0.0
 41
0.0
 42
0.0
 43
0.0
 44
0.0
 45
0.0
 46
0.0
 47
0.0
 48
0.0
 49
0.0
140
0.0
141
0.0
142
1.0
143
1.0
 70
   688
 72
     0
 73
     0
 74
     5
  7

 75
    16
147
1.0
148
0.0
149
0.0
100
AcDbLayout
  1
Layout1
 70
     1
 71
     1
 10
0.0
 20
0.0
 11
12.0
 21
9.0
 12
0.0
 22
0.0
 32
0.0
 14
1.0000000000E+20
 24
1.0000000000E+20
 34
1.0000000000E+20
 15
-1.0000000000E+20
 25
-1.0000000000E+20
 35
-1.0000000000E+20
146
0.0
 13
0.0
 23
0.0
 33
0.0
 16
1.0
 26
0.0
 36
0.0
 17
0.0
 27
1.0
 37
0.0
 76
     0
330
1B
  0
LAYOUT
  5
26
102
{ACAD_REACTORS
330
1A
102
}
330
1A
100
AcDbPlotSettings
  1

  2
none_device
  4

  6

 40
0.0
 41
0.0
 42
0.0
 43
0.0
 44
0.0
 45
0.0
 46
0.0
 47
0.0
 48
0.0
 49
0.0
140
0.0
141
0.0
142
1.0
143
1.0
 70
   688
 72
     0
 73
     0
 74
     5
  7

 75
    16
147
1.0
148
0.0
149
0.0
100
AcDbLayout
  1
Layout2
 70
     1
 71
     2
 10
0.0
 20
0.0
 11
0.0
 21
0.0
 12
0.0
 22
0.0
 32
0.0
 14
0.0
 24
0.0
 34
0.0
 15
0.0
 25
0.0
 35
0.0
146
0.0
 13
0.0
 23
0.0
 33
0.0
 16
1.0
 26
0.0
 36
0.0
 17
0.0
 27
1.0
 37
0.0
 76
     0
330
23
  0
LAYOUT
  5
22
102
{ACAD_REACTORS
330
1A
102
}
330
1A
100
AcDbPlotSettings
  1

  2
none_device
  4
Letter_(8.50_x_11.00_Inches)
  6

 40
6.35
 41
6.35
 42
6.35000508
 43
6.35000508
 44
215.9
 45
279.4
 46
0.0
 47
0.0
 48
0.0
 49
0.0
140
0.0
141
0.0
142
1.0
143
1.0
 70
  1712
 72
     0
 73
     0
 74
     0
  7

 75
     0
147
1.0
148
0.0
149
0.0
100
AcDbLayout
  1
Model
 70
     1
 71
     0
 10
0.0
 20
0.0
 11
8.5
 21
11.0
 12
0.0
 22
0.0
 32
0.0
 14
0.0
 24
0.0
 34
0.0
 15
8.5
 25
11.0
 35
0.0
146
0.0
 13
0.0
 23
0.0
 33
0.0
 16
1.0
 26
0.0
 36
0.0
 17
0.0
 27
1.0
 37
0.0
 76
     0
330
1F
331
29
  0
MLINESTYLE
  5
18
102
{ACAD_REACTORS
330
17
102
}
330
17
100
AcDbMlineStyle
  2
Standard
 70
     0
  3

 62
   256
 51
90.0
 52
90.0
 71
     2
 49
0.5
 62
   256
  6
BYLAYER
 49
-0.5
 62
   256
  6
BYLAYER
  0
ACDBPLACEHOLDER
  5
F
102
{ACAD_REACTORS
330
E
102
}
330
E
  0
SCALE
  5
48
102
{ACAD_REACTORS
330
47
102
}
330
47
100
AcDbScale
 70
     0
300
1:1
140
1.0
141
1.0
290
     1
  0
SCALE
  5
49
102
{ACAD_REACTORS
330
47
102
}
330
47
100
AcDbScale
 70
     0
300
1:2
140
1.0
141
2.0
290
     0
  0
SCALE
  5
4A
102
{ACAD_REACTORS
330
47
102
}
330
47
100
AcDbScale
 70
     0
300
1:4
140
1.0
141
4.0
290
     0
  0
SCALE
  5
4B
102
{ACAD_REACTORS
330
47
102
}
330
47
100
AcDbScale
 70
     0
300
1:5
140
1.0
141
5.0
290
     0
  0
SCALE
  5
4C
102
{ACAD_REACTORS
330
47
102
}
330
47
100
AcDbScale
 70
     0
300
1:8
140
1.0
141
8.0
290
     0
  0
SCALE
  5
4D
102
{ACAD_REACTORS
330
47
102
}
330
47
100
AcDbScale
 70
     0
300
1:10
140
1.0
141
10.0
290
     0
  0
SCALE
  5
4E
102
{ACAD_REACTORS
330
47
102
}
330
47
100
AcDbScale
 70
     0
300
1:16
140
1.0
141
16.0
290
     0
  0
SCALE
  5
4F
102
{ACAD_REACTORS
330
47
102
}
330
47
100
AcDbScale
 70
     0
300
1:20
140
1.0
141
20.0
290
     0
  0
SCALE
  5
50
102
{ACAD_REACTORS
330
47
102
}
330
47
100
AcDbScale
 70
     0
300
1:30
140
1.0
141
30.0
290
     0
  0
SCALE
  5
51
102
{ACAD_REACTORS
330
47
102
}
330
47
100
AcDbScale
 70
     0
300
1:40
140
1.0
141
40.0
290
     0
  0
SCALE
  5
52
102
{ACAD_REACTORS
330
47
102
}
330
47
100
AcDbScale
 70
     0
300
1:50
140
1.0
141
50.0
290
     0
  0
SCALE
  5
53
102
{ACAD_REACTORS
330
47
102
}
330
47
100
AcDbScale
 70
     0
300
1:100
140
1.0
141
100.0
290
     0
  0
SCALE
  5
54
102
{ACAD_REACTORS
330
47
102
}
330
47
100
AcDbScale
 70
     0
300
2:1
140
2.0
141
1.0
290
     0
  0
SCALE
  5
55
102
{ACAD_REACTORS
330
47
102
}
330
47
100
AcDbScale
 70
     0
300
4:1
140
4.0
141
1.0
290
     0
  0
SCALE
  5
56
102
{ACAD_REACTORS
330
47
102
}
330
47
100
AcDbScale
 70
     0
300
8:1
140
8.0
141
1.0
290
     0
  0
SCALE
  5
57
102
{ACAD_REACTORS
330
47
102
}
330
47
100
AcDbScale
 70
     0
300
10:1
140
10.0
141
1.0
290
     0
  0
SCALE
  5
58
102
{ACAD_REACTORS
330
47
102
}
330
47
100
AcDbScale
 70
     0
300
100:1
140
100.0
141
1.0
290
     0
  0
SCALE
  5
59
102
{ACAD_REACTORS
330
47
102
}
330
47
100
AcDbScale
 70
     0
300
1/128" = 1'-0"
140
0.0078125
141
12.0
290
     0
  0
SCALE
  5
5A
102
{ACAD_REACTORS
330
47
102
}
330
47
100
AcDbScale
 70
     0
300
1/64" = 1'-0"
140
0.015625
141
12.0
290
     0
  0
SCALE
  5
5B
102
{ACAD_REACTORS
330
47
102
}
330
47
100
AcDbScale
 70
     0
300
1/32" = 1'-0"
140
0.03125
141
12.0
290
     0
  0
SCALE
  5
5C
102
{ACAD_REACTORS
330
47
102
}
330
47
100
AcDbScale
 70
     0
300
1/16" = 1'-0"
140
0.0625
141
12.0
290
     0
  0
SCALE
  5
5D
102
{ACAD_REACTORS
330
47
102
}
330
47
100
AcDbScale
 70
     0
300
3/32" = 1'-0"
140
0.09375
141
12.0
290
     0
  0
SCALE
  5
5E
102
{ACAD_REACTORS
330
47
102
}
330
47
100
AcDbScale
 70
     0
300
1/8" = 1'-0"
140
0.125
141
12.0
290
     0
  0
SCALE
  5
5F
102
{ACAD_REACTORS
330
47
102
}
330
47
100
AcDbScale
 70
     0
300
3/16" = 1'-0"
140
0.1875
141
12.0
290
     0
  0
SCALE
  5
60
102
{ACAD_REACTORS
330
47
102
}
330
47
100
AcDbScale
 70
     0
300
1/4" = 1'-0"
140
0.25
141
12.0
290
     0
  0
SCALE
  5
61
102
{ACAD_REACTORS
330
47
102
}
330
47
100
AcDbScale
 70
     0
300
3/8" = 1'-0"
140
0.375
141
12.0
290
     0
  0
SCALE
  5
62
102
{ACAD_REACTORS
330
47
102
}
330
47
100
AcDbScale
 70
     0
300
1/2" = 1'-0"
140
0.5
141
12.0
290
     0
  0
SCALE
  5
63
102
{ACAD_REACTORS
330
47
102
}
330
47
100
AcDbScale
 70
     0
300
3/4" = 1'-0"
140
0.75
141
12.0
290
     0
  0
SCALE
  5
64
102
{ACAD_REACTORS
330
47
102
}
330
47
100
AcDbScale
 70
     0
300
1" = 1'-0"
140
1.0
141
12.0
290
     0
  0
SCALE
  5
65
102
{ACAD_REACTORS
330
47
102
}
330
47
100
AcDbScale
 70
     0
300
1-1/2" = 1'-0"
140
1.5
141
12.0
290
     0
  0
SCALE
  5
66
102
{ACAD_REACTORS
330
47
102
}
330
47
100
AcDbScale
 70
     0
300
3" = 1'-0"
140
3.0
141
12.0
290
     0
  0
SCALE
  5
67
102
{ACAD_REACTORS
330
47
102
}
330
47
100
AcDbScale
 70
     0
300
6" = 1'-0"
140
6.0
141
12.0
290
     0
  0
SCALE
  5
68
102
{ACAD_REACTORS
330
47
102
}
330
47
100
AcDbScale
 70
     0
300
1'-0" = 1'-0"
140
12.0
141
12.0
290
     0
  0
ENDSEC
  0
EOF
